ISO-10303-21;
HEADER;
/* Generated by software containing ST-Developer
 * from STEP Tools, Inc. (www.steptools.com) 
 */

FILE_DESCRIPTION(
/* description */ (''),
/* implementation_level */ '2;1');

FILE_NAME(
/* name */ 'C:/Users/DFQC7241/Documents/ReaDavier.stp',
/* time_stamp */ '2020-08-04T09:20:55+02:00',
/* author */ (''),
/* organization */ (''),
/* preprocessor_version */ 'ST-DEVELOPER v15.2',
/* originating_system */ 'Autodesk Translator Framework v2.0.0.5431',
/* authorisation */ '');

FILE_SCHEMA (('AUTOMOTIVE_DESIGN { 1 0 10303 214 3 1 1 }'));
ENDSEC;

DATA;
#10=SHAPE_REPRESENTATION_RELATIONSHIP('SRR','None',#306,#11);
#11=ADVANCED_BREP_SHAPE_REPRESENTATION($,(#168),#300);
#12=STYLED_ITEM($,(#314),#168);
#13=CYLINDRICAL_SURFACE($,#186,2.5);
#14=CYLINDRICAL_SURFACE($,#189,5.);
#15=CYLINDRICAL_SURFACE($,#193,5.);
#16=CYLINDRICAL_SURFACE($,#197,0.85);
#17=CONICAL_SURFACE($,#175,4.5,0.620249485982822);
#18=CONICAL_SURFACE($,#182,4.5,0.620249485982822);
#19=PLANE($,#173);
#20=PLANE($,#180);
#21=PLANE($,#191);
#22=PLANE($,#195);
#23=FACE_BOUND($,#52,.T.);
#24=FACE_BOUND($,#53,.T.);
#25=FACE_BOUND($,#54,.T.);
#26=FACE_BOUND($,#56,.T.);
#27=FACE_BOUND($,#58,.T.);
#28=FACE_BOUND($,#59,.T.);
#29=FACE_BOUND($,#60,.T.);
#30=FACE_BOUND($,#62,.T.);
#31=FACE_BOUND($,#64,.T.);
#32=FACE_BOUND($,#66,.T.);
#33=FACE_BOUND($,#68,.T.);
#34=FACE_BOUND($,#70,.T.);
#35=FACE_BOUND($,#72,.T.);
#36=FACE_BOUND($,#74,.T.);
#37=FACE_BOUND($,#76,.T.);
#38=FACE_BOUND($,#78,.T.);
#39=FACE_OUTER_BOUND($,#51,.T.);
#40=FACE_OUTER_BOUND($,#55,.T.);
#41=FACE_OUTER_BOUND($,#57,.T.);
#42=FACE_OUTER_BOUND($,#61,.T.);
#43=FACE_OUTER_BOUND($,#63,.T.);
#44=FACE_OUTER_BOUND($,#65,.T.);
#45=FACE_OUTER_BOUND($,#67,.T.);
#46=FACE_OUTER_BOUND($,#69,.T.);
#47=FACE_OUTER_BOUND($,#71,.T.);
#48=FACE_OUTER_BOUND($,#73,.T.);
#49=FACE_OUTER_BOUND($,#75,.T.);
#50=FACE_OUTER_BOUND($,#77,.T.);
#51=EDGE_LOOP($,(#121));
#52=EDGE_LOOP($,(#122));
#53=EDGE_LOOP($,(#123));
#54=EDGE_LOOP($,(#124));
#55=EDGE_LOOP($,(#125));
#56=EDGE_LOOP($,(#126));
#57=EDGE_LOOP($,(#127));
#58=EDGE_LOOP($,(#128));
#59=EDGE_LOOP($,(#129));
#60=EDGE_LOOP($,(#130));
#61=EDGE_LOOP($,(#131));
#62=EDGE_LOOP($,(#132));
#63=EDGE_LOOP($,(#133));
#64=EDGE_LOOP($,(#134));
#65=EDGE_LOOP($,(#135));
#66=EDGE_LOOP($,(#136));
#67=EDGE_LOOP($,(#137));
#68=EDGE_LOOP($,(#138));
#69=EDGE_LOOP($,(#139));
#70=EDGE_LOOP($,(#140));
#71=EDGE_LOOP($,(#141));
#72=EDGE_LOOP($,(#142));
#73=EDGE_LOOP($,(#143));
#74=EDGE_LOOP($,(#144));
#75=EDGE_LOOP($,(#145));
#76=EDGE_LOOP($,(#146));
#77=EDGE_LOOP($,(#147));
#78=EDGE_LOOP($,(#148));
#79=CIRCLE($,#171,3.7426910523541);
#80=CIRCLE($,#172,4.14955778795747);
#81=CIRCLE($,#174,3.);
#82=CIRCLE($,#176,5.);
#83=CIRCLE($,#178,4.14955778795747);
#84=CIRCLE($,#179,3.7426910523541);
#85=CIRCLE($,#181,3.);
#86=CIRCLE($,#183,5.);
#87=CIRCLE($,#185,2.5);
#88=CIRCLE($,#187,2.5);
#89=CIRCLE($,#190,5.);
#90=CIRCLE($,#192,0.85);
#91=CIRCLE($,#194,5.);
#92=CIRCLE($,#196,0.85);
#93=VERTEX_POINT($,#258);
#94=VERTEX_POINT($,#260);
#95=VERTEX_POINT($,#263);
#96=VERTEX_POINT($,#266);
#97=VERTEX_POINT($,#269);
#98=VERTEX_POINT($,#271);
#99=VERTEX_POINT($,#274);
#100=VERTEX_POINT($,#277);
#101=VERTEX_POINT($,#280);
#102=VERTEX_POINT($,#283);
#103=VERTEX_POINT($,#287);
#104=VERTEX_POINT($,#290);
#105=VERTEX_POINT($,#293);
#106=VERTEX_POINT($,#296);
#107=EDGE_CURVE($,#93,#93,#79,.T.);
#108=EDGE_CURVE($,#94,#94,#80,.T.);
#109=EDGE_CURVE($,#95,#95,#81,.T.);
#110=EDGE_CURVE($,#96,#96,#82,.T.);
#111=EDGE_CURVE($,#97,#97,#83,.T.);
#112=EDGE_CURVE($,#98,#98,#84,.T.);
#113=EDGE_CURVE($,#99,#99,#85,.T.);
#114=EDGE_CURVE($,#100,#100,#86,.T.);
#115=EDGE_CURVE($,#101,#101,#87,.T.);
#116=EDGE_CURVE($,#102,#102,#88,.T.);
#117=EDGE_CURVE($,#103,#103,#89,.T.);
#118=EDGE_CURVE($,#104,#104,#90,.T.);
#119=EDGE_CURVE($,#105,#105,#91,.T.);
#120=EDGE_CURVE($,#106,#106,#92,.T.);
#121=ORIENTED_EDGE($,*,*,#107,.T.);
#122=ORIENTED_EDGE($,*,*,#108,.T.);
#123=ORIENTED_EDGE($,*,*,#109,.F.);
#124=ORIENTED_EDGE($,*,*,#107,.F.);
#125=ORIENTED_EDGE($,*,*,#110,.F.);
#126=ORIENTED_EDGE($,*,*,#108,.F.);
#127=ORIENTED_EDGE($,*,*,#111,.T.);
#128=ORIENTED_EDGE($,*,*,#112,.T.);
#129=ORIENTED_EDGE($,*,*,#113,.F.);
#130=ORIENTED_EDGE($,*,*,#112,.F.);
#131=ORIENTED_EDGE($,*,*,#114,.T.);
#132=ORIENTED_EDGE($,*,*,#111,.F.);
#133=ORIENTED_EDGE($,*,*,#115,.T.);
#134=ORIENTED_EDGE($,*,*,#109,.T.);
#135=ORIENTED_EDGE($,*,*,#116,.F.);
#136=ORIENTED_EDGE($,*,*,#115,.F.);
#137=ORIENTED_EDGE($,*,*,#113,.T.);
#138=ORIENTED_EDGE($,*,*,#116,.T.);
#139=ORIENTED_EDGE($,*,*,#110,.T.);
#140=ORIENTED_EDGE($,*,*,#117,.F.);
#141=ORIENTED_EDGE($,*,*,#117,.T.);
#142=ORIENTED_EDGE($,*,*,#118,.F.);
#143=ORIENTED_EDGE($,*,*,#114,.F.);
#144=ORIENTED_EDGE($,*,*,#119,.T.);
#145=ORIENTED_EDGE($,*,*,#119,.F.);
#146=ORIENTED_EDGE($,*,*,#120,.T.);
#147=ORIENTED_EDGE($,*,*,#118,.T.);
#148=ORIENTED_EDGE($,*,*,#120,.F.);
#149=TOROIDAL_SURFACE($,#170,3.7426910523541,0.5);
#150=TOROIDAL_SURFACE($,#177,3.7426910523541,0.5);
#151=TOROIDAL_SURFACE($,#184,3.,0.5);
#152=TOROIDAL_SURFACE($,#188,3.,0.5);
#153=ADVANCED_FACE($,(#39,#23),#149,.T.);
#154=ADVANCED_FACE($,(#24,#25),#19,.T.);
#155=ADVANCED_FACE($,(#40,#26),#17,.T.);
#156=ADVANCED_FACE($,(#41,#27),#150,.T.);
#157=ADVANCED_FACE($,(#28,#29),#20,.F.);
#158=ADVANCED_FACE($,(#42,#30),#18,.T.);
#159=ADVANCED_FACE($,(#43,#31),#151,.F.);
#160=ADVANCED_FACE($,(#44,#32),#13,.T.);
#161=ADVANCED_FACE($,(#45,#33),#152,.F.);
#162=ADVANCED_FACE($,(#46,#34),#14,.T.);
#163=ADVANCED_FACE($,(#47,#35),#21,.T.);
#164=ADVANCED_FACE($,(#48,#36),#15,.T.);
#165=ADVANCED_FACE($,(#49,#37),#22,.F.);
#166=ADVANCED_FACE($,(#50,#38),#16,.F.);
#167=CLOSED_SHELL($,(#153,#154,#155,#156,#157,#158,#159,#160,#161,#162,
#163,#164,#165,#166));
#168=MANIFOLD_SOLID_BREP('ASM Body',#167);
#169=AXIS2_PLACEMENT_3D('placement',#256,#198,#199);
#170=AXIS2_PLACEMENT_3D($,#257,#200,#201);
#171=AXIS2_PLACEMENT_3D($,#259,#202,#203);
#172=AXIS2_PLACEMENT_3D($,#261,#204,#205);
#173=AXIS2_PLACEMENT_3D($,#262,#206,#207);
#174=AXIS2_PLACEMENT_3D($,#264,#208,#209);
#175=AXIS2_PLACEMENT_3D($,#265,#210,#211);
#176=AXIS2_PLACEMENT_3D($,#267,#212,#213);
#177=AXIS2_PLACEMENT_3D($,#268,#214,#215);
#178=AXIS2_PLACEMENT_3D($,#270,#216,#217);
#179=AXIS2_PLACEMENT_3D($,#272,#218,#219);
#180=AXIS2_PLACEMENT_3D($,#273,#220,#221);
#181=AXIS2_PLACEMENT_3D($,#275,#222,#223);
#182=AXIS2_PLACEMENT_3D($,#276,#224,#225);
#183=AXIS2_PLACEMENT_3D($,#278,#226,#227);
#184=AXIS2_PLACEMENT_3D($,#279,#228,#229);
#185=AXIS2_PLACEMENT_3D($,#281,#230,#231);
#186=AXIS2_PLACEMENT_3D($,#282,#232,#233);
#187=AXIS2_PLACEMENT_3D($,#284,#234,#235);
#188=AXIS2_PLACEMENT_3D($,#285,#236,#237);
#189=AXIS2_PLACEMENT_3D($,#286,#238,#239);
#190=AXIS2_PLACEMENT_3D($,#288,#240,#241);
#191=AXIS2_PLACEMENT_3D($,#289,#242,#243);
#192=AXIS2_PLACEMENT_3D($,#291,#244,#245);
#193=AXIS2_PLACEMENT_3D($,#292,#246,#247);
#194=AXIS2_PLACEMENT_3D($,#294,#248,#249);
#195=AXIS2_PLACEMENT_3D($,#295,#250,#251);
#196=AXIS2_PLACEMENT_3D($,#297,#252,#253);
#197=AXIS2_PLACEMENT_3D($,#298,#254,#255);
#198=DIRECTION('axis',(0.,0.,1.));
#199=DIRECTION('refdir',(1.,0.,0.));
#200=DIRECTION('center_axis',(1.,0.,0.));
#201=DIRECTION('ref_axis',(0.,0.,-1.));
#202=DIRECTION('center_axis',(1.,0.,0.));
#203=DIRECTION('ref_axis',(0.,-1.,1.83697019872103E-016));
#204=DIRECTION('center_axis',(-1.,0.,0.));
#205=DIRECTION('ref_axis',(0.,-1.,3.06161699786838E-017));
#206=DIRECTION('center_axis',(-1.,0.,0.));
#207=DIRECTION('ref_axis',(0.,0.,1.));
#208=DIRECTION('center_axis',(-1.,0.,0.));
#209=DIRECTION('ref_axis',(0.,-1.,1.83697019872103E-016));
#210=DIRECTION('center_axis',(1.,0.,0.));
#211=DIRECTION('ref_axis',(0.,1.,0.));
#212=DIRECTION('center_axis',(1.,0.,0.));
#213=DIRECTION('ref_axis',(0.,0.,-1.));
#214=DIRECTION('center_axis',(1.,0.,0.));
#215=DIRECTION('ref_axis',(0.,0.,-1.));
#216=DIRECTION('center_axis',(1.,0.,0.));
#217=DIRECTION('ref_axis',(0.,-1.,3.06161699786838E-017));
#218=DIRECTION('center_axis',(-1.,0.,0.));
#219=DIRECTION('ref_axis',(0.,-1.,1.83697019872103E-016));
#220=DIRECTION('center_axis',(-1.,0.,0.));
#221=DIRECTION('ref_axis',(0.,0.,1.));
#222=DIRECTION('center_axis',(1.,0.,0.));
#223=DIRECTION('ref_axis',(0.,-1.,1.83697019872103E-016));
#224=DIRECTION('center_axis',(-1.,0.,0.));
#225=DIRECTION('ref_axis',(0.,1.,0.));
#226=DIRECTION('center_axis',(1.,0.,0.));
#227=DIRECTION('ref_axis',(0.,0.,-1.));
#228=DIRECTION('center_axis',(1.,0.,0.));
#229=DIRECTION('ref_axis',(0.,0.,-1.));
#230=DIRECTION('center_axis',(1.,0.,0.));
#231=DIRECTION('ref_axis',(0.,-1.,1.83697019872103E-016));
#232=DIRECTION('center_axis',(1.,0.,0.));
#233=DIRECTION('ref_axis',(0.,1.,0.));
#234=DIRECTION('center_axis',(-1.,0.,0.));
#235=DIRECTION('ref_axis',(0.,-1.,1.83697019872103E-016));
#236=DIRECTION('center_axis',(1.,0.,0.));
#237=DIRECTION('ref_axis',(0.,0.,-1.));
#238=DIRECTION('center_axis',(1.,0.,0.));
#239=DIRECTION('ref_axis',(0.,1.,0.));
#240=DIRECTION('center_axis',(1.,0.,0.));
#241=DIRECTION('ref_axis',(0.,0.,-1.));
#242=DIRECTION('center_axis',(1.,0.,0.));
#243=DIRECTION('ref_axis',(0.,0.,-1.));
#244=DIRECTION('center_axis',(1.,0.,0.));
#245=DIRECTION('ref_axis',(0.,0.,-1.));
#246=DIRECTION('center_axis',(1.,0.,0.));
#247=DIRECTION('ref_axis',(0.,1.,0.));
#248=DIRECTION('center_axis',(1.,0.,0.));
#249=DIRECTION('ref_axis',(0.,0.,-1.));
#250=DIRECTION('center_axis',(1.,0.,0.));
#251=DIRECTION('ref_axis',(0.,0.,-1.));
#252=DIRECTION('center_axis',(1.,0.,0.));
#253=DIRECTION('ref_axis',(0.,0.,-1.));
#254=DIRECTION('center_axis',(1.,0.,0.));
#255=DIRECTION('ref_axis',(0.,1.,0.));
#256=CARTESIAN_POINT('',(0.,0.,0.));
#257=CARTESIAN_POINT('Origin',(-23.6,12.5,0.));
#258=CARTESIAN_POINT('',(-24.1,16.2426910523541,-2.29173730873144E-016));
#259=CARTESIAN_POINT('Origin',(-24.1,12.5,0.));
#260=CARTESIAN_POINT('',(-23.8906190968595,16.6495577879575,-1.27043566572477E-015));
#261=CARTESIAN_POINT('Origin',(-23.8906190968595,12.5,-6.35217832862385E-016));
#262=CARTESIAN_POINT('Origin',(-24.1,16.5,0.));
#263=CARTESIAN_POINT('',(-24.1,15.5,-9.18485099360515E-016));
#264=CARTESIAN_POINT('Origin',(-24.1,12.5,0.));
#265=CARTESIAN_POINT('Origin',(-23.4,12.5,0.));
#266=CARTESIAN_POINT('',(-22.7,17.5,0.));
#267=CARTESIAN_POINT('Origin',(-22.7,12.5,0.));
#268=CARTESIAN_POINT('Origin',(-27.1,12.5,0.));
#269=CARTESIAN_POINT('',(-26.8093809031405,16.6495577879575,-2.54087133144954E-016));
#270=CARTESIAN_POINT('Origin',(-26.8093809031405,12.5,-6.35217832862385E-016));
#271=CARTESIAN_POINT('',(-26.6,16.2426910523541,-1.14586865436572E-015));
#272=CARTESIAN_POINT('Origin',(-26.6,12.5,0.));
#273=CARTESIAN_POINT('Origin',(-26.6,16.5,0.));
#274=CARTESIAN_POINT('',(-26.6,15.5,-1.83697019872103E-016));
#275=CARTESIAN_POINT('Origin',(-26.6,12.5,0.));
#276=CARTESIAN_POINT('Origin',(-27.3,12.5,0.));
#277=CARTESIAN_POINT('',(-28.,17.5,0.));
#278=CARTESIAN_POINT('Origin',(-28.,12.5,0.));
#279=CARTESIAN_POINT('Origin',(-24.6,12.5,0.));
#280=CARTESIAN_POINT('',(-24.6,15.,-1.53080849893419E-016));
#281=CARTESIAN_POINT('Origin',(-24.6,12.5,0.));
#282=CARTESIAN_POINT('Origin',(-24.725,12.5,0.));
#283=CARTESIAN_POINT('',(-26.1,15.,-7.65404249467096E-016));
#284=CARTESIAN_POINT('Origin',(-26.1,12.5,0.));
#285=CARTESIAN_POINT('Origin',(-26.1,12.5,0.));
#286=CARTESIAN_POINT('Origin',(-22.6,12.5,0.));
#287=CARTESIAN_POINT('',(-22.5,17.5,0.));
#288=CARTESIAN_POINT('Origin',(-22.5,12.5,0.));
#289=CARTESIAN_POINT('Origin',(-22.5,13.35,0.));
#290=CARTESIAN_POINT('',(-22.5,13.35,0.));
#291=CARTESIAN_POINT('Origin',(-22.5,12.5,0.));
#292=CARTESIAN_POINT('Origin',(-28.1,12.5,0.));
#293=CARTESIAN_POINT('',(-28.2,17.5,0.));
#294=CARTESIAN_POINT('Origin',(-28.2,12.5,0.));
#295=CARTESIAN_POINT('Origin',(-28.2,13.35,0.));
#296=CARTESIAN_POINT('',(-28.2,13.35,0.));
#297=CARTESIAN_POINT('Origin',(-28.2,12.5,0.));
#298=CARTESIAN_POINT('Origin',(-23.925,12.5,0.));
#299=UNCERTAINTY_MEASURE_WITH_UNIT(LENGTH_MEASURE(0.001),#301,
'DISTANCE_ACCURACY_VALUE',
'Maximum model space distance between geometric entities at asserted c
onnectivities');
#300=(
GEOMETRIC_REPRESENTATION_CONTEXT(3)
GLOBAL_UNCERTAINTY_ASSIGNED_CONTEXT((#299))
GLOBAL_UNIT_ASSIGNED_CONTEXT((#301,#303,#302))
REPRESENTATION_CONTEXT('','3D')
);
#301=(
LENGTH_UNIT()
NAMED_UNIT(*)
SI_UNIT(.CENTI.,.METRE.)
);
#302=(
NAMED_UNIT(*)
SI_UNIT($,.STERADIAN.)
SOLID_ANGLE_UNIT()
);
#303=(
NAMED_UNIT(*)
PLANE_ANGLE_UNIT()
SI_UNIT($,.RADIAN.)
);
#304=SHAPE_DEFINITION_REPRESENTATION(#305,#306);
#305=PRODUCT_DEFINITION_SHAPE('',$,#308);
#306=SHAPE_REPRESENTATION('',(#169),#300);
#307=PRODUCT_DEFINITION_CONTEXT('3D Mechanical Parts',#311,'design');
#308=PRODUCT_DEFINITION('(Unsaved)','(Unsaved)',#309,#307);
#309=PRODUCT_DEFINITION_FORMATION('',$,#313);
#310=APPLICATION_PROTOCOL_DEFINITION('international standard',
'automotive_design',2009,#311);
#311=APPLICATION_CONTEXT(
'Core Data for Automotive Mechanical Design Process');
#312=PRODUCT_CONTEXT('3D Mechanical Parts',#311,'mechanical');
#313=PRODUCT('(Unsaved)','(Unsaved)',$,(#312));
#314=PRESENTATION_STYLE_ASSIGNMENT((#315));
#315=SURFACE_STYLE_USAGE(.BOTH.,#316);
#316=SURFACE_SIDE_STYLE($,(#317));
#317=SURFACE_STYLE_FILL_AREA(#318);
#318=FILL_AREA_STYLE($,(#319));
#319=FILL_AREA_STYLE_COLOUR($,#320);
#320=COLOUR_RGB('__RGBA_0.322_0.702_0.937',0.32156862745098,0.701960784313725,
0.937254901960784);
ENDSEC;
END-ISO-10303-21;
