ISO-10303-21;
HEADER;
/* Generated by software containing ST-Developer
 * from STEP Tools, Inc. (www.steptools.com) 
 */

FILE_DESCRIPTION(
/* description */ (''),
/* implementation_level */ '2;1');

FILE_NAME(
/* name */ 'C:\\Users\\roc\\Desktop\\axe.stp',
/* time_stamp */ '2020-07-29T14:10:14+02:00',
/* author */ ('ROC'),
/* organization */ ('ALMA'),
/* preprocessor_version */ 'ST-DEVELOPER v18',
/* originating_system */ 'Autodesk Inventor 2020',
/* authorisation */ '');

FILE_SCHEMA (('AUTOMOTIVE_DESIGN { 1 0 10303 214 3 1 1 }'));
ENDSEC;

DATA;
#10=MECHANICAL_DESIGN_GEOMETRIC_PRESENTATION_REPRESENTATION('',(#13),#480);
#11=SHAPE_REPRESENTATION_RELATIONSHIP('SRR','None',#487,#12);
#12=ADVANCED_BREP_SHAPE_REPRESENTATION('',(#14),#479);
#13=STYLED_ITEM('',(#496),#14);
#14=MANIFOLD_SOLID_BREP('Solide1',#253);
#15=FACE_BOUND('',#48,.T.);
#16=FACE_BOUND('',#54,.T.);
#17=FACE_BOUND('',#57,.T.);
#18=FACE_BOUND('',#60,.T.);
#19=FACE_BOUND('',#63,.T.);
#20=PLANE('',#280);
#21=PLANE('',#293);
#22=PLANE('',#299);
#23=PLANE('',#305);
#24=PLANE('',#311);
#25=CYLINDRICAL_SURFACE('',#277,7.99999999999997);
#26=CYLINDRICAL_SURFACE('',#286,3.3235);
#27=CYLINDRICAL_SURFACE('',#292,3.3235);
#28=CYLINDRICAL_SURFACE('',#296,12.5);
#29=CYLINDRICAL_SURFACE('',#302,9.99999999999998);
#30=CYLINDRICAL_SURFACE('',#308,8.99999999999997);
#31=FACE_OUTER_BOUND('',#45,.T.);
#32=FACE_OUTER_BOUND('',#46,.T.);
#33=FACE_OUTER_BOUND('',#47,.T.);
#34=FACE_OUTER_BOUND('',#49,.T.);
#35=FACE_OUTER_BOUND('',#50,.T.);
#36=FACE_OUTER_BOUND('',#51,.T.);
#37=FACE_OUTER_BOUND('',#52,.T.);
#38=FACE_OUTER_BOUND('',#53,.T.);
#39=FACE_OUTER_BOUND('',#55,.T.);
#40=FACE_OUTER_BOUND('',#56,.T.);
#41=FACE_OUTER_BOUND('',#58,.T.);
#42=FACE_OUTER_BOUND('',#59,.T.);
#43=FACE_OUTER_BOUND('',#61,.T.);
#44=FACE_OUTER_BOUND('',#62,.T.);
#45=EDGE_LOOP('',(#168,#169,#170,#171,#172));
#46=EDGE_LOOP('',(#173,#174,#175,#176,#177,#178));
#47=EDGE_LOOP('',(#179));
#48=EDGE_LOOP('',(#180,#181));
#49=EDGE_LOOP('',(#182,#183,#184,#185));
#50=EDGE_LOOP('',(#186,#187,#188,#189,#190,#191));
#51=EDGE_LOOP('',(#192,#193,#194,#195));
#52=EDGE_LOOP('',(#196,#197,#198,#199,#200,#201));
#53=EDGE_LOOP('',(#202,#203));
#54=EDGE_LOOP('',(#204,#205));
#55=EDGE_LOOP('',(#206,#207,#208,#209,#210,#211));
#56=EDGE_LOOP('',(#212,#213));
#57=EDGE_LOOP('',(#214,#215));
#58=EDGE_LOOP('',(#216,#217,#218,#219,#220,#221));
#59=EDGE_LOOP('',(#222,#223));
#60=EDGE_LOOP('',(#224,#225));
#61=EDGE_LOOP('',(#226,#227,#228,#229,#230,#231));
#62=EDGE_LOOP('',(#232,#233));
#63=EDGE_LOOP('',(#234,#235));
#64=LINE('',#406,#73);
#65=LINE('',#412,#74);
#66=LINE('',#426,#75);
#67=LINE('',#433,#76);
#68=LINE('',#439,#77);
#69=LINE('',#442,#78);
#70=LINE('',#453,#79);
#71=LINE('',#464,#80);
#72=LINE('',#475,#81);
#73=VECTOR('',#318,7.74999999999998);
#74=VECTOR('',#325,7.99999999999997);
#75=VECTOR('',#340,1.66175);
#76=VECTOR('',#349,3.3235);
#77=VECTOR('',#354,1.66175);
#78=VECTOR('',#359,3.3235);
#79=VECTOR('',#372,12.5);
#80=VECTOR('',#385,9.99999999999998);
#81=VECTOR('',#398,8.99999999999997);
#82=CIRCLE('',#274,7.49999999999997);
#83=CIRCLE('',#275,7.99999999999997);
#84=CIRCLE('',#276,7.99999999999997);
#85=CIRCLE('',#278,7.99999999999997);
#86=CIRCLE('',#279,7.99999999999997);
#87=CIRCLE('',#281,3.3235);
#88=CIRCLE('',#282,3.3235);
#89=CIRCLE('',#284,3.3235);
#90=CIRCLE('',#285,3.3235);
#91=CIRCLE('',#287,3.3235);
#92=CIRCLE('',#288,3.3235);
#93=CIRCLE('',#290,3.3235);
#94=CIRCLE('',#291,3.3235);
#95=CIRCLE('',#294,12.5);
#96=CIRCLE('',#295,12.5);
#97=CIRCLE('',#297,12.5);
#98=CIRCLE('',#298,12.5);
#99=CIRCLE('',#300,9.99999999999997);
#100=CIRCLE('',#301,9.99999999999997);
#101=CIRCLE('',#303,9.99999999999999);
#102=CIRCLE('',#304,9.99999999999999);
#103=CIRCLE('',#306,8.99999999999997);
#104=CIRCLE('',#307,8.99999999999997);
#105=CIRCLE('',#309,8.99999999999997);
#106=CIRCLE('',#310,8.99999999999997);
#107=VERTEX_POINT('',#403);
#108=VERTEX_POINT('',#405);
#109=VERTEX_POINT('',#407);
#110=VERTEX_POINT('',#411);
#111=VERTEX_POINT('',#413);
#112=VERTEX_POINT('',#417);
#113=VERTEX_POINT('',#418);
#114=VERTEX_POINT('',#422);
#115=VERTEX_POINT('',#423);
#116=VERTEX_POINT('',#425);
#117=VERTEX_POINT('',#429);
#118=VERTEX_POINT('',#430);
#119=VERTEX_POINT('',#435);
#120=VERTEX_POINT('',#436);
#121=VERTEX_POINT('',#438);
#122=VERTEX_POINT('',#444);
#123=VERTEX_POINT('',#445);
#124=VERTEX_POINT('',#449);
#125=VERTEX_POINT('',#450);
#126=VERTEX_POINT('',#455);
#127=VERTEX_POINT('',#456);
#128=VERTEX_POINT('',#460);
#129=VERTEX_POINT('',#461);
#130=VERTEX_POINT('',#466);
#131=VERTEX_POINT('',#467);
#132=VERTEX_POINT('',#471);
#133=VERTEX_POINT('',#472);
#134=EDGE_CURVE('',#107,#107,#82,.T.);
#135=EDGE_CURVE('',#107,#108,#64,.T.);
#136=EDGE_CURVE('',#108,#109,#83,.T.);
#137=EDGE_CURVE('',#109,#108,#84,.T.);
#138=EDGE_CURVE('',#109,#110,#65,.T.);
#139=EDGE_CURVE('',#110,#111,#85,.T.);
#140=EDGE_CURVE('',#111,#110,#86,.T.);
#141=EDGE_CURVE('',#112,#113,#87,.T.);
#142=EDGE_CURVE('',#113,#112,#88,.T.);
#143=EDGE_CURVE('',#114,#115,#89,.T.);
#144=EDGE_CURVE('',#115,#116,#66,.T.);
#145=EDGE_CURVE('',#115,#114,#90,.T.);
#146=EDGE_CURVE('',#117,#118,#91,.T.);
#147=EDGE_CURVE('',#118,#117,#92,.T.);
#148=EDGE_CURVE('',#118,#115,#67,.T.);
#149=EDGE_CURVE('',#119,#120,#93,.T.);
#150=EDGE_CURVE('',#120,#121,#68,.T.);
#151=EDGE_CURVE('',#120,#119,#94,.T.);
#152=EDGE_CURVE('',#113,#120,#69,.T.);
#153=EDGE_CURVE('',#122,#123,#95,.T.);
#154=EDGE_CURVE('',#123,#122,#96,.T.);
#155=EDGE_CURVE('',#124,#125,#97,.T.);
#156=EDGE_CURVE('',#125,#124,#98,.T.);
#157=EDGE_CURVE('',#125,#123,#70,.T.);
#158=EDGE_CURVE('',#126,#127,#99,.T.);
#159=EDGE_CURVE('',#127,#126,#100,.T.);
#160=EDGE_CURVE('',#128,#129,#101,.T.);
#161=EDGE_CURVE('',#129,#128,#102,.T.);
#162=EDGE_CURVE('',#129,#127,#71,.T.);
#163=EDGE_CURVE('',#130,#131,#103,.T.);
#164=EDGE_CURVE('',#131,#130,#104,.T.);
#165=EDGE_CURVE('',#132,#133,#105,.T.);
#166=EDGE_CURVE('',#133,#132,#106,.T.);
#167=EDGE_CURVE('',#133,#131,#72,.T.);
#168=ORIENTED_EDGE('',*,*,#134,.T.);
#169=ORIENTED_EDGE('',*,*,#135,.T.);
#170=ORIENTED_EDGE('',*,*,#136,.T.);
#171=ORIENTED_EDGE('',*,*,#137,.T.);
#172=ORIENTED_EDGE('',*,*,#135,.F.);
#173=ORIENTED_EDGE('',*,*,#136,.F.);
#174=ORIENTED_EDGE('',*,*,#137,.F.);
#175=ORIENTED_EDGE('',*,*,#138,.T.);
#176=ORIENTED_EDGE('',*,*,#139,.T.);
#177=ORIENTED_EDGE('',*,*,#140,.T.);
#178=ORIENTED_EDGE('',*,*,#138,.F.);
#179=ORIENTED_EDGE('',*,*,#134,.F.);
#180=ORIENTED_EDGE('',*,*,#141,.T.);
#181=ORIENTED_EDGE('',*,*,#142,.T.);
#182=ORIENTED_EDGE('',*,*,#143,.T.);
#183=ORIENTED_EDGE('',*,*,#144,.T.);
#184=ORIENTED_EDGE('',*,*,#144,.F.);
#185=ORIENTED_EDGE('',*,*,#145,.T.);
#186=ORIENTED_EDGE('',*,*,#146,.F.);
#187=ORIENTED_EDGE('',*,*,#147,.F.);
#188=ORIENTED_EDGE('',*,*,#148,.T.);
#189=ORIENTED_EDGE('',*,*,#143,.F.);
#190=ORIENTED_EDGE('',*,*,#145,.F.);
#191=ORIENTED_EDGE('',*,*,#148,.F.);
#192=ORIENTED_EDGE('',*,*,#149,.T.);
#193=ORIENTED_EDGE('',*,*,#150,.T.);
#194=ORIENTED_EDGE('',*,*,#150,.F.);
#195=ORIENTED_EDGE('',*,*,#151,.T.);
#196=ORIENTED_EDGE('',*,*,#141,.F.);
#197=ORIENTED_EDGE('',*,*,#142,.F.);
#198=ORIENTED_EDGE('',*,*,#152,.T.);
#199=ORIENTED_EDGE('',*,*,#149,.F.);
#200=ORIENTED_EDGE('',*,*,#151,.F.);
#201=ORIENTED_EDGE('',*,*,#152,.F.);
#202=ORIENTED_EDGE('',*,*,#153,.F.);
#203=ORIENTED_EDGE('',*,*,#154,.F.);
#204=ORIENTED_EDGE('',*,*,#146,.T.);
#205=ORIENTED_EDGE('',*,*,#147,.T.);
#206=ORIENTED_EDGE('',*,*,#155,.F.);
#207=ORIENTED_EDGE('',*,*,#156,.F.);
#208=ORIENTED_EDGE('',*,*,#157,.T.);
#209=ORIENTED_EDGE('',*,*,#154,.T.);
#210=ORIENTED_EDGE('',*,*,#153,.T.);
#211=ORIENTED_EDGE('',*,*,#157,.F.);
#212=ORIENTED_EDGE('',*,*,#155,.T.);
#213=ORIENTED_EDGE('',*,*,#156,.T.);
#214=ORIENTED_EDGE('',*,*,#158,.F.);
#215=ORIENTED_EDGE('',*,*,#159,.F.);
#216=ORIENTED_EDGE('',*,*,#160,.F.);
#217=ORIENTED_EDGE('',*,*,#161,.F.);
#218=ORIENTED_EDGE('',*,*,#162,.T.);
#219=ORIENTED_EDGE('',*,*,#159,.T.);
#220=ORIENTED_EDGE('',*,*,#158,.T.);
#221=ORIENTED_EDGE('',*,*,#162,.F.);
#222=ORIENTED_EDGE('',*,*,#160,.T.);
#223=ORIENTED_EDGE('',*,*,#161,.T.);
#224=ORIENTED_EDGE('',*,*,#163,.F.);
#225=ORIENTED_EDGE('',*,*,#164,.F.);
#226=ORIENTED_EDGE('',*,*,#165,.F.);
#227=ORIENTED_EDGE('',*,*,#166,.F.);
#228=ORIENTED_EDGE('',*,*,#167,.T.);
#229=ORIENTED_EDGE('',*,*,#164,.T.);
#230=ORIENTED_EDGE('',*,*,#163,.T.);
#231=ORIENTED_EDGE('',*,*,#167,.F.);
#232=ORIENTED_EDGE('',*,*,#165,.T.);
#233=ORIENTED_EDGE('',*,*,#166,.T.);
#234=ORIENTED_EDGE('',*,*,#140,.F.);
#235=ORIENTED_EDGE('',*,*,#139,.F.);
#236=CONICAL_SURFACE('',#273,7.74999999999997,0.785398163397443);
#237=CONICAL_SURFACE('',#283,1.66175,1.02974425867665);
#238=CONICAL_SURFACE('',#289,1.66175,1.02974425867665);
#239=ADVANCED_FACE('',(#31),#236,.T.);
#240=ADVANCED_FACE('',(#32),#25,.T.);
#241=ADVANCED_FACE('',(#33,#15),#20,.T.);
#242=ADVANCED_FACE('',(#34),#237,.F.);
#243=ADVANCED_FACE('',(#35),#26,.F.);
#244=ADVANCED_FACE('',(#36),#238,.F.);
#245=ADVANCED_FACE('',(#37),#27,.F.);
#246=ADVANCED_FACE('',(#38,#16),#21,.T.);
#247=ADVANCED_FACE('',(#39),#28,.T.);
#248=ADVANCED_FACE('',(#40,#17),#22,.T.);
#249=ADVANCED_FACE('',(#41),#29,.T.);
#250=ADVANCED_FACE('',(#42,#18),#23,.T.);
#251=ADVANCED_FACE('',(#43),#30,.T.);
#252=ADVANCED_FACE('',(#44,#19),#24,.T.);
#253=CLOSED_SHELL('',(#239,#240,#241,#242,#243,#244,#245,#246,#247,#248,
#249,#250,#251,#252));
#254=DERIVED_UNIT_ELEMENT(#256,1.);
#255=DERIVED_UNIT_ELEMENT(#482,3.);
#256=(
MASS_UNIT()
NAMED_UNIT(*)
SI_UNIT($,.GRAM.)
);
#257=DERIVED_UNIT((#254,#255));
#258=MEASURE_REPRESENTATION_ITEM('density measure',
POSITIVE_RATIO_MEASURE(2.71),#257);
#259=PROPERTY_DEFINITION_REPRESENTATION(#264,#261);
#260=PROPERTY_DEFINITION_REPRESENTATION(#265,#262);
#261=REPRESENTATION('material name',(#263),#479);
#262=REPRESENTATION('density',(#258),#479);
#263=DESCRIPTIVE_REPRESENTATION_ITEM('Aluminum-6082','Aluminum-6082');
#264=PROPERTY_DEFINITION('material property','material name',#489);
#265=PROPERTY_DEFINITION('material property','density of part',#489);
#266=DATE_TIME_ROLE('creation_date');
#267=APPLIED_DATE_AND_TIME_ASSIGNMENT(#268,#266,(#489));
#268=DATE_AND_TIME(#269,#270);
#269=CALENDAR_DATE(2020,29,7);
#270=LOCAL_TIME(11,45,43.,#271);
#271=COORDINATED_UNIVERSAL_TIME_OFFSET(0,0,.BEHIND.);
#272=AXIS2_PLACEMENT_3D('placement',#401,#312,#313);
#273=AXIS2_PLACEMENT_3D('',#402,#314,#315);
#274=AXIS2_PLACEMENT_3D('',#404,#316,#317);
#275=AXIS2_PLACEMENT_3D('',#408,#319,#320);
#276=AXIS2_PLACEMENT_3D('',#409,#321,#322);
#277=AXIS2_PLACEMENT_3D('',#410,#323,#324);
#278=AXIS2_PLACEMENT_3D('',#414,#326,#327);
#279=AXIS2_PLACEMENT_3D('',#415,#328,#329);
#280=AXIS2_PLACEMENT_3D('',#416,#330,#331);
#281=AXIS2_PLACEMENT_3D('',#419,#332,#333);
#282=AXIS2_PLACEMENT_3D('',#420,#334,#335);
#283=AXIS2_PLACEMENT_3D('',#421,#336,#337);
#284=AXIS2_PLACEMENT_3D('',#424,#338,#339);
#285=AXIS2_PLACEMENT_3D('',#427,#341,#342);
#286=AXIS2_PLACEMENT_3D('',#428,#343,#344);
#287=AXIS2_PLACEMENT_3D('',#431,#345,#346);
#288=AXIS2_PLACEMENT_3D('',#432,#347,#348);
#289=AXIS2_PLACEMENT_3D('',#434,#350,#351);
#290=AXIS2_PLACEMENT_3D('',#437,#352,#353);
#291=AXIS2_PLACEMENT_3D('',#440,#355,#356);
#292=AXIS2_PLACEMENT_3D('',#441,#357,#358);
#293=AXIS2_PLACEMENT_3D('',#443,#360,#361);
#294=AXIS2_PLACEMENT_3D('',#446,#362,#363);
#295=AXIS2_PLACEMENT_3D('',#447,#364,#365);
#296=AXIS2_PLACEMENT_3D('',#448,#366,#367);
#297=AXIS2_PLACEMENT_3D('',#451,#368,#369);
#298=AXIS2_PLACEMENT_3D('',#452,#370,#371);
#299=AXIS2_PLACEMENT_3D('',#454,#373,#374);
#300=AXIS2_PLACEMENT_3D('',#457,#375,#376);
#301=AXIS2_PLACEMENT_3D('',#458,#377,#378);
#302=AXIS2_PLACEMENT_3D('',#459,#379,#380);
#303=AXIS2_PLACEMENT_3D('',#462,#381,#382);
#304=AXIS2_PLACEMENT_3D('',#463,#383,#384);
#305=AXIS2_PLACEMENT_3D('',#465,#386,#387);
#306=AXIS2_PLACEMENT_3D('',#468,#388,#389);
#307=AXIS2_PLACEMENT_3D('',#469,#390,#391);
#308=AXIS2_PLACEMENT_3D('',#470,#392,#393);
#309=AXIS2_PLACEMENT_3D('',#473,#394,#395);
#310=AXIS2_PLACEMENT_3D('',#474,#396,#397);
#311=AXIS2_PLACEMENT_3D('',#476,#399,#400);
#312=DIRECTION('axis',(0.,0.,1.));
#313=DIRECTION('refdir',(1.,0.,0.));
#314=DIRECTION('center_axis',(-1.,-1.83697019872102E-16,0.));
#315=DIRECTION('ref_axis',(8.8885654776824E-17,-1.,0.));
#316=DIRECTION('center_axis',(-1.,-1.83697019872103E-16,0.));
#317=DIRECTION('ref_axis',(1.83697019872103E-16,-1.,0.));
#318=DIRECTION('',(-0.707106781186552,0.707106781186543,8.65956056235488E-17));
#319=DIRECTION('center_axis',(1.,1.83697019872103E-16,0.));
#320=DIRECTION('ref_axis',(0.,-1.,0.));
#321=DIRECTION('center_axis',(1.,1.83697019872103E-16,0.));
#322=DIRECTION('ref_axis',(0.,-1.,0.));
#323=DIRECTION('center_axis',(1.,1.83697019872103E-16,0.));
#324=DIRECTION('ref_axis',(0.,1.,0.));
#325=DIRECTION('',(-1.,-1.83697019872103E-16,0.));
#326=DIRECTION('center_axis',(1.,1.83697019872103E-16,0.));
#327=DIRECTION('ref_axis',(0.,0.,-1.));
#328=DIRECTION('center_axis',(1.,1.83697019872103E-16,0.));
#329=DIRECTION('ref_axis',(0.,0.,-1.));
#330=DIRECTION('center_axis',(1.,1.83697019872103E-16,0.));
#331=DIRECTION('ref_axis',(0.,0.,-1.));
#332=DIRECTION('center_axis',(-1.,-1.83697019872103E-16,0.));
#333=DIRECTION('ref_axis',(0.,0.,-1.));
#334=DIRECTION('center_axis',(-1.,-1.83697019872103E-16,0.));
#335=DIRECTION('ref_axis',(0.,0.,-1.));
#336=DIRECTION('center_axis',(-1.,-1.83697019872103E-16,0.));
#337=DIRECTION('ref_axis',(0.,0.,1.));
#338=DIRECTION('center_axis',(-1.,-1.83697019872103E-16,0.));
#339=DIRECTION('ref_axis',(0.,0.,1.));
#340=DIRECTION('',(0.515038074910054,1.99583678595504E-16,0.857167300702112));
#341=DIRECTION('center_axis',(-1.,-1.83697019872103E-16,0.));
#342=DIRECTION('ref_axis',(0.,0.,1.));
#343=DIRECTION('center_axis',(-1.,-1.83697019872103E-16,0.));
#344=DIRECTION('ref_axis',(0.,0.,1.));
#345=DIRECTION('center_axis',(1.,1.83697019872103E-16,0.));
#346=DIRECTION('ref_axis',(0.,0.,1.));
#347=DIRECTION('center_axis',(1.,1.83697019872103E-16,0.));
#348=DIRECTION('ref_axis',(0.,0.,1.));
#349=DIRECTION('',(1.,1.83697019872103E-16,0.));
#350=DIRECTION('center_axis',(1.,1.83697019872103E-16,0.));
#351=DIRECTION('ref_axis',(0.,0.,-1.));
#352=DIRECTION('center_axis',(1.,1.83697019872103E-16,0.));
#353=DIRECTION('ref_axis',(0.,0.,-1.));
#354=DIRECTION('',(-0.515038074910054,1.036175963222E-17,-0.857167300702112));
#355=DIRECTION('center_axis',(1.,1.83697019872103E-16,0.));
#356=DIRECTION('ref_axis',(0.,0.,-1.));
#357=DIRECTION('center_axis',(1.,1.83697019872103E-16,0.));
#358=DIRECTION('ref_axis',(0.,0.,-1.));
#359=DIRECTION('',(-1.,-1.83697019872103E-16,0.));
#360=DIRECTION('center_axis',(-1.,-1.83697019872103E-16,0.));
#361=DIRECTION('ref_axis',(0.,0.,1.));
#362=DIRECTION('center_axis',(1.,1.83697019872103E-16,0.));
#363=DIRECTION('ref_axis',(0.,0.,-1.));
#364=DIRECTION('center_axis',(1.,1.83697019872103E-16,0.));
#365=DIRECTION('ref_axis',(0.,0.,-1.));
#366=DIRECTION('center_axis',(1.,1.83697019872103E-16,0.));
#367=DIRECTION('ref_axis',(0.,1.,0.));
#368=DIRECTION('center_axis',(1.,1.83697019872103E-16,0.));
#369=DIRECTION('ref_axis',(0.,0.,-1.));
#370=DIRECTION('center_axis',(1.,1.83697019872103E-16,0.));
#371=DIRECTION('ref_axis',(0.,0.,-1.));
#372=DIRECTION('',(-1.,-1.83697019872103E-16,0.));
#373=DIRECTION('center_axis',(1.,1.83697019872103E-16,0.));
#374=DIRECTION('ref_axis',(0.,0.,-1.));
#375=DIRECTION('center_axis',(1.,1.83697019872103E-16,0.));
#376=DIRECTION('ref_axis',(0.,0.,-1.));
#377=DIRECTION('center_axis',(1.,1.83697019872103E-16,0.));
#378=DIRECTION('ref_axis',(0.,0.,-1.));
#379=DIRECTION('center_axis',(1.,1.83697019872103E-16,0.));
#380=DIRECTION('ref_axis',(0.,1.,0.));
#381=DIRECTION('center_axis',(1.,1.83697019872103E-16,0.));
#382=DIRECTION('ref_axis',(0.,0.,-1.));
#383=DIRECTION('center_axis',(1.,1.83697019872103E-16,0.));
#384=DIRECTION('ref_axis',(0.,0.,-1.));
#385=DIRECTION('',(-1.,-1.83697019872103E-16,0.));
#386=DIRECTION('center_axis',(1.,1.83697019872103E-16,0.));
#387=DIRECTION('ref_axis',(0.,0.,-1.));
#388=DIRECTION('center_axis',(1.,1.83697019872103E-16,0.));
#389=DIRECTION('ref_axis',(0.,0.,-1.));
#390=DIRECTION('center_axis',(1.,1.83697019872103E-16,0.));
#391=DIRECTION('ref_axis',(0.,0.,-1.));
#392=DIRECTION('center_axis',(1.,1.83697019872103E-16,0.));
#393=DIRECTION('ref_axis',(0.,1.,0.));
#394=DIRECTION('center_axis',(1.,1.83697019872103E-16,0.));
#395=DIRECTION('ref_axis',(0.,0.,-1.));
#396=DIRECTION('center_axis',(1.,1.83697019872103E-16,0.));
#397=DIRECTION('ref_axis',(0.,0.,-1.));
#398=DIRECTION('',(-1.,-1.83697019872103E-16,0.));
#399=DIRECTION('center_axis',(1.,1.83697019872103E-16,0.));
#400=DIRECTION('ref_axis',(0.,0.,-1.));
#401=CARTESIAN_POINT('',(0.,0.,0.));
#402=CARTESIAN_POINT('Origin',(83.25,3.06314780636732E-14,0.));
#403=CARTESIAN_POINT('',(83.5,7.5,-9.18485099360511E-16));
#404=CARTESIAN_POINT('Origin',(83.5,3.06774023186412E-14,0.));
#405=CARTESIAN_POINT('',(83.,8.,9.79717439317879E-16));
#406=CARTESIAN_POINT('',(83.25,7.75,9.49101269339195E-16));
#407=CARTESIAN_POINT('',(83.,-7.99999999999994,-9.79717439317879E-16));
#408=CARTESIAN_POINT('Origin',(83.,3.05855538087051E-14,0.));
#409=CARTESIAN_POINT('Origin',(83.,3.05855538087051E-14,0.));
#410=CARTESIAN_POINT('Origin',(80.,3.00344627490888E-14,0.));
#411=CARTESIAN_POINT('',(76.5,-7.99999999999994,-9.79717439317879E-16));
#412=CARTESIAN_POINT('',(80.,-7.99999999999994,-9.79717439317879E-16));
#413=CARTESIAN_POINT('',(76.5,8.,0.));
#414=CARTESIAN_POINT('Origin',(76.5,2.93915231795365E-14,0.));
#415=CARTESIAN_POINT('Origin',(76.5,2.93915231795365E-14,0.));
#416=CARTESIAN_POINT('Origin',(83.5,3.06774023186412E-14,0.));
#417=CARTESIAN_POINT('',(83.5,1.53387011593206E-14,-3.3235));
#418=CARTESIAN_POINT('',(83.5,1.4931689795624E-14,3.3235));
#419=CARTESIAN_POINT('Origin',(83.5,1.53387011593206E-14,0.));
#420=CARTESIAN_POINT('Origin',(83.5,1.53387011593206E-14,0.));
#421=CARTESIAN_POINT('Origin',(-66.5015198663309,-1.22161310164104E-14,
0.));
#422=CARTESIAN_POINT('',(-67.5,-1.23995488413669E-14,3.3235));
#423=CARTESIAN_POINT('',(-67.5,-1.28065602050636E-14,-3.3235));
#424=CARTESIAN_POINT('Origin',(-67.5,-1.23995488413669E-14,0.));
#425=CARTESIAN_POINT('',(-65.5030397326619,-1.20327131914539E-14,0.));
#426=CARTESIAN_POINT('',(-66.5015198663309,-1.24196366982588E-14,-1.66175));
#427=CARTESIAN_POINT('Origin',(-67.5,-1.23995488413669E-14,0.));
#428=CARTESIAN_POINT('Origin',(-75.5,-1.38691250003438E-14,0.));
#429=CARTESIAN_POINT('',(-83.5,-1.53387011593206E-14,3.3235));
#430=CARTESIAN_POINT('',(-83.5,-1.57457125230172E-14,-3.3235));
#431=CARTESIAN_POINT('Origin',(-83.5,-1.53387011593206E-14,0.));
#432=CARTESIAN_POINT('Origin',(-83.5,-1.53387011593206E-14,0.));
#433=CARTESIAN_POINT('',(-75.5,-1.42761363640404E-14,-3.3235));
#434=CARTESIAN_POINT('Origin',(66.5015198663309,1.22161310164104E-14,0.));
#435=CARTESIAN_POINT('',(67.5,1.23995488413669E-14,-3.3235));
#436=CARTESIAN_POINT('',(67.5,1.19925374776703E-14,3.3235));
#437=CARTESIAN_POINT('Origin',(67.5,1.23995488413669E-14,0.));
#438=CARTESIAN_POINT('',(65.5030397326619,1.20327131914539E-14,0.));
#439=CARTESIAN_POINT('',(66.5015198663309,1.20126253345621E-14,1.66175));
#440=CARTESIAN_POINT('Origin',(67.5,1.23995488413669E-14,0.));
#441=CARTESIAN_POINT('Origin',(75.5,1.38691250003438E-14,0.));
#442=CARTESIAN_POINT('',(75.5,1.34621136366471E-14,3.3235));
#443=CARTESIAN_POINT('Origin',(-83.5,12.5,0.));
#444=CARTESIAN_POINT('',(-83.5,12.5,0.));
#445=CARTESIAN_POINT('',(-83.5,-12.5,-1.53080849893419E-15));
#446=CARTESIAN_POINT('Origin',(-83.5,0.,0.));
#447=CARTESIAN_POINT('Origin',(-83.5,0.,0.));
#448=CARTESIAN_POINT('Origin',(-81.5,3.67394039744209E-16,0.));
#449=CARTESIAN_POINT('',(-79.5,12.5,0.));
#450=CARTESIAN_POINT('',(-79.5,-12.5,-1.53080849893419E-15));
#451=CARTESIAN_POINT('Origin',(-79.5,7.34788079488413E-16,0.));
#452=CARTESIAN_POINT('Origin',(-79.5,7.34788079488413E-16,0.));
#453=CARTESIAN_POINT('',(-81.5,-12.5,-1.53080849893419E-15));
#454=CARTESIAN_POINT('Origin',(-79.5,9.99999999999997,0.));
#455=CARTESIAN_POINT('',(-79.5,9.99999999999997,0.));
#456=CARTESIAN_POINT('',(-79.5,-9.99999999999998,-1.22464679914735E-15));
#457=CARTESIAN_POINT('Origin',(-79.5,7.34788079488413E-16,0.));
#458=CARTESIAN_POINT('Origin',(-79.5,7.34788079488413E-16,0.));
#459=CARTESIAN_POINT('Origin',(-12.,1.31343369208554E-14,0.));
#460=CARTESIAN_POINT('',(55.5,10.,0.));
#461=CARTESIAN_POINT('',(55.5,-9.99999999999995,-1.22464679914735E-15));
#462=CARTESIAN_POINT('Origin',(55.5,2.55338857622223E-14,0.));
#463=CARTESIAN_POINT('Origin',(55.5,2.55338857622223E-14,0.));
#464=CARTESIAN_POINT('',(-12.,-9.99999999999997,-1.22464679914735E-15));
#465=CARTESIAN_POINT('Origin',(55.5,9.,0.));
#466=CARTESIAN_POINT('',(55.5,9.,0.));
#467=CARTESIAN_POINT('',(55.5,-8.99999999999994,-1.10218211923261E-15));
#468=CARTESIAN_POINT('Origin',(55.5,2.55338857622223E-14,0.));
#469=CARTESIAN_POINT('Origin',(55.5,2.55338857622223E-14,0.));
#470=CARTESIAN_POINT('Origin',(66.,2.74627044708794E-14,0.));
#471=CARTESIAN_POINT('',(76.5,9.,0.));
#472=CARTESIAN_POINT('',(76.5,-8.99999999999994,-1.10218211923261E-15));
#473=CARTESIAN_POINT('Origin',(76.5,2.93915231795365E-14,0.));
#474=CARTESIAN_POINT('Origin',(76.5,2.93915231795365E-14,0.));
#475=CARTESIAN_POINT('',(66.,-8.99999999999994,-1.10218211923261E-15));
#476=CARTESIAN_POINT('Origin',(76.5,8.,0.));
#477=UNCERTAINTY_MEASURE_WITH_UNIT(LENGTH_MEASURE(0.01),#481,
'DISTANCE_ACCURACY_VALUE',
'Maximum model space distance between geometric entities at asserted c
onnectivities');
#478=UNCERTAINTY_MEASURE_WITH_UNIT(LENGTH_MEASURE(0.01),#481,
'DISTANCE_ACCURACY_VALUE',
'Maximum model space distance between geometric entities at asserted c
onnectivities');
#479=(
GEOMETRIC_REPRESENTATION_CONTEXT(3)
GLOBAL_UNCERTAINTY_ASSIGNED_CONTEXT((#477))
GLOBAL_UNIT_ASSIGNED_CONTEXT((#481,#483,#484))
REPRESENTATION_CONTEXT('','3D')
);
#480=(
GEOMETRIC_REPRESENTATION_CONTEXT(3)
GLOBAL_UNCERTAINTY_ASSIGNED_CONTEXT((#478))
GLOBAL_UNIT_ASSIGNED_CONTEXT((#481,#483,#484))
REPRESENTATION_CONTEXT('','3D')
);
#481=(
LENGTH_UNIT()
NAMED_UNIT(*)
SI_UNIT(.MILLI.,.METRE.)
);
#482=(
LENGTH_UNIT()
NAMED_UNIT(*)
SI_UNIT(.CENTI.,.METRE.)
);
#483=(
NAMED_UNIT(*)
PLANE_ANGLE_UNIT()
SI_UNIT($,.RADIAN.)
);
#484=(
NAMED_UNIT(*)
SI_UNIT($,.STERADIAN.)
SOLID_ANGLE_UNIT()
);
#485=SHAPE_DEFINITION_REPRESENTATION(#486,#487);
#486=PRODUCT_DEFINITION_SHAPE('',$,#489);
#487=SHAPE_REPRESENTATION('',(#272),#479);
#488=PRODUCT_DEFINITION_CONTEXT('part definition',#493,'design');
#489=PRODUCT_DEFINITION('axe','axe',#490,#488);
#490=PRODUCT_DEFINITION_FORMATION('',$,#495);
#491=PRODUCT_RELATED_PRODUCT_CATEGORY('axe','axe',(#495));
#492=APPLICATION_PROTOCOL_DEFINITION('international standard',
'automotive_design',2009,#493);
#493=APPLICATION_CONTEXT(
'Core Data for Automotive Mechanical Design Process');
#494=PRODUCT_CONTEXT('part definition',#493,'mechanical');
#495=PRODUCT('axe','axe',$,(#494));
#496=PRESENTATION_STYLE_ASSIGNMENT((#497));
#497=SURFACE_STYLE_USAGE(.BOTH.,#500);
#498=SURFACE_STYLE_RENDERING_WITH_PROPERTIES($,#504,(#499));
#499=SURFACE_STYLE_TRANSPARENT(0.);
#500=SURFACE_SIDE_STYLE('',(#501,#498));
#501=SURFACE_STYLE_FILL_AREA(#502);
#502=FILL_AREA_STYLE('',(#503));
#503=FILL_AREA_STYLE_COLOUR('',#504);
#504=COLOUR_RGB('',0.956862745098039,0.956862745098039,0.956862745098039);
ENDSEC;
END-ISO-10303-21;
