  0
SECTION
  2
HEADER
  9
$ACADVER
  1
AC1006
  9
$DWGCODEPAGE
  3
ansi_1252
  9
$INSBASE
 10
0.0
 20
0.0
 30
0.0
  9
$EXTMIN
 10
0.0
 20
-105.0
  9
$EXTMAX
 10
500.0000001000001
 20
480.0000001
  9
$LIMMIN
 10
0.0
 20
0.0
  9
$LIMMAX
 10
12.0
 20
9.0
  9
$ORTHOMODE
 70
     0
  9
$REGENMODE
 70
     1
  9
$FILLMODE
 70
     1
  9
$QTEXTMODE
 70
     0
  9
$MIRRTEXT
 70
     1
  9
$DRAGMODE
 70
     2
  9
$LTSCALE
 40
1.0
  9
$OSMODE
 70
    37
  9
$ATTMODE
 70
     1
  9
$TEXTSIZE
 40
0.2
  9
$TRACEWID
 40
0.05
  9
$TEXTSTYLE
  7
STANDARD
  9
$CLAYER
  8
0
  9
$CELTYPE
  6
BYLAYER
  9
$CECOLOR
 62
   256
  9
$DIMSCALE
 40
1.0
  9
$DIMASZ
 40
0.18
  9
$DIMEXO
 40
0.0625
  9
$DIMDLI
 40
0.38
  9
$DIMRND
 40
0.0
  9
$DIMDLE
 40
0.0
  9
$DIMEXE
 40
0.18
  9
$DIMTP
 40
0.0
  9
$DIMTM
 40
0.0
  9
$DIMTXT
 40
0.18
  9
$DIMCEN
 40
0.09
  9
$DIMTSZ
 40
0.0
  9
$DIMTOL
 70
     0
  9
$DIMLIM
 70
     0
  9
$DIMTIH
 70
     1
  9
$DIMTOH
 70
     1
  9
$DIMSE1
 70
     0
  9
$DIMSE2
 70
     0
  9
$DIMTAD
 70
     0
  9
$DIMZIN
 70
     0
  9
$DIMBLK
  1

  9
$DIMASO
 70
     1
  9
$DIMSHO
 70
     1
  9
$DIMPOST
  1

  9
$DIMAPOST
  1

  9
$DIMALT
 70
     0
  9
$DIMALTD
 70
     2
  9
$DIMALTF
 40
0.0393700787401575
  9
$DIMLFAC
 40
1.0
  9
$DIMTOFL
 70
     0
  9
$DIMTVP
 40
0.0
  9
$DIMTIX
 70
     0
  9
$DIMSOXD
 70
     0
  9
$DIMSAH
 70
     0
  9
$DIMBLK1
  1

  9
$DIMBLK2
  1

  9
$LUNITS
 70
     2
  9
$LUPREC
 70
     4
  9
$SKETCHINC
 40
0.1
  9
$FILLETRAD
 40
0.0
  9
$AUNITS
 70
     0
  9
$AUPREC
 70
     0
  9
$MENU
  1
.
  9
$ELEVATION
 40
0.0
  9
$THICKNESS
 40
0.0
  9
$LIMCHECK
 70
     0
  9
$CHAMFERA
 40
0.5
  9
$CHAMFERB
 40
0.5
  9
$SKPOLY
 70
     0
  9
$TDCREATE
 40
2458977.218610243
  9
$TDUPDATE
 40
2459050.606887662
  9
$TDINDWG
 40
0.0
  9
$TDUSRTIMER
 40
0.0000000116
  9
$USRTIMER
 70
     1
  9
$ANGBASE
 50
0.0
  9
$ANGDIR
 70
     1
  9
$PDMODE
 70
     0
  9
$PDSIZE
 40
0.0
  9
$PLINEWID
 40
0.0
  9
$COORDS
 70
     1
  9
$SPLFRAME
 70
     0
  9
$SPLINETYPE
 70
     6
  9
$SPLINESEGS
 70
     8
  9
$ATTDIA
 70
     0
  9
$ATTREQ
 70
     1
  9
$HANDLING
 70
     1
  9
$HANDSEED
  5
6E6
  9
$SURFTAB1
 70
     6
  9
$SURFTAB2
 70
     6
  9
$SURFTYPE
 70
     6
  9
$SURFU
 70
     6
  9
$SURFV
 70
     6
  9
$UCSNAME
  2

  9
$UCSORG
 10
0.0
 20
0.0
 30
0.0
  9
$UCSXDIR
 10
1.0
 20
0.0
 30
0.0
  9
$UCSYDIR
 10
0.0
 20
1.0
 30
0.0
  9
$USERI1
 70
     0
  9
$USERI2
 70
     0
  9
$USERI3
 70
     0
  9
$USERI4
 70
     0
  9
$USERI5
 70
     0
  9
$USERR1
 40
0.0
  9
$USERR2
 40
0.0
  9
$USERR3
 40
0.0
  9
$USERR4
 40
0.0
  9
$USERR5
 40
0.0
  9
$WORLDVIEW
 70
     1
  0
ENDSEC
  0
SECTION
  2
TABLES
  0
TABLE
  2
VPORT
 70
     1
  0
VPORT
  2
*ACTIVE
 70
     0
 10
0.0
 20
0.0
 11
1.0
 21
1.0
 12
250.00000005
 22
187.50000005
 13
0.0
 23
0.0
 14
1.0
 24
1.0
 15
0.0
 25
0.0
 16
0.0
 26
0.0
 36
1.0
 17
0.0
 27
0.0
 37
0.0
 40
585.0000001000001
 41
0.8547008547256921
 42
50.0
 43
0.0
 44
0.0
 50
0.0
 51
0.0
 71
     0
 72
 20000
 73
     1
 74
     3
 75
     0
 76
     0
 77
     0
 78
     0
  0
ENDTAB
  0
TABLE
  2
LTYPE
 70
     1
  0
LTYPE
  2
CONTINUOUS
 70
     0
  3
Solid line
 72
    65
 73
     0
 40
0.0
  0
ENDTAB
  0
TABLE
  2
LAYER
 70
     6
  0
LAYER
  2
0
 70
     0
 62
     7
  6
CONTINUOUS
  0
LAYER
  2
SHEET
 70
     0
 62
    24
  6
CONTINUOUS
  0
LAYER
  2
OUTER_LOOP
 70
     0
 62
     7
  6
CONTINUOUS
  0
LAYER
  2
INTERIOR_LOOPS
 70
     0
 62
     7
  6
CONTINUOUS
  0
LAYER
  2
STATS
 70
     0
 62
     7
  6
CONTINUOUS
  0
LAYER
  2
DEFPOINTS
 70
     0
 62
     7
  6
CONTINUOUS
  0
ENDTAB
  0
TABLE
  2
STYLE
 70
     1
  0
STYLE
  2
STANDARD
 70
     0
 40
0.0
 41
1.0
 50
0.0
 71
     0
 42
0.2
  3
txt.shx
  4

  0
ENDTAB
  0
TABLE
  2
VIEW
 70
     0
  0
ENDTAB
  0
TABLE
  2
UCS
 70
     0
  0
ENDTAB
  0
ENDSEC
  0
SECTION
  2
BLOCKS
  0
ENDSEC
  0
SECTION
  2
ENTITIES
  0
LINE
  5
2C
  8
SHEET
 62
    18
 10
0.0000001
 20
0.0000001
 30
0.0
 11
500.0000001000001
 21
0.0000001
 31
0.0
  0
LINE
  5
2D
  8
SHEET
 62
    18
 10
500.0000001000001
 20
0.0000001
 30
0.0
 11
500.0000001000001
 21
480.0000001
 31
0.0
  0
LINE
  5
2E
  8
SHEET
 62
    18
 10
500.0000001000001
 20
480.0000001
 30
0.0
 11
0.0000001
 21
480.0000001
 31
0.0
  0
LINE
  5
2F
  8
SHEET
 62
    18
 10
0.0000001
 20
480.0000001
 30
0.0
 11
0.0000001
 21
0.0000001
 31
0.0
  0
ARC
  5
30
  8
OUTER_LOOP
 62
     3
 10
421.6555429346081
 20
283.0334866618729
 30
0.0
 40
50.86034197935419
 50
93.54368566841774
 51
123.5999587687061
  0
ARC
  5
31
  8
OUTER_LOOP
 62
     3
 10
396.1344579807972
 20
317.1663080041876
 30
0.0
 40
8.638224402910232
 50
107.6879011183261
 51
229.0869903832767
  0
ARC
  5
32
  8
OUTER_LOOP
 62
     3
 10
395.9767874350326
 20
317.0149224422036
 30
0.0
 40
8.420584981203087
 50
229.223130664435
 51
279.1933809252533
  0
ARC
  5
33
  8
OUTER_LOOP
 62
     3
 10
398.1567640610074
 20
251.118819168286
 30
0.0
 40
57.58973152460735
 50
48.61879468597247
 51
90.83041262589393
  0
ARC
  5
34
  8
OUTER_LOOP
 62
     3
 10
420.3040256956272
 20
276.2381980890203
 30
0.0
 40
24.10116567524288
 50
355.1273833874085
 51
48.64767419468723
  0
ARC
  5
35
  8
OUTER_LOOP
 62
     3
 10
357.8140501671432
 20
281.5198892768789
 30
0.0
 40
86.81394533478122
 50
322.169914532503
 51
355.1573076664478
  0
ARC
  5
36
  8
OUTER_LOOP
 62
     3
 10
433.0800106834321
 20
223.0539087993945
 30
0.0
 40
8.49207932902914
 50
142.0612535164509
 51
270.1090639712511
  0
LINE
  5
37
  8
OUTER_LOOP
 62
     3
 10
433.0961755623176
 20
214.5618448554987
 30
0.0
 11
455.9528951624366
 21
214.5622969604002
 31
0.0
  0
LINE
  5
38
  8
OUTER_LOOP
 62
     3
 10
455.9528951624366
 20
214.5622969604002
 30
0.0
 11
456.3191480303365
 21
214.9704825270002
 31
0.0
  0
LINE
  5
39
  8
OUTER_LOOP
 62
     3
 10
456.3191480303365
 20
214.9704825270002
 30
0.0
 11
459.4528131898365
 21
218.4629268623002
 31
0.0
  0
LINE
  5
3A
  8
OUTER_LOOP
 62
     3
 10
459.4528131898365
 20
218.4629268623002
 30
0.0
 11
462.5864629242365
 21
214.9704699490002
 31
0.0
  0
LINE
  5
3B
  8
OUTER_LOOP
 62
     3
 10
462.5864629242365
 20
214.9704699490002
 30
0.0
 11
462.952713788582
 21
214.5622827376998
 31
0.0
  0
LINE
  5
3C
  8
OUTER_LOOP
 62
     3
 10
462.952713788582
 20
214.5622827376998
 30
0.0
 11
471.6117233795729
 21
214.5622447651714
 31
0.0
  0
LINE
  5
3D
  8
OUTER_LOOP
 62
     3
 10
471.6117233795729
 20
214.5622447651714
 30
0.0
 11
471.6118203236293
 21
214.5617790945197
 31
0.0
  0
ARC
  5
3E
  8
OUTER_LOOP
 62
     3
 10
471.6281790549919
 20
223.0456214415003
 30
0.0
 40
8.48385811859866
 50
269.8895211550015
 51
0.1100367519152588
  0
LINE
  5
3F
  8
OUTER_LOOP
 62
     3
 10
480.1120215279436
 20
223.0619147117053
 30
0.0
 11
480.1115555582339
 21
223.0620117030516
 31
0.0
  0
LINE
  5
40
  8
OUTER_LOOP
 62
     3
 10
480.1115555582339
 20
223.0620117030516
 30
0.0
 11
480.1115261000454
 21
243.0615638256826
 31
0.0
  0
LINE
  5
41
  8
OUTER_LOOP
 62
     3
 10
480.1115261000454
 20
243.0615638256826
 30
0.0
 11
480.1119917678346
 21
243.0616607708839
 31
0.0
  0
ARC
  5
42
  8
OUTER_LOOP
 62
     3
 10
471.6280521373366
 20
243.077966972426
 30
0.0
 40
8.483955300810107
 50
359.8898771775257
 51
90.10933292760902
  0
LINE
  5
43
  8
OUTER_LOOP
 62
     3
 10
471.6118628976458
 20
251.5619068269195
 30
0.0
 11
471.6120484339136
 21
297.3428844724923
 31
0.0
  0
ARC
  5
44
  8
OUTER_LOOP
 62
     3
 10
471.6255839636851
 20
305.8296101378001
 30
0.0
 40
8.486736459249808
 50
269.9086186943721
 51
0.0903345537671832
  0
LINE
  5
45
  8
OUTER_LOOP
 62
     3
 10
480.1123098748608
 20
305.8429906213171
 30
0.0
 11
480.1118362619717
 21
305.8430876797288
 31
0.0
  0
LINE
  5
46
  8
OUTER_LOOP
 62
     3
 10
480.1118362619717
 20
305.8430876797288
 30
0.0
 11
480.1123231497808
 21
325.8426892663745
 31
0.0
  0
ARC
  5
47
  8
OUTER_LOOP
 62
     3
 10
471.6482096002364
 20
325.867528853866
 30
0.0
 40
8.464149997766272
 50
359.8318548736315
 51
69.50014450200982
  0
LINE
  5
48
  8
OUTER_LOOP
 62
     3
 10
474.6123974104942
 20
333.7956702382137
 30
0.0
 11
462.9533490849369
 21
333.7955729823775
 31
0.0
  0
LINE
  5
49
  8
OUTER_LOOP
 62
     3
 10
462.9533490849369
 20
333.7955729823775
 30
0.0
 11
462.5870923043365
 21
333.3873909608002
 31
0.0
  0
LINE
  5
4A
  8
OUTER_LOOP
 62
     3
 10
462.5870923043365
 20
333.3873909608002
 30
0.0
 11
459.4533897753365
 21
329.8949769748002
 31
0.0
  0
LINE
  5
4B
  8
OUTER_LOOP
 62
     3
 10
459.4533897753365
 20
329.8949769748002
 30
0.0
 11
456.3197653873365
 21
333.3874569792002
 31
0.0
  0
LINE
  5
4C
  8
OUTER_LOOP
 62
     3
 10
456.3197653873365
 20
333.3874569792002
 30
0.0
 11
455.9535176448366
 21
333.7956471184002
 31
0.0
  0
LINE
  5
4D
  8
OUTER_LOOP
 62
     3
 10
455.9535176448366
 20
333.7956471184002
 30
0.0
 11
418.5119270195938
 21
333.7961722318857
 31
0.0
  0
LINE
  5
4E
  8
OUTER_LOOP
 62
     3
 10
418.5119270195938
 20
333.7961722318857
 30
0.0
 11
418.5118876605245
 21
333.7965816992579
 31
0.0
  0
CIRCLE
  5
4F
  8
INTERIOR_LOOPS
 62
     3
 10
448.0408479923365
 20
323.0402684860002
 30
0.0
 40
2.998353422585277
  0
CIRCLE
  5
50
  8
INTERIOR_LOOPS
 62
     3
 10
440.5898852540365
 20
323.8729744466002
 30
0.0
 40
2.997931180818648
  0
CIRCLE
  5
51
  8
INTERIOR_LOOPS
 62
     3
 10
396.4519042980365
 20
317.2758888302002
 30
0.0
 40
2.997952199561607
  0
CIRCLE
  5
52
  8
INTERIOR_LOOPS
 62
     3
 10
403.5359786505365
 20
319.7328952141002
 30
0.0
 40
2.998218870532735
  0
CIRCLE
  5
53
  8
INTERIOR_LOOPS
 62
     3
 10
410.7827213493366
 20
321.6579744809002
 30
0.0
 40
2.997930468644569
  0
CIRCLE
  5
54
  8
INTERIOR_LOOPS
 62
     3
 10
418.1521981444365
 20
323.0405788053002
 30
0.0
 40
2.998263212782569
  0
CIRCLE
  5
55
  8
INTERIOR_LOOPS
 62
     3
 10
425.6039365298365
 20
323.8731680411002
 30
0.0
 40
2.998263359820409
  0
CIRCLE
  5
56
  8
INTERIOR_LOOPS
 62
     3
 10
433.0969414231365
 20
324.1511637468002
 30
0.0
 40
2.997930068970673
  0
CIRCLE
  5
57
  8
INTERIOR_LOOPS
 62
     3
 10
433.0960687564365
 20
223.0620467540002
 30
0.0
 40
2.997926165514564
  0
LINE
  5
58
  8
INTERIOR_LOOPS
 62
     3
 10
468.6115191964365
 20
243.0618636086002
 30
0.0
 11
468.6118206659382
 21
243.0616436797847
 31
0.0
  0
LINE
  5
59
  8
INTERIOR_LOOPS
 62
     3
 10
468.6118206659382
 20
243.0616436797847
 30
0.0
 11
468.6118206660117
 21
223.0620700562003
 31
0.0
  0
LINE
  5
5A
  8
INTERIOR_LOOPS
 62
     3
 10
468.6118206660117
 20
223.0620700562003
 30
0.0
 11
468.6115192040056
 21
223.061850135188
 31
0.0
  0
LINE
  5
5B
  8
INTERIOR_LOOPS
 62
     3
 10
468.6115192040056
 20
223.061850135188
 30
0.0
 11
468.6112177419994
 21
223.0616302141757
 31
0.0
  0
LINE
  5
5C
  8
INTERIOR_LOOPS
 62
     3
 10
468.6112177419994
 20
223.0616302141757
 30
0.0
 11
468.7567953014054
 21
222.4771306968872
 31
0.0
  0
ARC
  5
5D
  8
INTERIOR_LOOPS
 62
     3
 10
474.7843158344743
 20
224.0539937878747
 30
0.0
 40
6.230369249433577
 50
194.6606181230589
 51
200.0813745467676
  0
ARC
  5
5E
  8
INTERIOR_LOOPS
 62
     3
 10
472.1805225062353
 20
223.0723103211671
 30
0.0
 40
3.447919332524156
 50
199.6164281477386
 51
209.0986848869168
  0
ARC
  5
5F
  8
INTERIOR_LOOPS
 62
     3
 10
471.2885873672325
 20
222.5611380916814
 30
0.0
 40
2.420004678442537
 50
208.7934520200328
 51
222.0296390767726
  0
ARC
  5
60
  8
INTERIOR_LOOPS
 62
     3
 10
471.3512984541352
 20
222.6501040338217
 30
0.0
 40
2.526265348525888
 50
222.5761854756093
 51
243.3692563048932
  0
LINE
  5
61
  8
INTERIOR_LOOPS
 62
     3
 10
470.2189282869377
 20
220.3918404496484
 30
0.0
 11
470.4334023566121
 21
220.2933615314475
 31
0.0
  0
ARC
  5
62
  8
INTERIOR_LOOPS
 62
     3
 10
471.6110322150003
 20
223.1811899945268
 30
0.0
 40
3.118712124505596
 50
247.8148173144051
 51
270.0129781160688
  0
ARC
  5
63
  8
INTERIOR_LOOPS
 62
     3
 10
471.6107782584822
 20
223.1900303008534
 30
0.0
 40
3.127552498277994
 50
270.0175938358043
 51
292.1522351366513
  0
ARC
  5
64
  8
INTERIOR_LOOPS
 62
     3
 10
471.7872560549205
 20
222.774664790879
 30
0.0
 40
2.676311532580706
 50
292.0060201959612
 51
311.8671650288125
  0
LINE
  5
65
  8
INTERIOR_LOOPS
 62
     3
 10
473.5734421539526
 20
220.7816312640538
 30
0.0
 11
473.7324842686187
 21
220.9408669101104
 31
0.0
  0
ARC
  5
66
  8
INTERIOR_LOOPS
 62
     3
 10
471.8298141427413
 20
222.6358246949607
 30
0.0
 40
2.548143539977802
 50
318.3043559225241
 51
330.8721208979476
  0
LINE
  5
67
  8
INTERIOR_LOOPS
 62
     3
 10
474.0557079266862
 20
221.3954891101587
 30
0.0
 11
474.1825085641355
 21
221.648356169355
 31
0.0
  0
LINE
  5
68
  8
INTERIOR_LOOPS
 62
     3
 10
474.1825085641355
 20
221.648356169355
 30
0.0
 11
474.2907838229356
 21
221.9147215991717
 31
0.0
  0
ARC
  5
69
  8
INTERIOR_LOOPS
 62
     3
 10
467.4468775902608
 20
224.3644791445514
 30
0.0
 40
7.269137813578055
 50
340.3053106893503
 51
344.9509788523456
  0
LINE
  5
6A
  8
INTERIOR_LOOPS
 62
     3
 10
474.4667132879507
 20
222.4770811128083
 30
0.0
 11
474.6122932217211
 21
223.0615809766736
 31
0.0
  0
LINE
  5
6B
  8
INTERIOR_LOOPS
 62
     3
 10
474.6122932217211
 20
223.0615809766736
 30
0.0
 11
474.6117525274599
 21
223.0619754304248
 31
0.0
  0
LINE
  5
6C
  8
INTERIOR_LOOPS
 62
     3
 10
474.6117525274599
 20
223.0619754304248
 30
0.0
 11
474.6116608038017
 21
243.0615783837262
 31
0.0
  0
LINE
  5
6D
  8
INTERIOR_LOOPS
 62
     3
 10
474.6116608038017
 20
243.0615783837262
 30
0.0
 11
474.6119622655281
 21
243.06179830049
 31
0.0
  0
LINE
  5
6E
  8
INTERIOR_LOOPS
 62
     3
 10
474.6119622655281
 20
243.06179830049
 30
0.0
 11
474.6122637272545
 21
243.0620182172538
 31
0.0
  0
LINE
  5
6F
  8
INTERIOR_LOOPS
 62
     3
 10
474.6122637272545
 20
243.0620182172538
 30
0.0
 11
474.4666890415485
 21
243.6465183980574
 31
0.0
  0
ARC
  5
70
  8
INTERIOR_LOOPS
 62
     3
 10
468.4391055041541
 20
242.0696699397167
 30
0.0
 40
6.230426499112169
 50
14.66034129954028
 51
20.08104948751976
  0
ARC
  5
71
  8
INTERIOR_LOOPS
 62
     3
 10
471.0429242513722
 20
243.0513449329304
 30
0.0
 40
3.447955768144884
 50
19.61612294939653
 51
29.0982881534477
  0
ARC
  5
72
  8
INTERIOR_LOOPS
 62
     3
 10
471.9348755540153
 20
243.5625176849811
 30
0.0
 40
2.42002682381524
 50
28.79306485310318
 51
42.0291501683305
  0
ARC
  5
73
  8
INTERIOR_LOOPS
 62
     3
 10
471.872175542617
 20
243.4735641942569
 30
0.0
 40
2.526270715907296
 50
42.57567435629411
 51
63.3684755315949
  0
LINE
  5
74
  8
INTERIOR_LOOPS
 62
     3
 10
473.0045788891475
 20
245.7318171452827
 30
0.0
 11
472.79009563574
 21
245.8303031355334
 31
0.0
  0
ARC
  5
75
  8
INTERIOR_LOOPS
 62
     3
 10
471.6124537516442
 20
242.9425212616361
 30
0.0
 40
3.118673525457019
 50
67.8142895361738
 51
90.01272269223787
  0
ARC
  5
76
  8
INTERIOR_LOOPS
 62
     3
 10
471.6127101779042
 20
242.9336830838912
 30
0.0
 40
3.127511770276159
 50
90.01738444821706
 51
112.1523239464673
  0
ARC
  5
77
  8
INTERIOR_LOOPS
 62
     3
 10
471.4362434537575
 20
243.3490187520574
 30
0.0
 40
2.676302608839594
 50
112.0061021379766
 51
131.8671089007674
  0
LINE
  5
78
  8
INTERIOR_LOOPS
 62
     3
 10
469.6500652628912
 20
245.3420473832002
 30
0.0
 11
469.4910155639811
 21
245.1828037526608
 31
0.0
  0
ARC
  5
79
  8
INTERIOR_LOOPS
 62
     3
 10
471.3936819954349
 20
243.4878619515575
 30
0.0
 40
2.548130149444653
 50
138.3045690270033
 51
150.8724097416488
  0
LINE
  5
7A
  8
INTERIOR_LOOPS
 62
     3
 10
469.1677936557859
 20
244.7281797970806
 30
0.0
 11
469.0409942442456
 21
244.4753119313381
 31
0.0
  0
LINE
  5
7B
  8
INTERIOR_LOOPS
 62
     3
 10
469.0409942442456
 20
244.4753119313381
 30
0.0
 11
468.9327203933852
 21
244.2089457356619
 31
0.0
  0
ARC
  5
7C
  8
INTERIOR_LOOPS
 62
     3
 10
475.7765953776498
 20
241.7592429602122
 30
0.0
 40
7.269089935355611
 50
160.3056341319892
 51
164.9513362015981
  0
LINE
  5
7D
  8
INTERIOR_LOOPS
 62
     3
 10
468.7567941448139
 20
243.646584778687
 30
0.0
 11
468.6112177269349
 21
243.0620835374157
 31
0.0
  0
LINE
  5
7E
  8
INTERIOR_LOOPS
 62
     3
 10
468.6112177269349
 20
243.0620835374157
 30
0.0
 11
468.6115191964365
 21
243.0618636086002
 31
0.0
  0
LINE
  5
7F
  8
INTERIOR_LOOPS
 62
     3
 10
474.6122689959954
 20
305.8429348732817
 30
0.0
 11
474.611969891622
 21
305.8431544887196
 31
0.0
  0
LINE
  5
80
  8
INTERIOR_LOOPS
 62
     3
 10
474.611969891622
 20
305.8431544887196
 30
0.0
 11
474.6122434792997
 21
325.8426953564397
 31
0.0
  0
LINE
  5
81
  8
INTERIOR_LOOPS
 62
     3
 10
474.6122434792997
 20
325.8426953564397
 30
0.0
 11
474.6125425752704
 21
325.8429149644675
 31
0.0
  0
LINE
  5
82
  8
INTERIOR_LOOPS
 62
     3
 10
474.6125425752704
 20
325.8429149644675
 30
0.0
 11
474.6128416712411
 21
325.8431345724952
 31
0.0
  0
LINE
  5
83
  8
INTERIOR_LOOPS
 62
     3
 10
474.6128416712411
 20
325.8431345724952
 30
0.0
 11
474.5416084855784
 21
326.1366788291804
 31
0.0
  0
LINE
  5
84
  8
INTERIOR_LOOPS
 62
     3
 10
474.5416084855784
 20
326.1366788291804
 30
0.0
 11
474.4664430171067
 21
326.4273361540859
 31
0.0
  0
ARC
  5
85
  8
INTERIOR_LOOPS
 62
     3
 10
468.4203271583896
 20
324.8438966773941
 30
0.0
 40
6.250023804224747
 50
14.67579845729167
 51
20.08052373293261
  0
ARC
  5
86
  8
INTERIOR_LOOPS
 62
     3
 10
471.0221733967687
 20
325.8251680161254
 30
0.0
 40
3.469546441773856
 50
19.61314540610641
 51
29.03558303958284
  0
ARC
  5
87
  8
INTERIOR_LOOPS
 62
     3
 10
471.9441150821825
 20
326.35292926426
 30
0.0
 40
2.407365969810005
 50
28.7032231232571
 51
42.00278486336289
  0
ARC
  5
88
  8
INTERIOR_LOOPS
 62
     3
 10
471.8766059445956
 20
326.2576860597326
 30
0.0
 40
2.521396402374446
 50
42.58455960030965
 51
63.42501723472317
  0
LINE
  5
89
  8
INTERIOR_LOOPS
 62
     3
 10
473.0045995933125
 20
328.5126960699901
 30
0.0
 11
472.7899767154295
 21
328.6111466191122
 31
0.0
  0
ARC
  5
8A
  8
INTERIOR_LOOPS
 62
     3
 10
471.6117190140347
 20
325.7233312399867
 30
0.0
 40
3.118937138643577
 50
67.80404675421103
 51
89.98907718429629
  0
ARC
  5
8B
  8
INTERIOR_LOOPS
 62
     3
 10
471.6141356701474
 20
325.7169610420639
 30
0.0
 40
3.125307811025152
 50
90.03340363019305
 51
112.1726700377184
  0
ARC
  5
8C
  8
INTERIOR_LOOPS
 62
     3
 10
471.4378077953931
 20
326.12585490007
 30
0.0
 40
2.680120400495487
 50
111.980857647716
 51
131.8237916211821
  0
LINE
  5
8D
  8
INTERIOR_LOOPS
 62
     3
 10
469.6505910389077
 20
328.1230783794257
 30
0.0
 11
469.4915674869018
 21
327.9638650563884
 31
0.0
  0
ARC
  5
8E
  8
INTERIOR_LOOPS
 62
     3
 10
471.3918701508781
 20
326.2739796155135
 30
0.0
 40
2.543002756191211
 50
138.3542094907188
 51
150.941494400168
  0
ARC
  5
8F
  8
INTERIOR_LOOPS
 62
     3
 10
472.5351591294056
 20
325.6749236482676
 30
0.0
 40
3.833472927436619
 50
151.4145305932456
 51
159.9408165634251
  0
ARC
  5
90
  8
INTERIOR_LOOPS
 62
     3
 10
475.8351571389514
 20
324.5209052498205
 30
0.0
 40
7.329262903298543
 50
160.3149134239512
 51
164.9232707872855
  0
LINE
  5
91
  8
INTERIOR_LOOPS
 62
     3
 10
468.758179516771
 20
326.4273371108701
 30
0.0
 11
468.611750159268
 21
325.8431541090217
 31
0.0
  0
LINE
  5
92
  8
INTERIOR_LOOPS
 62
     3
 10
468.611750159268
 20
325.8431541090217
 30
0.0
 11
468.6122866945574
 21
325.8427601568783
 31
0.0
  0
LINE
  5
93
  8
INTERIOR_LOOPS
 62
     3
 10
468.6122866945574
 20
325.8427601568783
 30
0.0
 11
468.6120971194509
 21
305.8431685094304
 31
0.0
  0
LINE
  5
94
  8
INTERIOR_LOOPS
 62
     3
 10
468.6120971194509
 20
305.8431685094304
 30
0.0
 11
468.6117980207106
 21
305.8429489022022
 31
0.0
  0
LINE
  5
95
  8
INTERIOR_LOOPS
 62
     3
 10
468.6117980207106
 20
305.8429489022022
 30
0.0
 11
468.6114989219703
 21
305.842729294974
 31
0.0
  0
LINE
  5
96
  8
INTERIOR_LOOPS
 62
     3
 10
468.6114989219703
 20
305.842729294974
 30
0.0
 11
468.6827301707198
 21
305.5491845755676
 31
0.0
  0
LINE
  5
97
  8
INTERIOR_LOOPS
 62
     3
 10
468.6827301707198
 20
305.5491845755676
 30
0.0
 11
468.757893738662
 21
305.2585267774189
 31
0.0
  0
ARC
  5
98
  8
INTERIOR_LOOPS
 62
     3
 10
474.8040026974894
 20
306.8419230371403
 30
0.0
 40
6.250006180581879
 50
194.6754312244553
 51
200.0801708760659
  0
ARC
  5
99
  8
INTERIOR_LOOPS
 62
     3
 10
472.2021542507849
 20
305.8606699487456
 30
0.0
 40
3.469533178486367
 50
199.6128035584753
 51
209.0352743831109
  0
ARC
  5
9A
  8
INTERIOR_LOOPS
 62
     3
 10
471.2802109185561
 20
305.3329148995526
 30
0.0
 40
2.407354347877927
 50
208.7029246884153
 51
222.0025478945597
  0
ARC
  5
9B
  8
INTERIOR_LOOPS
 62
     3
 10
471.3477177248276
 20
305.4281550884399
 30
0.0
 40
2.521380922831183
 50
222.5843214342952
 51
243.4246618634618
  0
LINE
  5
9C
  8
INTERIOR_LOOPS
 62
     3
 10
470.2197170148094
 20
303.1731659185733
 30
0.0
 11
470.4343496813887
 21
303.0747098911921
 31
0.0
  0
ARC
  5
9D
  8
INTERIOR_LOOPS
 62
     3
 10
471.6125989745634
 20
305.9624894447799
 30
0.0
 40
3.118900791462706
 50
247.8039411447811
 51
269.989218553426
  0
ARC
  5
9E
  8
INTERIOR_LOOPS
 62
     3
 10
471.6101798748822
 20
305.968856993673
 30
0.0
 40
3.125268822211069
 50
270.0335900531709
 51
292.1731040339646
  0
ARC
  5
9F
  8
INTERIOR_LOOPS
 62
     3
 10
471.786490336831
 20
305.5600149074778
 30
0.0
 40
2.680135858657951
 50
291.9812918599195
 51
311.8238893443107
  0
LINE
  5
A0
  8
INTERIOR_LOOPS
 62
     3
 10
473.5737208079299
 20
303.5627829569925
 30
0.0
 11
473.7327516780447
 21
303.7220044807706
 31
0.0
  0
ARC
  5
A1
  8
INTERIOR_LOOPS
 62
     3
 10
471.8324181583211
 20
305.411902699467
 30
0.0
 40
2.543034304868571
 50
318.3544563329729
 51
330.9415974538478
  0
ARC
  5
A2
  8
INTERIOR_LOOPS
 62
     3
 10
470.6891245904653
 20
306.0109599914574
 30
0.0
 40
3.833509176559307
 50
331.4146104938151
 51
339.9408159008175
  0
ARC
  5
A3
  8
INTERIOR_LOOPS
 62
     3
 10
467.3891250995025
 20
307.1649809959293
 30
0.0
 40
7.32930142403976
 50
340.3148959465418
 51
344.9232242844462
  0
LINE
  5
A4
  8
INTERIOR_LOOPS
 62
     3
 10
474.4661383691537
 20
305.2585333712585
 30
0.0
 11
474.6125681003687
 21
305.8427152578437
 31
0.0
  0
LINE
  5
A5
  8
INTERIOR_LOOPS
 62
     3
 10
474.6125681003687
 20
305.8427152578437
 30
0.0
 11
474.6122689959954
 21
305.8429348732817
 31
0.0
  0
LINE
  5
A6
  8
OUTER_LOOP
 62
     3
 10
244.0068406605245
 20
160.2810434505827
 30
0.0
 11
252.8810394807245
 21
165.4668920563827
 31
0.0
  0
LINE
  5
A7
  8
OUTER_LOOP
 62
     3
 10
252.8810394807245
 20
165.4668920563827
 30
0.0
 11
255.4935144055245
 21
168.4959141373827
 31
0.0
  0
LINE
  5
A8
  8
OUTER_LOOP
 62
     3
 10
255.4935144055245
 20
168.4959141373827
 30
0.0
 11
269.5049365216245
 21
156.4113244712827
 31
0.0
  0
LINE
  5
A9
  8
OUTER_LOOP
 62
     3
 10
269.5049365216245
 20
156.4113244712827
 30
0.0
 11
274.2532076303844
 21
156.4113244713993
 31
0.0
  0
ARC
  5
AA
  8
OUTER_LOOP
 62
     3
 10
161.997122754476
 20
1265.166812807908
 30
0.0
 40
1114.423690302749
 50
275.781218301487
 51
283.1091660945514
  0
LINE
  5
AB
  8
OUTER_LOOP
 62
     3
 10
414.7563501653245
 20
179.7853432467826
 30
0.0
 11
436.7689135584245
 21
182.3840055248826
 31
0.0
  0
LINE
  5
AC
  8
OUTER_LOOP
 62
     3
 10
436.7689135584245
 20
182.3840055248826
 30
0.0
 11
457.3015251100245
 21
182.3840055248826
 31
0.0
  0
LINE
  5
AD
  8
OUTER_LOOP
 62
     3
 10
457.3015251100245
 20
182.3840055248826
 30
0.0
 11
480.0873146340162
 21
196.6251239775107
 31
0.0
  0
ARC
  5
AE
  8
OUTER_LOOP
 62
     3
 10
433.0924963531436
 20
17.20427840095144
 30
0.0
 40
185.4733209188312
 50
75.32251776813803
 51
90.0000000000368
  0
LINE
  5
AF
  8
OUTER_LOOP
 62
     3
 10
433.0924963530244
 20
202.6775993197826
 30
0.0
 11
425.8968456118245
 21
202.6775993197826
 31
0.0
  0
LINE
  5
B0
  8
OUTER_LOOP
 62
     3
 10
425.8968456118245
 20
202.6775993197826
 30
0.0
 11
425.8968456118154
 21
204.3220986870208
 31
0.0
  0
ARC
  5
B1
  8
OUTER_LOOP
 62
     3
 10
419.8968456118993
 20
183.7095372722609
 30
0.0
 40
21.46806204752176
 50
73.7705333604079
 51
90.00000000019963
  0
LINE
  5
B2
  8
OUTER_LOOP
 62
     3
 10
419.8968456118245
 20
205.1775993197826
 30
0.0
 11
413.8968456118245
 21
205.1775993197826
 31
0.0
  0
LINE
  5
B3
  8
OUTER_LOOP
 62
     3
 10
413.8968456118245
 20
205.1775993197826
 30
0.0
 11
413.8968456118245
 21
202.6775993197826
 31
0.0
  0
LINE
  5
B4
  8
OUTER_LOOP
 62
     3
 10
413.8968456118245
 20
202.6775993197826
 30
0.0
 11
360.4619196327245
 21
202.6775993197826
 31
0.0
  0
LINE
  5
B5
  8
OUTER_LOOP
 62
     3
 10
360.4619196327245
 20
202.6775993197826
 30
0.0
 11
328.2063616781245
 21
199.4304822084827
 31
0.0
  0
LINE
  5
B6
  8
OUTER_LOOP
 62
     3
 10
328.2063616781245
 20
199.4304822084827
 30
0.0
 11
292.5473455662245
 21
198.7745970892827
 31
0.0
  0
LINE
  5
B7
  8
OUTER_LOOP
 62
     3
 10
292.5473455662245
 20
198.7745970892827
 30
0.0
 11
282.4760113030244
 21
198.7745970892827
 31
0.0
  0
LINE
  5
B8
  8
OUTER_LOOP
 62
     3
 10
282.4760113030244
 20
198.7745970892827
 30
0.0
 11
231.7287693183245
 21
194.0731045776827
 31
0.0
  0
LINE
  5
B9
  8
OUTER_LOOP
 62
     3
 10
231.7287693183245
 20
194.0731045776827
 30
0.0
 11
210.7953108866245
 21
189.5533805980827
 31
0.0
  0
LINE
  5
BA
  8
OUTER_LOOP
 62
     3
 10
210.7953108866245
 20
189.5533805980827
 30
0.0
 11
206.4204205819557
 21
185.4128928271328
 31
0.0
  0
ARC
  5
BB
  8
OUTER_LOOP
 62
     3
 10
213.9466703315016
 20
175.4102833692407
 30
0.0
 40
12.51785250191312
 50
126.9588501065418
 51
189.775176313969
  0
LINE
  5
BC
  8
OUTER_LOOP
 62
     3
 10
201.6105576437245
 20
173.2849704477827
 30
0.0
 11
204.3076720887244
 21
157.6299074262827
 31
0.0
  0
LINE
  5
BD
  8
OUTER_LOOP
 62
     3
 10
204.3076720887244
 20
157.6299074262827
 30
0.0
 11
209.1559718040245
 21
156.4076186427827
 31
0.0
  0
LINE
  5
BE
  8
OUTER_LOOP
 62
     3
 10
209.1559718040245
 20
156.4076186427827
 30
0.0
 11
210.8865845090589
 21
163.2722231444429
 31
0.0
  0
ARC
  5
BF
  8
OUTER_LOOP
 62
     3
 10
213.9466703314245
 20
175.4102833691827
 30
0.0
 40
12.51785250191314
 50
255.8502103963999
 51
301.497794444
  0
LINE
  5
C0
  8
OUTER_LOOP
 62
     3
 10
220.4868194347922
 20
164.7368077887838
 30
0.0
 11
235.6637833389244
 21
158.5602520759827
 31
0.0
  0
LINE
  5
C1
  8
OUTER_LOOP
 62
     3
 10
235.6637833389244
 20
158.5602520759827
 30
0.0
 11
244.0068406605245
 21
160.2810434505827
 31
0.0
  0
CIRCLE
  5
C2
  8
INTERIOR_LOOPS
 62
     3
 10
230.2693328869244
 20
186.4202746381827
 30
0.0
 40
2.999999999999999
  0
CIRCLE
  5
C3
  8
INTERIOR_LOOPS
 62
     3
 10
213.9466700701244
 20
175.4102845239827
 30
0.0
 40
7.0
  0
CIRCLE
  5
C4
  8
INTERIOR_LOOPS
 62
     3
 10
274.8989707640245
 20
167.8926324517827
 30
0.0
 40
3.000000000000003
  0
CIRCLE
  5
C5
  8
INTERIOR_LOOPS
 62
     3
 10
351.1350228100245
 20
185.0796247111826
 30
0.0
 40
2.999999999999999
  0
CIRCLE
  5
C6
  8
INTERIOR_LOOPS
 62
     3
 10
455.9272571794245
 20
191.4733993772826
 30
0.0
 40
2.999999999999999
  0
CIRCLE
  5
C7
  8
INTERIOR_LOOPS
 62
     3
 10
319.2936408120245
 20
184.6297363473827
 30
0.0
 40
5.000000000000001
  0
LINE
  5
C8
  8
INTERIOR_LOOPS
 62
     3
 10
425.9968456118245
 20
199.7775993197827
 30
0.0
 11
413.7968456118244
 21
199.7775993197827
 31
0.0
  0
LINE
  5
C9
  8
INTERIOR_LOOPS
 62
     3
 10
413.7968456118244
 20
199.7775993197827
 30
0.0
 11
413.7968456118244
 21
196.5775993197826
 31
0.0
  0
LINE
  5
CA
  8
INTERIOR_LOOPS
 62
     3
 10
413.7968456118244
 20
196.5775993197826
 30
0.0
 11
425.9968456118245
 21
196.5775993197826
 31
0.0
  0
LINE
  5
CB
  8
INTERIOR_LOOPS
 62
     3
 10
425.9968456118245
 20
196.5775993197826
 30
0.0
 11
425.9968456118245
 21
199.7775993197827
 31
0.0
  0
LINE
  5
CC
  8
OUTER_LOOP
 62
     3
 10
437.5091246605245
 20
164.9818973203916
 30
0.0
 11
428.6349258403245
 21
159.7960487145916
 31
0.0
  0
LINE
  5
CD
  8
OUTER_LOOP
 62
     3
 10
428.6349258403245
 20
159.7960487145916
 30
0.0
 11
426.0224509155245
 21
156.7670266335916
 31
0.0
  0
LINE
  5
CE
  8
OUTER_LOOP
 62
     3
 10
426.0224509155245
 20
156.7670266335916
 30
0.0
 11
412.0110287994245
 21
168.8516162996916
 31
0.0
  0
LINE
  5
CF
  8
OUTER_LOOP
 62
     3
 10
412.0110287994245
 20
168.8516162996916
 30
0.0
 11
407.2627576906646
 21
168.851616299575
 31
0.0
  0
ARC
  5
D0
  8
OUTER_LOOP
 62
     3
 10
519.5188425665732
 20
-939.9038720369338
 30
0.0
 40
1114.423690302749
 50
95.78121830148703
 51
103.1091660945515
  0
LINE
  5
D1
  8
OUTER_LOOP
 62
     3
 10
266.7596151557245
 20
145.4775975241916
 30
0.0
 11
244.7470517626245
 21
142.8789352460916
 31
0.0
  0
LINE
  5
D2
  8
OUTER_LOOP
 62
     3
 10
244.7470517626245
 20
142.8789352460916
 30
0.0
 11
224.2144402110245
 21
142.8789352460916
 31
0.0
  0
LINE
  5
D3
  8
OUTER_LOOP
 62
     3
 10
224.2144402110245
 20
142.8789352460916
 30
0.0
 11
201.4286506870328
 21
128.6378167934636
 31
0.0
  0
ARC
  5
D4
  8
OUTER_LOOP
 62
     3
 10
248.4234689679053
 20
308.0586623700228
 30
0.0
 40
185.4733209188312
 50
255.322517768138
 51
270.0000000000368
  0
LINE
  5
D5
  8
OUTER_LOOP
 62
     3
 10
248.4234689680245
 20
122.5853414511916
 30
0.0
 11
255.6191197092245
 21
122.5853414511916
 31
0.0
  0
LINE
  5
D6
  8
OUTER_LOOP
 62
     3
 10
255.6191197092245
 20
122.5853414511916
 30
0.0
 11
255.6191197092335
 21
120.9408420839535
 31
0.0
  0
ARC
  5
D7
  8
OUTER_LOOP
 62
     3
 10
261.6191197091497
 20
141.5534034987134
 30
0.0
 40
21.46806204752176
 50
253.7705333604077
 51
270.0000000001995
  0
LINE
  5
D8
  8
OUTER_LOOP
 62
     3
 10
261.6191197092245
 20
120.0853414511916
 30
0.0
 11
267.6191197092245
 21
120.0853414511916
 31
0.0
  0
LINE
  5
D9
  8
OUTER_LOOP
 62
     3
 10
267.6191197092245
 20
120.0853414511916
 30
0.0
 11
267.6191197092245
 21
122.5853414511916
 31
0.0
  0
LINE
  5
DA
  8
OUTER_LOOP
 62
     3
 10
267.6191197092245
 20
122.5853414511916
 30
0.0
 11
321.0540456883245
 21
122.5853414511916
 31
0.0
  0
LINE
  5
DB
  8
OUTER_LOOP
 62
     3
 10
321.0540456883245
 20
122.5853414511916
 30
0.0
 11
353.3096036429245
 21
125.8324585624916
 31
0.0
  0
LINE
  5
DC
  8
OUTER_LOOP
 62
     3
 10
353.3096036429245
 20
125.8324585624916
 30
0.0
 11
388.9686197548245
 21
126.4883436816916
 31
0.0
  0
LINE
  5
DD
  8
OUTER_LOOP
 62
     3
 10
388.9686197548245
 20
126.4883436816916
 30
0.0
 11
399.0399540180245
 21
126.4883436816916
 31
0.0
  0
LINE
  5
DE
  8
OUTER_LOOP
 62
     3
 10
399.0399540180245
 20
126.4883436816916
 30
0.0
 11
449.7871960027245
 21
131.1898361932916
 31
0.0
  0
LINE
  5
DF
  8
OUTER_LOOP
 62
     3
 10
449.7871960027245
 20
131.1898361932916
 30
0.0
 11
470.7206544344244
 21
135.7095601728916
 31
0.0
  0
LINE
  5
E0
  8
OUTER_LOOP
 62
     3
 10
470.7206544344244
 20
135.7095601728916
 30
0.0
 11
475.0955447390933
 21
139.8500479438415
 31
0.0
  0
ARC
  5
E1
  8
OUTER_LOOP
 62
     3
 10
467.5692949895473
 20
149.8526574017336
 30
0.0
 40
12.51785250191312
 50
306.9588501065418
 51
9.77517631396919
  0
LINE
  5
E2
  8
OUTER_LOOP
 62
     3
 10
479.9054076773244
 20
151.9779703231916
 30
0.0
 11
477.2082932323245
 21
167.6330333446916
 31
0.0
  0
LINE
  5
E3
  8
OUTER_LOOP
 62
     3
 10
477.2082932323245
 20
167.6330333446916
 30
0.0
 11
472.3599935170245
 21
168.8553221281916
 31
0.0
  0
LINE
  5
E4
  8
OUTER_LOOP
 62
     3
 10
472.3599935170245
 20
168.8553221281916
 30
0.0
 11
470.62938081199
 21
161.9907176265314
 31
0.0
  0
ARC
  5
E5
  8
OUTER_LOOP
 62
     3
 10
467.5692949896245
 20
149.8526574017916
 30
0.0
 40
12.51785250191314
 50
75.85021039640012
 51
121.4977944439999
  0
LINE
  5
E6
  8
OUTER_LOOP
 62
     3
 10
461.0291458862567
 20
160.5261329821905
 30
0.0
 11
445.8521819821245
 21
166.7026886949916
 31
0.0
  0
LINE
  5
E7
  8
OUTER_LOOP
 62
     3
 10
445.8521819821245
 20
166.7026886949916
 30
0.0
 11
437.5091246605245
 21
164.9818973203916
 31
0.0
  0
CIRCLE
  5
E8
  8
INTERIOR_LOOPS
 62
     3
 10
451.2466324341245
 20
138.8426661327916
 30
0.0
 40
2.999999999999999
  0
CIRCLE
  5
E9
  8
INTERIOR_LOOPS
 62
     3
 10
467.5692952509245
 20
149.8526562469916
 30
0.0
 40
7.0
  0
CIRCLE
  5
EA
  8
INTERIOR_LOOPS
 62
     3
 10
406.6169945570245
 20
157.3703083191916
 30
0.0
 40
3.000000000000003
  0
CIRCLE
  5
EB
  8
INTERIOR_LOOPS
 62
     3
 10
330.3809425110245
 20
140.1833160597916
 30
0.0
 40
2.999999999999999
  0
CIRCLE
  5
EC
  8
INTERIOR_LOOPS
 62
     3
 10
225.5887081416245
 20
133.7895413936916
 30
0.0
 40
2.999999999999999
  0
CIRCLE
  5
ED
  8
INTERIOR_LOOPS
 62
     3
 10
362.2223245090245
 20
140.6332044235916
 30
0.0
 40
5.000000000000001
  0
LINE
  5
EE
  8
INTERIOR_LOOPS
 62
     3
 10
255.5191197092245
 20
125.4853414511916
 30
0.0
 11
267.7191197092245
 21
125.4853414511916
 31
0.0
  0
LINE
  5
EF
  8
INTERIOR_LOOPS
 62
     3
 10
267.7191197092245
 20
125.4853414511916
 30
0.0
 11
267.7191197092245
 21
128.6853414511916
 31
0.0
  0
LINE
  5
F0
  8
INTERIOR_LOOPS
 62
     3
 10
267.7191197092245
 20
128.6853414511916
 30
0.0
 11
255.5191197092245
 21
128.6853414511916
 31
0.0
  0
LINE
  5
F1
  8
INTERIOR_LOOPS
 62
     3
 10
255.5191197092245
 20
128.6853414511916
 30
0.0
 11
255.5191197092245
 21
125.4853414511916
 31
0.0
  0
LINE
  5
F2
  8
OUTER_LOOP
 62
     3
 10
246.6590846605245
 20
37.0484851
 30
0.0
 11
244.9284719555245
 21
43.9130896017
 31
0.0
  0
LINE
  5
F3
  8
OUTER_LOOP
 62
     3
 10
244.9284719555245
 20
43.9130896017
 30
0.0
 11
240.0801722401245
 21
42.6908008182
 31
0.0
  0
LINE
  5
F4
  8
OUTER_LOOP
 62
     3
 10
240.0801722401245
 20
42.6908008182
 30
0.0
 11
237.3830577951447
 21
27.03573779674317
 31
0.0
  0
ARC
  5
F5
  8
OUTER_LOOP
 62
     3
 10
249.7191704829245
 20
24.9104248753
 30
0.0
 40
12.51785250191312
 50
170.2248236861
 51
270.0
  0
LINE
  5
F6
  8
OUTER_LOOP
 62
     3
 10
249.7191704829245
 20
12.39257237338688
 30
0.0
 11
338.9826788697245
 21
7.499999859900001
 31
0.0
  0
LINE
  5
F7
  8
OUTER_LOOP
 62
     3
 10
338.9826788697245
 20
7.499999859900001
 30
0.0
 11
413.5191254144245
 21
7.499999859900001
 31
0.0
  0
LINE
  5
F8
  8
OUTER_LOOP
 62
     3
 10
413.5191254144245
 20
7.499999859900001
 30
0.0
 11
413.5191254144245
 21
4.999999859900001
 31
0.0
  0
LINE
  5
F9
  8
OUTER_LOOP
 62
     3
 10
413.5191254144245
 20
4.999999859900001
 30
0.0
 11
417.5191254144245
 21
4.999999859900001
 31
0.0
  0
ARC
  5
FA
  8
OUTER_LOOP
 62
     3
 10
417.5191254145606
 20
45.4194044165275
 30
0.0
 40
40.4194045566275
 50
269.999999999807
 51
281.4156294463031
  0
LINE
  5
FB
  8
OUTER_LOOP
 62
     3
 10
425.5191254144153
 20
5.799608042560052
 30
0.0
 11
425.5191254144245
 21
7.799608042599999
 31
0.0
  0
ARC
  5
FC
  8
OUTER_LOOP
 62
     3
 10
380.9584169618548
 20
575.8680424599053
 30
0.0
 40
569.8134808155413
 50
274.4852396956867
 51
280.0182577194969
  0
LINE
  5
FD
  8
OUTER_LOOP
 62
     3
 10
480.0843011891956
 20
14.74286748085392
 30
0.0
 11
451.0973281973245
 21
27.0166308195
 31
0.0
  0
LINE
  5
FE
  8
OUTER_LOOP
 62
     3
 10
451.0973281973245
 20
27.0166308195
 30
0.0
 11
364.6586970246244
 21
30.672645431
 31
0.0
  0
LINE
  5
FF
  8
OUTER_LOOP
 62
     3
 10
364.6586970246244
 20
30.672645431
 30
0.0
 11
309.8956764393245
 21
36.3720035503
 31
0.0
  0
ARC
  5
100
  8
OUTER_LOOP
 62
     3
 10
311.0675849305098
 20
47.63243805641305
 30
0.0
 40
11.32125235025585
 50
228.3529786906993
 51
264.0584395968681
  0
LINE
  5
101
  8
OUTER_LOOP
 62
     3
 10
303.5441634095253
 20
39.17259861374271
 30
0.0
 11
307.5508493030244
 21
65.4892198303
 31
0.0
  0
LINE
  5
102
  8
OUTER_LOOP
 62
     3
 10
307.5508493030244
 20
65.4892198303
 30
0.0
 11
301.5459955164245
 21
66.40345432730001
 31
0.0
  0
ARC
  5
103
  8
OUTER_LOOP
 62
     3
 10
293.6554450614557
 20
14.57692411305666
 30
0.0
 40
52.42375435363522
 50
81.34323935296034
 51
113.3473806467563
  0
LINE
  5
104
  8
OUTER_LOOP
 62
     3
 10
272.8796556509103
 20
62.70816755117028
 30
0.0
 11
256.2593195862245
 21
35.5839004557
 31
0.0
  0
ARC
  5
105
  8
OUTER_LOOP
 62
     3
 10
249.7191704829138
 20
24.9104248752662
 30
0.0
 40
12.51785250191313
 50
58.50220555630623
 51
104.1497896037122
  0
CIRCLE
  5
106
  8
INTERIOR_LOOPS
 62
     3
 10
452.7294775775244
 20
18.1377381915
 30
0.0
 40
2.499999999999999
  0
CIRCLE
  5
107
  8
INTERIOR_LOOPS
 62
     3
 10
359.0504907168245
 20
18.8660896278
 30
0.0
 40
5.999999999999998
  0
CIRCLE
  5
108
  8
INTERIOR_LOOPS
 62
     3
 10
268.3352469180244
 20
18.5002059258
 30
0.0
 40
2.999999999999999
  0
CIRCLE
  5
109
  8
INTERIOR_LOOPS
 62
     3
 10
332.6577283766244
 20
20.9248795567
 30
0.0
 40
7.000000000000063
  0
CIRCLE
  5
10A
  8
INTERIOR_LOOPS
 62
     3
 10
282.9859420420245
 20
37.3971008772
 30
0.0
 40
8.0
  0
CIRCLE
  5
10B
  8
INTERIOR_LOOPS
 62
     3
 10
385.8204383161245
 20
17.9264459411
 30
0.0
 40
5.000000000000001
  0
CIRCLE
  5
10C
  8
INTERIOR_LOOPS
 62
     3
 10
249.7191702215245
 20
24.9104237205
 30
0.0
 40
7.0
  0
CIRCLE
  5
10D
  8
INTERIOR_LOOPS
 62
     3
 10
291.8108783958244
 20
54.2865851146
 30
0.0
 40
5.000000000000002
  0
LINE
  5
10E
  8
INTERIOR_LOOPS
 62
     3
 10
423.6582175219245
 20
14.5144585217
 30
0.0
 11
415.4582175219244
 21
14.5144585217
 31
0.0
  0
LINE
  5
10F
  8
INTERIOR_LOOPS
 62
     3
 10
415.4582175219244
 20
14.5144585217
 30
0.0
 11
415.4582175219244
 21
11.3144585217
 31
0.0
  0
LINE
  5
110
  8
INTERIOR_LOOPS
 62
     3
 10
415.4582175219244
 20
11.3144585217
 30
0.0
 11
423.6582175219245
 21
11.3144585217
 31
0.0
  0
LINE
  5
111
  8
INTERIOR_LOOPS
 62
     3
 10
423.6582175219245
 20
11.3144585217
 30
0.0
 11
423.6582175219245
 21
14.5144585217
 31
0.0
  0
LINE
  5
112
  8
INTERIOR_LOOPS
 62
     3
 10
276.8840757092245
 20
54.044385214
 30
0.0
 11
274.2887807455244
 21
55.9164012533
 31
0.0
  0
LINE
  5
113
  8
INTERIOR_LOOPS
 62
     3
 10
274.2887807455244
 20
55.9164012533
 30
0.0
 11
268.3217296201245
 21
47.6438985567
 31
0.0
  0
LINE
  5
114
  8
INTERIOR_LOOPS
 62
     3
 10
268.3217296201245
 20
47.6438985567
 30
0.0
 11
270.9170245837245
 21
45.7718825173
 31
0.0
  0
LINE
  5
115
  8
INTERIOR_LOOPS
 62
     3
 10
270.9170245837245
 20
45.7718825173
 30
0.0
 11
276.8840757092245
 21
54.044385214
 31
0.0
  0
ARC
  5
116
  8
INTERIOR_LOOPS
 62
     3
 10
291.237923870027
 20
20.32820411563372
 30
0.0
 40
2.999999999999986
 50
84.41256493695937
 51
264.4125681567409
  0
ARC
  5
117
  8
INTERIOR_LOOPS
 62
     3
 10
302.7827987002945
 20
138.3384515699839
 30
0.0
 40
121.57361696045
 50
264.4125665482486
 51
277.0467243220617
  0
ARC
  5
118
  8
INTERIOR_LOOPS
 62
     3
 10
317.3292693478948
 20
20.66048918625058
 30
0.0
 40
2.99999999999996
 50
277.0465051185967
 51
97.04694352358248
  0
ARC
  5
119
  8
INTERIOR_LOOPS
 62
     3
 10
302.7827987004945
 20
138.3384515699645
 30
0.0
 40
115.5736169604501
 50
264.4125665482216
 51
277.0467243220149
  0
ARC
  5
11A
  8
OUTER_LOOP
 62
     3
 10
426.6295888575171
 20
94.07218242397582
 30
0.0
 40
50.86034197935419
 50
3.543685668417637
 51
33.59995876870591
  0
ARC
  5
11B
  8
OUTER_LOOP
 62
     3
 10
460.7624101998319
 20
119.5932673777868
 30
0.0
 40
8.638224402910232
 50
17.6879011183256
 51
139.0869903832769
  0
ARC
  5
11C
  8
OUTER_LOOP
 62
     3
 10
460.6110246378478
 20
119.7509379235513
 30
0.0
 40
8.420584981203087
 50
139.223130664435
 51
189.1933809252533
  0
ARC
  5
11D
  8
OUTER_LOOP
 62
     3
 10
394.7149213639303
 20
117.5709612975765
 30
0.0
 40
57.58973152460735
 50
318.6187946859724
 51
0.8304126258939449
  0
ARC
  5
11E
  8
OUTER_LOOP
 62
     3
 10
419.8343002846647
 20
95.42369966295668
 30
0.0
 40
24.10116567524288
 50
265.1273833874083
 51
318.6476741946872
  0
ARC
  5
11F
  8
OUTER_LOOP
 62
     3
 10
425.1159914725232
 20
157.9136751914407
 30
0.0
 40
86.81394533478122
 50
232.169914532503
 51
265.1573076664478
  0
ARC
  5
120
  8
OUTER_LOOP
 62
     3
 10
366.6500109950388
 20
82.64771467515186
 30
0.0
 40
8.49207932902914
 50
52.06125351645102
 51
180.1090639712512
  0
LINE
  5
121
  8
OUTER_LOOP
 62
     3
 10
358.157947051143
 20
82.6315497962663
 30
0.0
 11
358.1583991560445
 21
59.77483019614738
 31
0.0
  0
LINE
  5
122
  8
OUTER_LOOP
 62
     3
 10
358.1583991560445
 20
59.77483019614738
 30
0.0
 11
358.5665847226444
 21
59.40857732824738
 31
0.0
  0
LINE
  5
123
  8
OUTER_LOOP
 62
     3
 10
358.5665847226444
 20
59.40857732824738
 30
0.0
 11
362.0590290579445
 21
56.27491216874738
 31
0.0
  0
LINE
  5
124
  8
OUTER_LOOP
 62
     3
 10
362.0590290579445
 20
56.27491216874738
 30
0.0
 11
358.5665721446445
 21
53.14126243434739
 31
0.0
  0
LINE
  5
125
  8
OUTER_LOOP
 62
     3
 10
358.5665721446445
 20
53.14126243434739
 30
0.0
 11
358.1583849333441
 21
52.7750115700019
 31
0.0
  0
LINE
  5
126
  8
OUTER_LOOP
 62
     3
 10
358.1583849333441
 20
52.7750115700019
 30
0.0
 11
358.1583469608157
 21
44.11600197901104
 31
0.0
  0
LINE
  5
127
  8
OUTER_LOOP
 62
     3
 10
358.1583469608157
 20
44.11600197901104
 30
0.0
 11
358.157881290164
 21
44.1159050349546
 31
0.0
  0
ARC
  5
128
  8
OUTER_LOOP
 62
     3
 10
366.6417236371445
 20
44.09954630359201
 30
0.0
 40
8.48385811859866
 50
179.8895211550014
 51
270.1100367519153
  0
LINE
  5
129
  8
OUTER_LOOP
 62
     3
 10
366.6580169073496
 20
35.61570383064035
 30
0.0
 11
366.6581138986959
 21
35.61616980034999
 31
0.0
  0
LINE
  5
12A
  8
OUTER_LOOP
 62
     3
 10
366.6581138986959
 20
35.61616980034999
 30
0.0
 11
386.6576660213269
 21
35.61619925853857
 31
0.0
  0
LINE
  5
12B
  8
OUTER_LOOP
 62
     3
 10
386.6576660213269
 20
35.61619925853857
 30
0.0
 11
386.6577629665282
 21
35.61573359074929
 31
0.0
  0
ARC
  5
12C
  8
OUTER_LOOP
 62
     3
 10
386.6740691680703
 20
44.09967322124732
 30
0.0
 40
8.483955300810107
 50
269.8898771775257
 51
0.1093329276089613
  0
LINE
  5
12D
  8
OUTER_LOOP
 62
     3
 10
395.1580090225637
 20
44.11586246093816
 30
0.0
 11
440.9389866681366
 21
44.11567692467026
 31
0.0
  0
ARC
  5
12E
  8
OUTER_LOOP
 62
     3
 10
449.4257123334444
 20
44.10214139489882
 30
0.0
 40
8.486736459249808
 50
179.9086186943722
 51
270.0903345537672
  0
LINE
  5
12F
  8
OUTER_LOOP
 62
     3
 10
449.4390928169614
 20
35.61541548372313
 30
0.0
 11
449.4391898753731
 21
35.6158890966122
 31
0.0
  0
LINE
  5
130
  8
OUTER_LOOP
 62
     3
 10
449.4391898753731
 20
35.6158890966122
 30
0.0
 11
469.4387914620187
 21
35.61540220880313
 31
0.0
  0
ARC
  5
131
  8
OUTER_LOOP
 62
     3
 10
469.4636310495104
 20
44.07951575834747
 30
0.0
 40
8.464149997766272
 50
269.8318548736311
 51
339.5001445020097
  0
LINE
  5
132
  8
OUTER_LOOP
 62
     3
 10
477.391772433858
 20
41.11532794808974
 30
0.0
 11
477.3916751780217
 21
52.77437627364705
 31
0.0
  0
LINE
  5
133
  8
OUTER_LOOP
 62
     3
 10
477.3916751780217
 20
52.77437627364705
 30
0.0
 11
476.9834931564445
 21
53.14063305424736
 31
0.0
  0
LINE
  5
134
  8
OUTER_LOOP
 62
     3
 10
476.9834931564445
 20
53.14063305424736
 30
0.0
 11
473.4910791704444
 21
56.27433558324736
 31
0.0
  0
LINE
  5
135
  8
OUTER_LOOP
 62
     3
 10
473.4910791704444
 20
56.27433558324736
 30
0.0
 11
476.9835591748445
 21
59.40795997124737
 31
0.0
  0
LINE
  5
136
  8
OUTER_LOOP
 62
     3
 10
476.9835591748445
 20
59.40795997124737
 30
0.0
 11
477.3917493140445
 21
59.77420771374736
 31
0.0
  0
LINE
  5
137
  8
OUTER_LOOP
 62
     3
 10
477.3917493140445
 20
59.77420771374736
 30
0.0
 11
477.39227442753
 21
97.21579833899008
 31
0.0
  0
LINE
  5
138
  8
OUTER_LOOP
 62
     3
 10
477.39227442753
 20
97.21579833899008
 30
0.0
 11
477.3926838949022
 21
97.21583769805945
 31
0.0
  0
CIRCLE
  5
139
  8
INTERIOR_LOOPS
 62
     3
 10
466.6363706816445
 20
67.68687736624737
 30
0.0
 40
2.998353422585277
  0
CIRCLE
  5
13A
  8
INTERIOR_LOOPS
 62
     3
 10
467.4690766422445
 20
75.13784010454737
 30
0.0
 40
2.997931180818648
  0
CIRCLE
  5
13B
  8
INTERIOR_LOOPS
 62
     3
 10
460.8719910258445
 20
119.2758210605474
 30
0.0
 40
2.997952199561607
  0
CIRCLE
  5
13C
  8
INTERIOR_LOOPS
 62
     3
 10
463.3289974097445
 20
112.1917467080474
 30
0.0
 40
2.998218870532735
  0
CIRCLE
  5
13D
  8
INTERIOR_LOOPS
 62
     3
 10
465.2540766765445
 20
104.9450040092474
 30
0.0
 40
2.997930468644569
  0
CIRCLE
  5
13E
  8
INTERIOR_LOOPS
 62
     3
 10
466.6366810009445
 20
97.57552721414737
 30
0.0
 40
2.998263212782569
  0
CIRCLE
  5
13F
  8
INTERIOR_LOOPS
 62
     3
 10
467.4692702367445
 20
90.12378882874737
 30
0.0
 40
2.998263359820409
  0
CIRCLE
  5
140
  8
INTERIOR_LOOPS
 62
     3
 10
467.7472659424445
 20
82.63078393544737
 30
0.0
 40
2.997930068970673
  0
CIRCLE
  5
141
  8
INTERIOR_LOOPS
 62
     3
 10
366.6581489496444
 20
82.63165660214739
 30
0.0
 40
2.997926165514564
  0
LINE
  5
142
  8
INTERIOR_LOOPS
 62
     3
 10
386.6579658042444
 20
47.11620616214738
 30
0.0
 11
386.6577458754289
 21
47.11590469264571
 31
0.0
  0
LINE
  5
143
  8
INTERIOR_LOOPS
 62
     3
 10
386.6577458754289
 20
47.11590469264571
 30
0.0
 11
366.6581722518446
 21
47.11590469257222
 31
0.0
  0
LINE
  5
144
  8
INTERIOR_LOOPS
 62
     3
 10
366.6581722518446
 20
47.11590469257222
 30
0.0
 11
366.6579523308322
 21
47.11620615457836
 31
0.0
  0
LINE
  5
145
  8
INTERIOR_LOOPS
 62
     3
 10
366.6579523308322
 20
47.11620615457836
 30
0.0
 11
366.6577324098199
 21
47.11650761658446
 31
0.0
  0
LINE
  5
146
  8
INTERIOR_LOOPS
 62
     3
 10
366.6577324098199
 20
47.11650761658446
 30
0.0
 11
366.0732328925315
 21
46.97093005717854
 31
0.0
  0
ARC
  5
147
  8
INTERIOR_LOOPS
 62
     3
 10
367.6500959835187
 20
40.94340952410945
 30
0.0
 40
6.230369249433577
 50
104.6606181230566
 51
110.0813745467655
  0
ARC
  5
148
  8
INTERIOR_LOOPS
 62
     3
 10
366.6684125168113
 20
43.54720285234859
 30
0.0
 40
3.447919332524156
 50
109.6164281477385
 51
119.0986848869162
  0
ARC
  5
149
  8
INTERIOR_LOOPS
 62
     3
 10
366.1572402873257
 20
44.43913799135143
 30
0.0
 40
2.420004678442537
 50
118.7934520200356
 51
132.0296390767757
  0
ARC
  5
14A
  8
INTERIOR_LOOPS
 62
     3
 10
366.246206229466
 20
44.3764269044486
 30
0.0
 40
2.526265348525888
 50
132.576185475608
 51
153.3692563048912
  0
LINE
  5
14B
  8
INTERIOR_LOOPS
 62
     3
 10
363.9879426452927
 20
45.50879707164625
 30
0.0
 11
363.8894637270918
 21
45.2943230019718
 31
0.0
  0
ARC
  5
14C
  8
INTERIOR_LOOPS
 62
     3
 10
366.7772921901711
 20
44.11669314358358
 30
0.0
 40
3.118712124505596
 50
157.8148173144044
 51
180.0129781160686
  0
ARC
  5
14D
  8
INTERIOR_LOOPS
 62
     3
 10
366.7861324964977
 20
44.11694710010183
 30
0.0
 40
3.127552498277994
 50
180.0175938358063
 51
202.1522351366525
  0
ARC
  5
14E
  8
INTERIOR_LOOPS
 62
     3
 10
366.3707669865233
 20
43.94046930366333
 30
0.0
 40
2.676311532580706
 50
202.0060201959593
 51
221.8671650288106
  0
LINE
  5
14F
  8
INTERIOR_LOOPS
 62
     3
 10
364.377733459698
 20
42.15428320463138
 30
0.0
 11
364.5369691057547
 21
41.99524108996523
 31
0.0
  0
ARC
  5
150
  8
INTERIOR_LOOPS
 62
     3
 10
366.2319268906049
 20
43.89791121584262
 30
0.0
 40
2.548143539977802
 50
228.304355922525
 51
240.8721208979483
  0
LINE
  5
151
  8
INTERIOR_LOOPS
 62
     3
 10
364.991591305803
 20
41.67201743189769
 30
0.0
 11
365.2444583649993
 21
41.5452167944484
 31
0.0
  0
LINE
  5
152
  8
INTERIOR_LOOPS
 62
     3
 10
365.2444583649993
 20
41.5452167944484
 30
0.0
 11
365.510823794816
 21
41.43694153564837
 31
0.0
  0
ARC
  5
153
  8
INTERIOR_LOOPS
 62
     3
 10
367.9605813401963
 20
48.280847768323
 30
0.0
 40
7.269137813578055
 50
250.3053106893457
 51
254.9509788523408
  0
LINE
  5
154
  8
INTERIOR_LOOPS
 62
     3
 10
366.0731833084525
 20
41.26101207063318
 30
0.0
 11
366.6576831723179
 21
41.11543213686284
 31
0.0
  0
LINE
  5
155
  8
INTERIOR_LOOPS
 62
     3
 10
366.6576831723179
 20
41.11543213686284
 30
0.0
 11
366.6580776260691
 21
41.11597283112398
 31
0.0
  0
LINE
  5
156
  8
INTERIOR_LOOPS
 62
     3
 10
366.6580776260691
 20
41.11597283112398
 30
0.0
 11
386.6576805793705
 21
41.11606455478227
 31
0.0
  0
LINE
  5
157
  8
INTERIOR_LOOPS
 62
     3
 10
386.6576805793705
 20
41.11606455478227
 30
0.0
 11
386.6579004961342
 21
41.11576309305582
 31
0.0
  0
LINE
  5
158
  8
INTERIOR_LOOPS
 62
     3
 10
386.6579004961342
 20
41.11576309305582
 30
0.0
 11
386.658120412898
 21
41.11546163132938
 31
0.0
  0
LINE
  5
159
  8
INTERIOR_LOOPS
 62
     3
 10
386.658120412898
 20
41.11546163132938
 30
0.0
 11
387.2426205937016
 21
41.2610363170354
 31
0.0
  0
ARC
  5
15A
  8
INTERIOR_LOOPS
 62
     3
 10
385.6657721353613
 20
47.28861985442987
 30
0.0
 40
6.230426499112169
 50
284.6603412995374
 51
290.0810494875166
  0
ARC
  5
15B
  8
INTERIOR_LOOPS
 62
     3
 10
386.6474471285746
 20
44.68480110721166
 30
0.0
 40
3.447955768144884
 50
289.6161229493976
 51
299.0982881534495
  0
ARC
  5
15C
  8
INTERIOR_LOOPS
 62
     3
 10
387.1586198806255
 20
43.79284980456865
 30
0.0
 40
2.42002682381524
 50
298.7930648531003
 51
312.0291501683273
  0
ARC
  5
15D
  8
INTERIOR_LOOPS
 62
     3
 10
387.0696663899011
 20
43.85554981596693
 30
0.0
 40
2.526270715907296
 50
312.5756743562947
 51
333.3684755315959
  0
LINE
  5
15E
  8
INTERIOR_LOOPS
 62
     3
 10
389.327919340927
 20
42.7231464694364
 30
0.0
 11
389.4264053311776
 21
42.93762972284394
 31
0.0
  0
ARC
  5
15F
  8
INTERIOR_LOOPS
 62
     3
 10
386.5386234572804
 20
44.11527160693984
 30
0.0
 40
3.118673525457019
 50
337.8142895361721
 51
0.0127226922361646
  0
ARC
  5
160
  8
INTERIOR_LOOPS
 62
     3
 10
386.5297852795355
 20
44.11501518067971
 30
0.0
 40
3.127511770276159
 50
0.017384448217305
 51
22.15232394646723
  0
ARC
  5
161
  8
INTERIOR_LOOPS
 62
     3
 10
386.9451209477017
 20
44.29148190482633
 30
0.0
 40
2.676302608839594
 50
22.00610213797726
 51
41.86710890076792
  0
LINE
  5
162
  8
INTERIOR_LOOPS
 62
     3
 10
388.9381495788445
 20
46.07766009569271
 30
0.0
 11
388.7789059483051
 21
46.23670979460285
 31
0.0
  0
ARC
  5
163
  8
INTERIOR_LOOPS
 62
     3
 10
387.0839641472018
 20
44.33404336314895
 30
0.0
 40
2.548130149444653
 50
48.30456902700562
 51
60.87240974165096
  0
LINE
  5
164
  8
INTERIOR_LOOPS
 62
     3
 10
388.3242819927249
 20
46.55993170279802
 30
0.0
 11
388.0714141269823
 21
46.68673111433839
 31
0.0
  0
LINE
  5
165
  8
INTERIOR_LOOPS
 62
     3
 10
388.0714141269823
 20
46.68673111433839
 30
0.0
 11
387.8050479313061
 21
46.79500496519871
 31
0.0
  0
ARC
  5
166
  8
INTERIOR_LOOPS
 62
     3
 10
385.3553451558562
 20
39.95112998093424
 30
0.0
 40
7.269089935355611
 50
70.30563413198624
 51
74.95133620159518
  0
LINE
  5
167
  8
INTERIOR_LOOPS
 62
     3
 10
387.2426869743313
 20
46.97093121377007
 30
0.0
 11
386.65818573306
 21
47.11650763164904
 31
0.0
  0
LINE
  5
168
  8
INTERIOR_LOOPS
 62
     3
 10
386.65818573306
 20
47.11650763164904
 30
0.0
 11
386.6579658042444
 21
47.11620616214738
 31
0.0
  0
LINE
  5
169
  8
INTERIOR_LOOPS
 62
     3
 10
449.4390370689259
 20
41.11545636258852
 30
0.0
 11
449.4392566843638
 21
41.11575546696188
 31
0.0
  0
LINE
  5
16A
  8
INTERIOR_LOOPS
 62
     3
 10
449.4392566843638
 20
41.11575546696188
 30
0.0
 11
469.4387975520839
 21
41.11548187928422
 31
0.0
  0
LINE
  5
16B
  8
INTERIOR_LOOPS
 62
     3
 10
469.4387975520839
 20
41.11548187928422
 30
0.0
 11
469.4390171601117
 21
41.1151827833135
 31
0.0
  0
LINE
  5
16C
  8
INTERIOR_LOOPS
 62
     3
 10
469.4390171601117
 20
41.1151827833135
 30
0.0
 11
469.4392367681395
 21
41.1148836873428
 31
0.0
  0
LINE
  5
16D
  8
INTERIOR_LOOPS
 62
     3
 10
469.4392367681395
 20
41.1148836873428
 30
0.0
 11
469.7327810248246
 21
41.18611687300549
 31
0.0
  0
LINE
  5
16E
  8
INTERIOR_LOOPS
 62
     3
 10
469.7327810248246
 20
41.18611687300549
 30
0.0
 11
470.0234383497302
 21
41.26128234147724
 31
0.0
  0
ARC
  5
16F
  8
INTERIOR_LOOPS
 62
     3
 10
468.4399988730382
 20
47.30739820019426
 30
0.0
 40
6.250023804224747
 50
284.6757984572932
 51
290.0805237329341
  0
ARC
  5
170
  8
INTERIOR_LOOPS
 62
     3
 10
469.4212702117697
 20
44.70555196181527
 30
0.0
 40
3.469546441773856
 50
289.6131454061054
 51
299.0355830395816
  0
ARC
  5
171
  8
INTERIOR_LOOPS
 62
     3
 10
469.9490314599041
 20
43.78361027640137
 30
0.0
 40
2.407365969810005
 50
298.7032231232602
 51
312.0027848633662
  0
ARC
  5
172
  8
INTERIOR_LOOPS
 62
     3
 10
469.853788255377
 20
43.85111941398827
 30
0.0
 40
2.521396402374446
 50
312.5845596003091
 51
333.4250172347226
  0
LINE
  5
173
  8
INTERIOR_LOOPS
 62
     3
 10
472.1087982656343
 20
42.72312576527133
 30
0.0
 11
472.2072488147565
 21
42.93774864315439
 31
0.0
  0
ARC
  5
174
  8
INTERIOR_LOOPS
 62
     3
 10
469.319433435631
 20
44.11600634454918
 30
0.0
 40
3.118937138643577
 50
337.8040467542109
 51
359.9890771842969
  0
ARC
  5
175
  8
INTERIOR_LOOPS
 62
     3
 10
469.3130632377081
 20
44.11358968843643
 30
0.0
 40
3.125307811025152
 50
0.0334036301936951
 51
22.17267003771832
  0
ARC
  5
176
  8
INTERIOR_LOOPS
 62
     3
 10
469.7219570957143
 20
44.28991756319076
 30
0.0
 40
2.680120400495487
 50
21.98085764771688
 51
41.8237916211823
  0
LINE
  5
177
  8
INTERIOR_LOOPS
 62
     3
 10
471.71918057507
 20
46.07713431967618
 30
0.0
 11
471.5599672520327
 21
46.23615787168208
 31
0.0
  0
ARC
  5
178
  8
INTERIOR_LOOPS
 62
     3
 10
469.8700818111579
 20
44.33585520770579
 30
0.0
 40
2.543002756191211
 50
48.35420949072089
 51
60.94149440017021
  0
ARC
  5
179
  8
INTERIOR_LOOPS
 62
     3
 10
469.2710258439119
 20
43.19256622917822
 30
0.0
 40
3.833472927436619
 50
61.41453059324684
 51
69.94081656342617
  0
ARC
  5
17A
  8
INTERIOR_LOOPS
 62
     3
 10
468.1170074454647
 20
39.89256821963243
 30
0.0
 40
7.329262903298543
 50
70.31491342395034
 51
74.92327078728471
  0
LINE
  5
17B
  8
INTERIOR_LOOPS
 62
     3
 10
470.0234393065144
 20
46.96954584181287
 30
0.0
 11
469.439256304666
 21
47.11597519931591
 31
0.0
  0
LINE
  5
17C
  8
INTERIOR_LOOPS
 62
     3
 10
469.439256304666
 20
47.11597519931591
 30
0.0
 11
469.4388623525226
 21
47.11543866402653
 31
0.0
  0
LINE
  5
17D
  8
INTERIOR_LOOPS
 62
     3
 10
469.4388623525226
 20
47.11543866402653
 30
0.0
 11
449.4392707050747
 21
47.11562823913302
 31
0.0
  0
LINE
  5
17E
  8
INTERIOR_LOOPS
 62
     3
 10
449.4392707050747
 20
47.11562823913302
 30
0.0
 11
449.4390510978465
 21
47.11592733787327
 31
0.0
  0
LINE
  5
17F
  8
INTERIOR_LOOPS
 62
     3
 10
449.4390510978465
 20
47.11592733787327
 30
0.0
 11
449.4388314906182
 21
47.11622643661354
 31
0.0
  0
LINE
  5
180
  8
INTERIOR_LOOPS
 62
     3
 10
449.4388314906182
 20
47.11622643661354
 30
0.0
 11
449.1452867712118
 21
47.04499518786415
 31
0.0
  0
LINE
  5
181
  8
INTERIOR_LOOPS
 62
     3
 10
449.1452867712118
 20
47.04499518786415
 30
0.0
 11
448.8546289730632
 21
46.96983161992188
 31
0.0
  0
ARC
  5
182
  8
INTERIOR_LOOPS
 62
     3
 10
450.4380252327841
 20
40.92372266109445
 30
0.0
 40
6.250006180581879
 50
104.6754312244511
 51
110.0801708760616
  0
ARC
  5
183
  8
INTERIOR_LOOPS
 62
     3
 10
449.45677214439
 20
43.52557110779913
 30
0.0
 40
3.469533178486367
 50
109.6128035584774
 51
119.0352743831134
  0
ARC
  5
184
  8
INTERIOR_LOOPS
 62
     3
 10
448.9290170951969
 20
44.44751444002773
 30
0.0
 40
2.407354347877927
 50
118.7029246884136
 51
132.0025478945577
  0
ARC
  5
185
  8
INTERIOR_LOOPS
 62
     3
 10
449.0242572840842
 20
44.38000763375632
 30
0.0
 40
2.521380922831183
 50
132.584321434296
 51
153.4246618634628
  0
LINE
  5
186
  8
INTERIOR_LOOPS
 62
     3
 10
446.7692681142176
 20
45.5080083437745
 30
0.0
 11
446.6708120868363
 21
45.29337567719525
 31
0.0
  0
ARC
  5
187
  8
INTERIOR_LOOPS
 62
     3
 10
449.5585916404242
 20
44.1151263840205
 30
0.0
 40
3.118900791462706
 50
157.8039411447812
 51
179.989218553426
  0
ARC
  5
188
  8
INTERIOR_LOOPS
 62
     3
 10
449.5649591893173
 20
44.11754548370166
 30
0.0
 40
3.125268822211069
 50
180.0335900531707
 51
202.1731040339641
  0
ARC
  5
189
  8
INTERIOR_LOOPS
 62
     3
 10
449.1561171031221
 20
43.94123502175296
 30
0.0
 40
2.680135858657951
 50
201.9812918599195
 51
221.8238893443104
  0
LINE
  5
18A
  8
INTERIOR_LOOPS
 62
     3
 10
447.1588851526368
 20
42.15400455065397
 30
0.0
 11
447.3181066764149
 21
41.99497368053917
 31
0.0
  0
ARC
  5
18B
  8
INTERIOR_LOOPS
 62
     3
 10
449.0080048951112
 20
43.89530720026279
 30
0.0
 40
2.543034304868571
 50
228.3544563329737
 51
240.9415974538488
  0
ARC
  5
18C
  8
INTERIOR_LOOPS
 62
     3
 10
449.6070621871017
 20
45.03860076811855
 30
0.0
 40
3.833509176559307
 50
241.4146104938134
 51
249.9408159008158
  0
ARC
  5
18D
  8
INTERIOR_LOOPS
 62
     3
 10
450.7610831915734
 20
48.33860025908143
 30
0.0
 40
7.32930142403976
 50
250.3148959465431
 51
254.9232242844475
  0
LINE
  5
18E
  8
INTERIOR_LOOPS
 62
     3
 10
448.8546355669028
 20
41.26158698943023
 30
0.0
 11
449.438817453488
 21
41.11515725821518
 31
0.0
  0
LINE
  5
18F
  8
INTERIOR_LOOPS
 62
     3
 10
449.438817453488
 20
41.11515725821518
 30
0.0
 11
449.4390370689259
 21
41.11545636258852
 31
0.0
  0
ARC
  5
190
  8
OUTER_LOOP
 62
     3
 10
460.8181647570904
 20
353.8328448212565
 30
0.0
 40
15.00000000000001
 50
270.0
 51
0.0
  0
LINE
  5
191
  8
OUTER_LOOP
 62
     3
 10
475.8181647570904
 20
353.8328448212565
 30
0.0
 11
475.8181647570905
 21
393.8328448212565
 31
0.0
  0
ARC
  5
192
  8
OUTER_LOOP
 62
     3
 10
460.8181647570905
 20
393.8328448212565
 30
0.0
 40
15.00000000000001
 50
0.0
 51
90.00000000000021
  0
LINE
  5
193
  8
OUTER_LOOP
 62
     3
 10
460.8181647570904
 20
408.8328448212565
 30
0.0
 11
355.8181647570904
 21
408.8328448212565
 31
0.0
  0
ARC
  5
194
  8
OUTER_LOOP
 62
     3
 10
355.8181647570904
 20
393.8328448212565
 30
0.0
 40
15.0
 50
90.0
 51
180.0
  0
LINE
  5
195
  8
OUTER_LOOP
 62
     3
 10
340.8181647570904
 20
393.8328448212565
 30
0.0
 11
340.8181647570904
 21
353.8328448212565
 31
0.0
  0
ARC
  5
196
  8
OUTER_LOOP
 62
     3
 10
355.8181647570904
 20
353.8328448212565
 30
0.0
 40
15.0
 50
180.0
 51
270.0
  0
LINE
  5
197
  8
OUTER_LOOP
 62
     3
 10
355.8181647570904
 20
338.8328448212565
 30
0.0
 11
460.8181647570904
 21
338.8328448212565
 31
0.0
  0
CIRCLE
  5
198
  8
INTERIOR_LOOPS
 62
     3
 10
400.8181647570904
 20
373.8328448212565
 30
0.0
 40
2.999999999999999
  0
CIRCLE
  5
199
  8
INTERIOR_LOOPS
 62
     3
 10
385.8181647570904
 20
388.8328448212565
 30
0.0
 40
4.0
  0
CIRCLE
  5
19A
  8
INTERIOR_LOOPS
 62
     3
 10
385.8181647570904
 20
358.8328448212565
 30
0.0
 40
4.0
  0
CIRCLE
  5
19B
  8
INTERIOR_LOOPS
 62
     3
 10
415.8181647570904
 20
388.8328448212565
 30
0.0
 40
4.0
  0
CIRCLE
  5
19C
  8
INTERIOR_LOOPS
 62
     3
 10
415.8181647570904
 20
358.8328448212565
 30
0.0
 40
4.0
  0
CIRCLE
  5
19D
  8
INTERIOR_LOOPS
 62
     3
 10
445.8181647570904
 20
388.8328448212565
 30
0.0
 40
4.0
  0
CIRCLE
  5
19E
  8
INTERIOR_LOOPS
 62
     3
 10
445.8181647570904
 20
358.8328448212565
 30
0.0
 40
4.0
  0
LINE
  5
19F
  8
INTERIOR_LOOPS
 62
     3
 10
406.8790723882904
 20
360.7328448212564
 30
0.0
 11
406.8790723882904
 21
363.9328448212565
 31
0.0
  0
LINE
  5
1A0
  8
INTERIOR_LOOPS
 62
     3
 10
406.8790723882904
 20
363.9328448212565
 30
0.0
 11
394.6790723882904
 21
363.9328448212565
 31
0.0
  0
LINE
  5
1A1
  8
INTERIOR_LOOPS
 62
     3
 10
394.6790723882904
 20
363.9328448212565
 30
0.0
 11
394.6790723882904
 21
360.7328448212564
 31
0.0
  0
LINE
  5
1A2
  8
INTERIOR_LOOPS
 62
     3
 10
394.6790723882904
 20
360.7328448212564
 30
0.0
 11
406.8790723882904
 21
360.7328448212564
 31
0.0
  0
LINE
  5
1A3
  8
INTERIOR_LOOPS
 62
     3
 10
394.6790726496904
 20
383.7328448212564
 30
0.0
 11
406.8790726496904
 21
383.7328448212564
 31
0.0
  0
LINE
  5
1A4
  8
INTERIOR_LOOPS
 62
     3
 10
406.8790726496904
 20
383.7328448212564
 30
0.0
 11
406.8790726496904
 21
386.9328448212565
 31
0.0
  0
LINE
  5
1A5
  8
INTERIOR_LOOPS
 62
     3
 10
406.8790726496904
 20
386.9328448212565
 30
0.0
 11
394.6790726496904
 21
386.9328448212565
 31
0.0
  0
LINE
  5
1A6
  8
INTERIOR_LOOPS
 62
     3
 10
394.6790726496904
 20
386.9328448212565
 30
0.0
 11
394.6790726496904
 21
383.7328448212564
 31
0.0
  0
ARC
  5
1A7
  8
INTERIOR_LOOPS
 62
     3
 10
363.7328052578977
 20
373.4697446085282
 30
0.0
 40
1.0
 50
215.3489113547035
 51
0.0002186709610601
  0
LINE
  5
1A8
  8
INTERIOR_LOOPS
 62
     3
 10
362.9171612614904
 20
372.8911904873565
 30
0.0
 11
361.7778052578904
 21
374.4974514227565
 31
0.0
  0
LINE
  5
1A9
  8
INTERIOR_LOOPS
 62
     3
 10
361.7778052578904
 20
374.4974514227565
 30
0.0
 11
361.7778052578904
 21
368.5748510273564
 31
0.0
  0
LINE
  5
1AA
  8
INTERIOR_LOOPS
 62
     3
 10
361.7778052578904
 20
368.5748510273564
 30
0.0
 11
364.6902820553904
 21
364.8328448212565
 31
0.0
  0
LINE
  5
1AB
  8
INTERIOR_LOOPS
 62
     3
 10
364.6902820553904
 20
364.8328448212565
 30
0.0
 11
369.2328052578904
 21
364.8328448212565
 31
0.0
  0
LINE
  5
1AC
  8
INTERIOR_LOOPS
 62
     3
 10
369.2328052578904
 20
364.8328448212565
 30
0.0
 11
369.2328052578904
 21
382.8328448212565
 31
0.0
  0
LINE
  5
1AD
  8
INTERIOR_LOOPS
 62
     3
 10
369.2328052578904
 20
382.8328448212565
 30
0.0
 11
364.7328052578904
 21
382.8328448212565
 31
0.0
  0
LINE
  5
1AE
  8
INTERIOR_LOOPS
 62
     3
 10
364.7328052578904
 20
382.8328448212565
 30
0.0
 11
364.7328052578904
 21
373.4697484250565
 31
0.0
  0
ARC
  5
1AF
  8
INTERIOR_LOOPS
 62
     3
 10
356.8653284602904
 20
373.2583800831167
 30
0.0
 40
1.000000000000008
 50
37.89432168257767
 51
179.9999999977202
  0
LINE
  5
1B0
  8
INTERIOR_LOOPS
 62
     3
 10
357.6544734201904
 20
373.8725870777565
 30
0.0
 11
358.7778052578904
 21
372.4293087273564
 31
0.0
  0
LINE
  5
1B1
  8
INTERIOR_LOOPS
 62
     3
 10
358.7778052578904
 20
372.4293087273564
 30
0.0
 11
358.7778052578904
 21
378.7268431060564
 31
0.0
  0
LINE
  5
1B2
  8
INTERIOR_LOOPS
 62
     3
 10
358.7778052578904
 20
378.7268431060564
 30
0.0
 11
355.8653284602904
 21
382.8328448212565
 31
0.0
  0
LINE
  5
1B3
  8
INTERIOR_LOOPS
 62
     3
 10
355.8653284602904
 20
382.8328448212565
 30
0.0
 11
351.3653284602904
 21
382.8328448212565
 31
0.0
  0
LINE
  5
1B4
  8
INTERIOR_LOOPS
 62
     3
 10
351.3653284602904
 20
382.8328448212565
 30
0.0
 11
351.3653284602904
 21
364.8328448212565
 31
0.0
  0
LINE
  5
1B5
  8
INTERIOR_LOOPS
 62
     3
 10
351.3653284602904
 20
364.8328448212565
 30
0.0
 11
355.8653284602904
 21
364.8328448212565
 31
0.0
  0
LINE
  5
1B6
  8
INTERIOR_LOOPS
 62
     3
 10
355.8653284602904
 20
364.8328448212565
 30
0.0
 11
355.8653284602904
 21
373.2583800831565
 31
0.0
  0
ARC
  5
1B7
  8
OUTER_LOOP
 62
     3
 10
340.0234405461462
 20
458.8328448212565
 30
0.0
 40
15.0
 50
90.0
 51
180.0
  0
LINE
  5
1B8
  8
OUTER_LOOP
 62
     3
 10
325.0234405461462
 20
458.8328448212565
 30
0.0
 11
325.0234405461462
 21
428.8328448212565
 31
0.0
  0
ARC
  5
1B9
  8
OUTER_LOOP
 62
     3
 10
340.0234405461462
 20
428.8328448212565
 30
0.0
 40
15.00000000000001
 50
180.0
 51
270.0
  0
LINE
  5
1BA
  8
OUTER_LOOP
 62
     3
 10
340.0234405461462
 20
413.8328448212565
 30
0.0
 11
460.0234405461462
 21
413.8328448212565
 31
0.0
  0
ARC
  5
1BB
  8
OUTER_LOOP
 62
     3
 10
460.0234405461462
 20
428.8328448212565
 30
0.0
 40
15.0
 50
270.0
 51
0.0
  0
LINE
  5
1BC
  8
OUTER_LOOP
 62
     3
 10
475.0234405461462
 20
428.8328448212565
 30
0.0
 11
475.0234405461462
 21
458.8328448212565
 31
0.0
  0
ARC
  5
1BD
  8
OUTER_LOOP
 62
     3
 10
460.0234405461462
 20
458.8328448212565
 30
0.0
 40
15.0
 50
0.0
 51
90.0
  0
LINE
  5
1BE
  8
OUTER_LOOP
 62
     3
 10
460.0234405461462
 20
473.8328448212565
 30
0.0
 11
340.0234405461462
 21
473.8328448212565
 31
0.0
  0
CIRCLE
  5
1BF
  8
INTERIOR_LOOPS
 62
     3
 10
415.0234405461462
 20
443.8328448212565
 30
0.0
 40
2.999999999999999
  0
CIRCLE
  5
1C0
  8
INTERIOR_LOOPS
 62
     3
 10
430.0234405461462
 20
428.8328448212565
 30
0.0
 40
4.0
  0
CIRCLE
  5
1C1
  8
INTERIOR_LOOPS
 62
     3
 10
430.0234405461462
 20
458.8328448212565
 30
0.0
 40
4.0
  0
CIRCLE
  5
1C2
  8
INTERIOR_LOOPS
 62
     3
 10
400.0234405461462
 20
428.8328448212565
 30
0.0
 40
4.0
  0
CIRCLE
  5
1C3
  8
INTERIOR_LOOPS
 62
     3
 10
400.0234405461462
 20
458.8328448212565
 30
0.0
 40
4.0
  0
CIRCLE
  5
1C4
  8
INTERIOR_LOOPS
 62
     3
 10
370.0234405461462
 20
428.8328448212565
 30
0.0
 40
4.0
  0
CIRCLE
  5
1C5
  8
INTERIOR_LOOPS
 62
     3
 10
370.0234405461462
 20
458.8328448212565
 30
0.0
 40
4.0
  0
LINE
  5
1C6
  8
INTERIOR_LOOPS
 62
     3
 10
408.9625326535462
 20
456.9328448212565
 30
0.0
 11
408.9625326535462
 21
453.7328448212564
 31
0.0
  0
LINE
  5
1C7
  8
INTERIOR_LOOPS
 62
     3
 10
408.9625326535462
 20
453.7328448212564
 30
0.0
 11
421.1625326535462
 21
453.7328448212564
 31
0.0
  0
LINE
  5
1C8
  8
INTERIOR_LOOPS
 62
     3
 10
421.1625326535462
 20
453.7328448212564
 30
0.0
 11
421.1625326535462
 21
456.9328448212565
 31
0.0
  0
LINE
  5
1C9
  8
INTERIOR_LOOPS
 62
     3
 10
421.1625326535462
 20
456.9328448212565
 30
0.0
 11
408.9625326535462
 21
456.9328448212565
 31
0.0
  0
LINE
  5
1CA
  8
INTERIOR_LOOPS
 62
     3
 10
421.1625323922462
 20
433.9328448212564
 30
0.0
 11
408.9625323922462
 21
433.9328448212564
 31
0.0
  0
LINE
  5
1CB
  8
INTERIOR_LOOPS
 62
     3
 10
408.9625323922462
 20
433.9328448212564
 30
0.0
 11
408.9625323922462
 21
430.7328448212564
 31
0.0
  0
LINE
  5
1CC
  8
INTERIOR_LOOPS
 62
     3
 10
408.9625323922462
 20
430.7328448212564
 30
0.0
 11
421.1625323922462
 21
430.7328448212564
 31
0.0
  0
LINE
  5
1CD
  8
INTERIOR_LOOPS
 62
     3
 10
421.1625323922462
 20
430.7328448212564
 30
0.0
 11
421.1625323922462
 21
433.9328448212564
 31
0.0
  0
ARC
  5
1CE
  8
INTERIOR_LOOPS
 62
     3
 10
452.108800045339
 20
444.1959450339847
 30
0.0
 40
0.9999999999999961
 50
35.34891135470357
 51
180.0002186709611
  0
LINE
  5
1CF
  8
INTERIOR_LOOPS
 62
     3
 10
452.9244440417462
 20
444.7744991551564
 30
0.0
 11
454.0638000453462
 21
443.1682382197565
 31
0.0
  0
LINE
  5
1D0
  8
INTERIOR_LOOPS
 62
     3
 10
454.0638000453462
 20
443.1682382197565
 30
0.0
 11
454.0638000453462
 21
449.0908386151564
 31
0.0
  0
LINE
  5
1D1
  8
INTERIOR_LOOPS
 62
     3
 10
454.0638000453462
 20
449.0908386151564
 30
0.0
 11
451.1513232478462
 21
452.8328448212565
 31
0.0
  0
LINE
  5
1D2
  8
INTERIOR_LOOPS
 62
     3
 10
451.1513232478462
 20
452.8328448212565
 30
0.0
 11
446.6088000453462
 21
452.8328448212565
 31
0.0
  0
LINE
  5
1D3
  8
INTERIOR_LOOPS
 62
     3
 10
446.6088000453462
 20
452.8328448212565
 30
0.0
 11
446.6088000453462
 21
434.8328448212565
 31
0.0
  0
LINE
  5
1D4
  8
INTERIOR_LOOPS
 62
     3
 10
446.6088000453462
 20
434.8328448212565
 30
0.0
 11
451.1088000453462
 21
434.8328448212565
 31
0.0
  0
LINE
  5
1D5
  8
INTERIOR_LOOPS
 62
     3
 10
451.1088000453462
 20
434.8328448212565
 30
0.0
 11
451.1088000453462
 21
444.1959412174564
 31
0.0
  0
ARC
  5
1D6
  8
INTERIOR_LOOPS
 62
     3
 10
458.9762768429462
 20
444.4073095593963
 30
0.0
 40
1.000000000000008
 50
217.8943216825777
 51
359.9999999977202
  0
LINE
  5
1D7
  8
INTERIOR_LOOPS
 62
     3
 10
458.1871318830462
 20
443.7931025647565
 30
0.0
 11
457.0638000453462
 21
445.2363809151565
 31
0.0
  0
LINE
  5
1D8
  8
INTERIOR_LOOPS
 62
     3
 10
457.0638000453462
 20
445.2363809151565
 30
0.0
 11
457.0638000453462
 21
438.9388465364564
 31
0.0
  0
LINE
  5
1D9
  8
INTERIOR_LOOPS
 62
     3
 10
457.0638000453462
 20
438.9388465364564
 30
0.0
 11
459.9762768429462
 21
434.8328448212565
 31
0.0
  0
LINE
  5
1DA
  8
INTERIOR_LOOPS
 62
     3
 10
459.9762768429462
 20
434.8328448212565
 30
0.0
 11
464.4762768429462
 21
434.8328448212565
 31
0.0
  0
LINE
  5
1DB
  8
INTERIOR_LOOPS
 62
     3
 10
464.4762768429462
 20
434.8328448212565
 30
0.0
 11
464.4762768429462
 21
452.8328448212565
 31
0.0
  0
LINE
  5
1DC
  8
INTERIOR_LOOPS
 62
     3
 10
464.4762768429462
 20
452.8328448212565
 30
0.0
 11
459.9762768429462
 21
452.8328448212565
 31
0.0
  0
LINE
  5
1DD
  8
INTERIOR_LOOPS
 62
     3
 10
459.9762768429462
 20
452.8328448212565
 30
0.0
 11
459.9762768429462
 21
444.4073095593565
 31
0.0
  0
LINE
  5
1DE
  8
OUTER_LOOP
 62
     3
 10
435.4829914839476
 20
99.80374826412738
 30
0.0
 11
435.4829914839476
 21
115.9037482641274
 31
0.0
  0
ARC
  5
1DF
  8
OUTER_LOOP
 62
     3
 10
430.4829914839476
 20
115.9037482641274
 30
0.0
 40
5.000000000000004
 50
0.0
 51
90.0
  0
LINE
  5
1E0
  8
OUTER_LOOP
 62
     3
 10
430.4829914839476
 20
120.9037482641274
 30
0.0
 11
357.3786270715476
 21
120.9037482641274
 31
0.0
  0
LINE
  5
1E1
  8
OUTER_LOOP
 62
     3
 10
357.3786270715476
 20
120.9037482641274
 30
0.0
 11
342.7524887088476
 21
118.9037482641274
 31
0.0
  0
ARC
  5
1E2
  8
OUTER_LOOP
 62
     3
 10
342.7524887094792
 20
107.9037482641274
 30
0.0
 40
11.0
 50
90.00000000328977
 51
274.5595117430665
  0
LINE
  5
1E3
  8
OUTER_LOOP
 62
     3
 10
343.6269285085476
 20
96.93855993752737
 30
0.0
 11
377.3325147347675
 21
99.62647602164668
 31
0.0
  0
ARC
  5
1E4
  8
OUTER_LOOP
 62
     3
 10
379.1364515298659
 20
86.60175059131606
 30
0.0
 40
13.14905549825579
 50
16.87536851636064
 51
97.88535472444057
  0
ARC
  5
1E5
  8
OUTER_LOOP
 62
     3
 10
396.50398090585
 20
91.87025501411948
 30
0.0
 40
4.999999999999998
 50
196.8753685166054
 51
288.2252333302328
  0
LINE
  5
1E6
  8
OUTER_LOOP
 62
     3
 10
398.0677472076476
 20
87.12108298592739
 30
0.0
 11
421.4000693079476
 21
94.80374826412738
 31
0.0
  0
LINE
  5
1E7
  8
OUTER_LOOP
 62
     3
 10
421.4000693079476
 20
94.80374826412738
 30
0.0
 11
430.4829914839476
 21
94.80374826412738
 31
0.0
  0
ARC
  5
1E8
  8
OUTER_LOOP
 62
     3
 10
430.4829914839476
 20
99.80374826412738
 30
0.0
 40
4.999999999999997
 50
270.0
 51
0.0
  0
CIRCLE
  5
1E9
  8
INTERIOR_LOOPS
 62
     3
 10
396.5039809058476
 20
91.87025501412738
 30
0.0
 40
3.000000000000003
  0
CIRCLE
  5
1EA
  8
INTERIOR_LOOPS
 62
     3
 10
342.7524887088476
 20
107.9037482641274
 30
0.0
 40
3.000000000000003
  0
LINE
  5
1EB
  8
INTERIOR_LOOPS
 62
     3
 10
427.2829914839476
 20
116.0037482641274
 30
0.0
 11
427.2829914839476
 21
99.80374826412738
 31
0.0
  0
LINE
  5
1EC
  8
INTERIOR_LOOPS
 62
     3
 10
427.2829914839476
 20
99.80374826412738
 30
0.0
 11
430.4829914839476
 21
99.80374826412738
 31
0.0
  0
LINE
  5
1ED
  8
INTERIOR_LOOPS
 62
     3
 10
430.4829914839476
 20
99.80374826412738
 30
0.0
 11
430.4829914839476
 21
116.0037482641274
 31
0.0
  0
LINE
  5
1EE
  8
INTERIOR_LOOPS
 62
     3
 10
430.4829914839476
 20
116.0037482641274
 30
0.0
 11
427.2829914839476
 21
116.0037482641274
 31
0.0
  0
ARC
  5
1EF
  8
OUTER_LOOP
 62
     3
 10
377.8240319699493
 20
290.8314696643426
 30
0.0
 40
7.999999999999991
 50
80.24381410151315
 51
242.920442383413
  0
LINE
  5
1F0
  8
OUTER_LOOP
 62
     3
 10
374.1822138741025
 20
283.7084674211335
 30
0.0
 11
358.4530773030025
 21
252.9439777826335
 31
0.0
  0
LINE
  5
1F1
  8
OUTER_LOOP
 62
     3
 10
358.4530773030025
 20
252.9439777826335
 30
0.0
 11
359.8063235618675
 21
239.6445923510012
 31
0.0
  0
ARC
  5
1F2
  8
OUTER_LOOP
 62
     3
 10
364.7806388879964
 20
240.1507415742934
 30
0.0
 40
5.0
 50
185.8099947922897
 51
242.920442382259
  0
LINE
  5
1F3
  8
OUTER_LOOP
 62
     3
 10
362.5045025780025
 20
235.6988651723335
 30
0.0
 11
369.2457411484521
 21
232.2522335726946
 31
0.0
  0
ARC
  5
1F4
  8
OUTER_LOOP
 62
     3
 10
373.7980137683988
 20
241.1559863766354
 30
0.0
 40
9.99999999999999
 50
242.9204423825233
 51
332.3474750380711
  0
LINE
  5
1F5
  8
OUTER_LOOP
 62
     3
 10
382.6557986474025
 20
236.5149038480335
 30
0.0
 11
379.9851180050025
 21
237.8803580146335
 31
0.0
  0
LINE
  5
1F6
  8
OUTER_LOOP
 62
     3
 10
379.9851180050025
 20
237.8803580146335
 30
0.0
 11
389.1807086973025
 21
255.8659386786335
 31
0.0
  0
LINE
  5
1F7
  8
OUTER_LOOP
 62
     3
 10
389.1807086973025
 20
255.8659386786335
 30
0.0
 11
392.2842003487025
 21
254.2791987519335
 31
0.0
  0
LINE
  5
1F8
  8
OUTER_LOOP
 62
     3
 10
392.2842003487025
 20
254.2791987519335
 30
0.0
 11
397.5246936405025
 21
252.8314696643335
 31
0.0
  0
LINE
  5
1F9
  8
OUTER_LOOP
 62
     3
 10
397.5246936405025
 20
252.8314696643335
 30
0.0
 11
415.9145875220025
 21
252.8314696643335
 31
0.0
  0
ARC
  5
1FA
  8
OUTER_LOOP
 62
     3
 10
423.7949309456906
 20
254.2099425602354
 30
0.0
 40
8.000000000000037
 50
189.9221029280729
 51
81.09029430241343
  0
LINE
  5
1FB
  8
OUTER_LOOP
 62
     3
 10
425.0339528729137
 20
262.113411713959
 30
0.0
 11
425.0339528729025
 21
284.1248425759335
 31
0.0
  0
ARC
  5
1FC
  8
OUTER_LOOP
 62
     3
 10
423.7949309458662
 20
289.9955175511236
 30
0.0
 40
5.999999999999988
 50
281.9175357303141
 51
86.5250562506663
  0
LINE
  5
1FD
  8
OUTER_LOOP
 62
     3
 10
424.1586031577728
 20
295.9844859533016
 30
0.0
 11
379.1796792317709
 21
298.7157718212565
 31
0.0
  0
CIRCLE
  5
1FE
  8
INTERIOR_LOOPS
 62
     3
 10
364.9086190216025
 20
240.5346061334335
 30
0.0
 40
3.000000000000003
  0
CIRCLE
  5
1FF
  8
INTERIOR_LOOPS
 62
     3
 10
377.8240319700025
 20
290.8314696643335
 30
0.0
 40
3.0
  0
CIRCLE
  5
200
  8
INTERIOR_LOOPS
 62
     3
 10
423.7949309457025
 20
254.2099425602335
 30
0.0
 40
3.0
  0
CIRCLE
  5
201
  8
INTERIOR_LOOPS
 62
     3
 10
423.7949309457025
 20
289.9955175511335
 30
0.0
 40
2.999999999999999
  0
LINE
  5
202
  8
INTERIOR_LOOPS
 62
     3
 10
386.8105476013025
 20
282.7314696643335
 30
0.0
 11
407.0105476013025
 21
282.7314696643335
 31
0.0
  0
LINE
  5
203
  8
INTERIOR_LOOPS
 62
     3
 10
407.0105476013025
 20
282.7314696643335
 30
0.0
 11
407.0105476013025
 21
285.9314696643335
 31
0.0
  0
LINE
  5
204
  8
INTERIOR_LOOPS
 62
     3
 10
407.0105476013025
 20
285.9314696643335
 30
0.0
 11
386.8105476013025
 21
285.9314696643335
 31
0.0
  0
LINE
  5
205
  8
INTERIOR_LOOPS
 62
     3
 10
386.8105476013025
 20
285.9314696643335
 30
0.0
 11
386.8105476013025
 21
282.7314696643335
 31
0.0
  0
LINE
  5
206
  8
INTERIOR_LOOPS
 62
     3
 10
400.0044656800025
 20
257.7314696643335
 30
0.0
 11
415.2044656800025
 21
257.7314696643335
 31
0.0
  0
LINE
  5
207
  8
INTERIOR_LOOPS
 62
     3
 10
415.2044656800025
 20
257.7314696643335
 30
0.0
 11
415.2044656800025
 21
260.9314696643335
 31
0.0
  0
LINE
  5
208
  8
INTERIOR_LOOPS
 62
     3
 10
415.2044656800025
 20
260.9314696643335
 30
0.0
 11
400.0044656800025
 21
260.9314696643335
 31
0.0
  0
LINE
  5
209
  8
INTERIOR_LOOPS
 62
     3
 10
400.0044656800025
 20
260.9314696643335
 30
0.0
 11
400.0044656800025
 21
257.7314696643335
 31
0.0
  0
LINE
  5
20A
  8
OUTER_LOOP
 62
     3
 10
385.5163860006788
 20
209.7721448212564
 30
0.0
 11
411.8724509384788
 21
209.7721448212564
 31
0.0
  0
LINE
  5
20B
  8
OUTER_LOOP
 62
     3
 10
411.8724509384788
 20
209.7721448212564
 30
0.0
 11
412.8774156412788
 21
214.3206461181564
 31
0.0
  0
LINE
  5
20C
  8
OUTER_LOOP
 62
     3
 10
412.8774156412788
 20
214.3206461181564
 30
0.0
 11
408.8425797121788
 21
232.5824382045564
 31
0.0
  0
ARC
  5
20D
  8
OUTER_LOOP
 62
     3
 10
398.6944184695867
 20
236.8268254859376
 30
0.0
 40
11.0
 50
337.3032700707778
 51
202.696729929394
  0
LINE
  5
20E
  8
OUTER_LOOP
 62
     3
 10
388.5462572270072
 20
232.582438204526
 30
0.0
 11
384.5114212978788
 21
214.3206461181564
 31
0.0
  0
LINE
  5
20F
  8
OUTER_LOOP
 62
     3
 10
384.5114212978788
 20
214.3206461181564
 30
0.0
 11
385.5163860006788
 21
209.7721448212564
 31
0.0
  0
CIRCLE
  5
210
  8
INTERIOR_LOOPS
 62
     3
 10
398.6944184695788
 20
236.8268254859564
 30
0.0
 40
3.000000000000003
  0
LINE
  5
211
  8
INTERIOR_LOOPS
 62
     3
 10
406.7944184695788
 20
214.2206461181564
 30
0.0
 11
406.7944184695788
 21
217.4206461181564
 31
0.0
  0
LINE
  5
212
  8
INTERIOR_LOOPS
 62
     3
 10
406.7944184695788
 20
217.4206461181564
 30
0.0
 11
390.5944184695788
 21
217.4206461181564
 31
0.0
  0
LINE
  5
213
  8
INTERIOR_LOOPS
 62
     3
 10
390.5944184695788
 20
217.4206461181564
 30
0.0
 11
390.5944184695788
 21
214.2206461181564
 31
0.0
  0
LINE
  5
214
  8
INTERIOR_LOOPS
 62
     3
 10
390.5944184695788
 20
214.2206461181564
 30
0.0
 11
406.7944184695788
 21
214.2206461181564
 31
0.0
  0
ARC
  5
215
  8
OUTER_LOOP
 62
     3
 10
351.9642964998245
 20
302.7877695019191
 30
0.0
 40
5.172522268906536
 50
11.65649208083628
 51
168.3435079191639
  0
LINE
  5
216
  8
OUTER_LOOP
 62
     3
 10
357.0301433391245
 20
303.8328448212565
 30
0.0
 11
361.9339569555056
 21
303.8328448213022
 31
0.0
  0
ARC
  5
217
  8
OUTER_LOOP
 62
     3
 10
366.9998037948103
 20
302.7877695019878
 30
0.0
 40
5.172522268906532
 50
11.65649208005831
 51
168.3435079194242
  0
LINE
  5
218
  8
OUTER_LOOP
 62
     3
 10
372.0656506341245
 20
303.8328448212565
 30
0.0
 11
379.4820501473245
 21
303.8328448212565
 31
0.0
  0
LINE
  5
219
  8
OUTER_LOOP
 62
     3
 10
379.4820501473245
 20
303.8328448212565
 30
0.0
 11
379.4820501473245
 21
308.8328448212565
 31
0.0
  0
LINE
  5
21A
  8
OUTER_LOOP
 62
     3
 10
379.4820501473245
 20
308.8328448212565
 30
0.0
 11
382.4820501473245
 21
308.8328448212565
 31
0.0
  0
LINE
  5
21B
  8
OUTER_LOOP
 62
     3
 10
382.4820501473245
 20
308.8328448212565
 30
0.0
 11
382.4820501473245
 21
328.8328448212565
 31
0.0
  0
LINE
  5
21C
  8
OUTER_LOOP
 62
     3
 10
382.4820501473245
 20
328.8328448212565
 30
0.0
 11
379.4820501473245
 21
328.8328448212565
 31
0.0
  0
LINE
  5
21D
  8
OUTER_LOOP
 62
     3
 10
379.4820501473245
 20
328.8328448212565
 30
0.0
 11
379.4820501473245
 21
333.8328448212565
 31
0.0
  0
LINE
  5
21E
  8
OUTER_LOOP
 62
     3
 10
379.4820501473245
 20
333.8328448212565
 30
0.0
 11
339.4820501473245
 21
333.8328448212565
 31
0.0
  0
LINE
  5
21F
  8
OUTER_LOOP
 62
     3
 10
339.4820501473245
 20
333.8328448212565
 30
0.0
 11
339.4820501473245
 21
328.8328448212565
 31
0.0
  0
LINE
  5
220
  8
OUTER_LOOP
 62
     3
 10
339.4820501473245
 20
328.8328448212565
 30
0.0
 11
336.4820501473245
 21
328.8328448212565
 31
0.0
  0
LINE
  5
221
  8
OUTER_LOOP
 62
     3
 10
336.4820501473245
 20
328.8328448212565
 30
0.0
 11
336.4820501473245
 21
308.8328448212565
 31
0.0
  0
LINE
  5
222
  8
OUTER_LOOP
 62
     3
 10
336.4820501473245
 20
308.8328448212565
 30
0.0
 11
339.4820501473245
 21
308.8328448212565
 31
0.0
  0
LINE
  5
223
  8
OUTER_LOOP
 62
     3
 10
339.4820501473245
 20
308.8328448212565
 30
0.0
 11
339.4820501473245
 21
303.8328448212565
 31
0.0
  0
LINE
  5
224
  8
OUTER_LOOP
 62
     3
 10
339.4820501473245
 20
303.8328448212565
 30
0.0
 11
346.8984496605245
 21
303.8328448212565
 31
0.0
  0
CIRCLE
  5
225
  8
INTERIOR_LOOPS
 62
     3
 10
359.4820501473245
 20
318.8328448212565
 30
0.0
 40
7.0
  0
LINE
  5
226
  8
OUTER_LOOP
 62
     3
 10
356.4345775301238
 20
288.0656218714806
 30
0.0
 11
356.4345775301238
 21
291.0656218714806
 31
0.0
  0
LINE
  5
227
  8
OUTER_LOOP
 62
     3
 10
356.4345775301238
 20
291.0656218714806
 30
0.0
 11
348.4345775301238
 21
291.0656218714806
 31
0.0
  0
LINE
  5
228
  8
OUTER_LOOP
 62
     3
 10
348.4345775301238
 20
291.0656218714806
 30
0.0
 11
348.4345775301238
 21
288.0656218714806
 31
0.0
  0
LINE
  5
229
  8
OUTER_LOOP
 62
     3
 10
348.4345775301238
 20
288.0656218714806
 30
0.0
 11
345.4345775301238
 21
288.0656218714806
 31
0.0
  0
LINE
  5
22A
  8
OUTER_LOOP
 62
     3
 10
345.4345775301238
 20
288.0656218714806
 30
0.0
 11
345.4345775301238
 21
268.0656218714806
 31
0.0
  0
LINE
  5
22B
  8
OUTER_LOOP
 62
     3
 10
345.4345775301238
 20
268.0656218714806
 30
0.0
 11
348.4345775301238
 21
268.0656218714806
 31
0.0
  0
LINE
  5
22C
  8
OUTER_LOOP
 62
     3
 10
348.4345775301238
 20
268.0656218714806
 30
0.0
 11
348.4345775301238
 21
265.0656218714806
 31
0.0
  0
LINE
  5
22D
  8
OUTER_LOOP
 62
     3
 10
348.4345775301238
 20
265.0656218714806
 30
0.0
 11
356.4345775301238
 21
265.0656218714806
 31
0.0
  0
LINE
  5
22E
  8
OUTER_LOOP
 62
     3
 10
356.4345775301238
 20
265.0656218714806
 30
0.0
 11
356.4345775301238
 21
268.0656218714806
 31
0.0
  0
LINE
  5
22F
  8
OUTER_LOOP
 62
     3
 10
356.4345775301238
 20
268.0656218714806
 30
0.0
 11
359.4345775301238
 21
268.0656218714806
 31
0.0
  0
LINE
  5
230
  8
OUTER_LOOP
 62
     3
 10
359.4345775301238
 20
268.0656218714806
 30
0.0
 11
359.4345775301238
 21
288.0656218714806
 31
0.0
  0
LINE
  5
231
  8
OUTER_LOOP
 62
     3
 10
359.4345775301238
 20
288.0656218714806
 30
0.0
 11
356.4345775301238
 21
288.0656218714806
 31
0.0
  0
CIRCLE
  5
232
  8
INTERIOR_LOOPS
 62
     3
 10
352.4345775301238
 20
278.0656218714806
 30
0.0
 40
3.000000000000003
  0
ARC
  5
233
  8
OUTER_LOOP
 62
     3
 10
340.9293499850926
 20
218.4218407433803
 30
0.0
 40
12.5
 50
162.3581998776003
 51
359.9999999999998
  0
LINE
  5
234
  8
OUTER_LOOP
 62
     3
 10
353.4293499850926
 20
218.4218407433802
 30
0.0
 11
353.4293499850926
 21
256.0656215938802
 31
0.0
  0
ARC
  5
235
  8
OUTER_LOOP
 62
     3
 10
349.4293499850926
 20
256.0656215938802
 30
0.0
 40
4.0
 50
0.0
 51
90.0
  0
LINE
  5
236
  8
OUTER_LOOP
 62
     3
 10
349.4293499850926
 20
260.0656215938802
 30
0.0
 11
342.0226126464926
 21
260.0656215938802
 31
0.0
  0
LINE
  5
237
  8
OUTER_LOOP
 62
     3
 10
342.0226126464926
 20
260.0656215938802
 30
0.0
 11
329.0136646357286
 21
319.3046042666581
 31
0.0
  0
ARC
  5
238
  8
OUTER_LOOP
 62
     3
 10
319.2464031692927
 20
317.1597025331803
 30
0.0
 40
10.00000000000001
 50
12.38561862349979
 51
221.2993685518998
  0
LINE
  5
239
  8
OUTER_LOOP
 62
     3
 10
311.7336890969305
 20
310.5597686496529
 30
0.0
 11
310.1375444020927
 21
300.3547441791802
 31
0.0
  0
LINE
  5
23A
  8
OUTER_LOOP
 62
     3
 10
310.1375444020927
 20
300.3547441791802
 30
0.0
 11
293.6322304498926
 21
290.0428471335803
 31
0.0
  0
ARC
  5
23B
  8
OUTER_LOOP
 62
     3
 10
297.7118871234748
 20
280.9128744377998
 30
0.0
 40
10.00000000000001
 50
114.0771051151715
 51
276.1324966123505
  0
LINE
  5
23C
  8
OUTER_LOOP
 62
     3
 10
298.7801672807841
 20
270.9700992967489
 30
0.0
 11
311.0668626464926
 21
272.2902169372803
 31
0.0
  0
LINE
  5
23D
  8
OUTER_LOOP
 62
     3
 10
311.0668626464926
 20
272.2902169372803
 30
0.0
 11
319.4680149578926
 21
245.3052943335802
 31
0.0
  0
LINE
  5
23E
  8
OUTER_LOOP
 62
     3
 10
319.4680149578926
 20
245.3052943335802
 30
0.0
 11
329.0172272317708
 21
222.2101558714805
 31
0.0
  0
CIRCLE
  5
23F
  8
INTERIOR_LOOPS
 62
     3
 10
340.9293499850926
 20
218.4218407433802
 30
0.0
 40
3.000000000000003
  0
CIRCLE
  5
240
  8
INTERIOR_LOOPS
 62
     3
 10
319.2464031692926
 20
317.1597025331802
 30
0.0
 40
3.000000000000003
  0
CIRCLE
  5
241
  8
INTERIOR_LOOPS
 62
     3
 10
297.7118871232926
 20
280.9128744377803
 30
0.0
 40
3.000000000000003
  0
LINE
  5
242
  8
INTERIOR_LOOPS
 62
     3
 10
318.1856640540926
 20
305.0371051338802
 30
0.0
 11
321.1890500382926
 21
306.1414930322802
 31
0.0
  0
LINE
  5
243
  8
INTERIOR_LOOPS
 62
     3
 10
321.1890500382926
 20
306.1414930322802
 30
0.0
 11
319.0492984850926
 21
311.9605533765803
 31
0.0
  0
LINE
  5
244
  8
INTERIOR_LOOPS
 62
     3
 10
319.0492984850926
 20
311.9605533765803
 30
0.0
 11
316.0459125008927
 21
310.8561654781802
 31
0.0
  0
LINE
  5
245
  8
INTERIOR_LOOPS
 62
     3
 10
316.0459125008927
 20
310.8561654781802
 30
0.0
 11
318.1856640540926
 21
305.0371051338802
 31
0.0
  0
LINE
  5
246
  8
INTERIOR_LOOPS
 62
     3
 10
323.6192570652926
 20
290.2604337156803
 30
0.0
 11
325.7590086184927
 21
284.4413733713802
 31
0.0
  0
LINE
  5
247
  8
INTERIOR_LOOPS
 62
     3
 10
325.7590086184927
 20
284.4413733713802
 30
0.0
 11
328.7623946025926
 21
285.5457612697803
 31
0.0
  0
LINE
  5
248
  8
INTERIOR_LOOPS
 62
     3
 10
328.7623946025926
 20
285.5457612697803
 30
0.0
 11
326.6226430493927
 21
291.3648216140803
 31
0.0
  0
LINE
  5
249
  8
INTERIOR_LOOPS
 62
     3
 10
326.6226430493927
 20
291.3648216140803
 30
0.0
 11
323.6192570652926
 21
290.2604337156803
 31
0.0
  0
LINE
  5
24A
  8
INTERIOR_LOOPS
 62
     3
 10
345.9634918537926
 20
237.4651851291802
 30
0.0
 11
342.8656522374926
 21
238.2673009010802
 31
0.0
  0
LINE
  5
24B
  8
INTERIOR_LOOPS
 62
     3
 10
342.8656522374926
 20
238.2673009010802
 30
0.0
 11
341.3115529293926
 21
232.2652366444802
 31
0.0
  0
LINE
  5
24C
  8
INTERIOR_LOOPS
 62
     3
 10
341.3115529293926
 20
232.2652366444802
 30
0.0
 11
344.4093925456926
 21
231.4631208724802
 31
0.0
  0
LINE
  5
24D
  8
INTERIOR_LOOPS
 62
     3
 10
344.4093925456926
 20
231.4631208724802
 30
0.0
 11
345.9634918537926
 21
237.4651851291802
 31
0.0
  0
LINE
  5
24E
  8
INTERIOR_LOOPS
 62
     3
 10
320.7497086278926
 20
262.6316888398802
 30
0.0
 11
323.6973256756926
 21
263.8773026401802
 31
0.0
  0
LINE
  5
24F
  8
INTERIOR_LOOPS
 62
     3
 10
323.6973256756926
 20
263.8773026401802
 30
0.0
 11
319.7269316873926
 21
273.2728319800802
 31
0.0
  0
LINE
  5
250
  8
INTERIOR_LOOPS
 62
     3
 10
319.7269316873926
 20
273.2728319800802
 30
0.0
 11
316.7793146395926
 21
272.0272181798803
 31
0.0
  0
LINE
  5
251
  8
INTERIOR_LOOPS
 62
     3
 10
316.7793146395926
 20
272.0272181798803
 30
0.0
 11
320.7497086278926
 21
262.6316888398802
 31
0.0
  0
LINE
  5
252
  8
OUTER_LOOP
 62
     3
 10
348.7447433862146
 20
38.84910410512953
 30
0.0
 11
348.7447433862146
 21
65.20516904292953
 31
0.0
  0
LINE
  5
253
  8
OUTER_LOOP
 62
     3
 10
348.7447433862146
 20
65.20516904292953
 30
0.0
 11
344.1962420893146
 21
66.21013374572954
 31
0.0
  0
LINE
  5
254
  8
OUTER_LOOP
 62
     3
 10
344.1962420893146
 20
66.21013374572954
 30
0.0
 11
325.9344500029146
 21
62.17529781662954
 31
0.0
  0
ARC
  5
255
  8
OUTER_LOOP
 62
     3
 10
321.6900627215334
 20
52.02713657403739
 30
0.0
 40
11.0
 50
67.30327007077787
 51
292.6967299293938
  0
LINE
  5
256
  8
OUTER_LOOP
 62
     3
 10
325.934450002945
 20
41.87897533145797
 30
0.0
 11
344.1962420893146
 21
37.84413940232953
 31
0.0
  0
LINE
  5
257
  8
OUTER_LOOP
 62
     3
 10
344.1962420893146
 20
37.84413940232953
 30
0.0
 11
348.7447433862146
 21
38.84910410512953
 31
0.0
  0
CIRCLE
  5
258
  8
INTERIOR_LOOPS
 62
     3
 10
321.6900627215146
 20
52.02713657402954
 30
0.0
 40
3.000000000000003
  0
LINE
  5
259
  8
INTERIOR_LOOPS
 62
     3
 10
344.2962420893145
 20
60.12713657402954
 30
0.0
 11
341.0962420893146
 21
60.12713657402954
 31
0.0
  0
LINE
  5
25A
  8
INTERIOR_LOOPS
 62
     3
 10
341.0962420893146
 20
60.12713657402954
 30
0.0
 11
341.0962420893146
 21
43.92713657402953
 31
0.0
  0
LINE
  5
25B
  8
INTERIOR_LOOPS
 62
     3
 10
341.0962420893146
 20
43.92713657402953
 30
0.0
 11
344.2962420893145
 21
43.92713657402953
 31
0.0
  0
LINE
  5
25C
  8
INTERIOR_LOOPS
 62
     3
 10
344.2962420893145
 20
43.92713657402953
 30
0.0
 11
344.2962420893145
 21
60.12713657402954
 31
0.0
  0
LINE
  5
25D
  8
OUTER_LOOP
 62
     3
 10
297.4194179743784
 20
117.5180633203916
 30
0.0
 11
261.2165275412784
 21
113.5622290420916
 31
0.0
  0
LINE
  5
25E
  8
OUTER_LOOP
 62
     3
 10
261.2165275412784
 20
113.5622290420916
 30
0.0
 11
248.9321257931784
 21
99.19482792199163
 31
0.0
  0
LINE
  5
25F
  8
OUTER_LOOP
 62
     3
 10
248.9321257931784
 20
99.19482792199163
 30
0.0
 11
244.0093214848784
 21
96.13323747759162
 31
0.0
  0
LINE
  5
260
  8
OUTER_LOOP
 62
     3
 10
244.0093214848784
 20
96.13323747759162
 30
0.0
 11
236.6292068971196
 21
94.82154286646674
 31
0.0
  0
ARC
  5
261
  8
OUTER_LOOP
 62
     3
 10
230.3740271853855
 20
83.99921747984534
 30
0.0
 40
12.5
 50
59.97258125360797
 51
257.6143813766892
  0
LINE
  5
262
  8
OUTER_LOOP
 62
     3
 10
227.6929000185784
 20
71.79014064679163
 30
0.0
 11
264.4605650337872
 21
63.71591956661727
 31
0.0
  0
ARC
  5
263
  8
OUTER_LOOP
 62
     3
 10
265.3185257271838
 20
67.62282415319045
 30
0.0
 40
3.999999999999999
 50
257.6143813764212
 51
347.6143813778542
  0
LINE
  5
264
  8
OUTER_LOOP
 62
     3
 10
269.2254303137784
 20
66.76486345989163
 30
0.0
 11
270.8141026894784
 21
73.99921747979164
 31
0.0
  0
LINE
  5
265
  8
OUTER_LOOP
 62
     3
 10
270.8141026894784
 20
73.99921747979164
 30
0.0
 11
331.4646574804784
 21
73.99921747979165
 31
0.0
  0
ARC
  5
266
  8
OUTER_LOOP
 62
     3
 10
331.4646574804784
 20
83.99921747979162
 30
0.0
 40
9.99999999999998
 50
270.0000000000003
 51
54.42106815699985
  0
LINE
  5
267
  8
OUTER_LOOP
 62
     3
 10
337.2828969462805
 20
92.13236505736472
 30
0.0
 11
304.3238768232784
 21
115.7103795719916
 31
0.0
  0
ARC
  5
268
  8
OUTER_LOOP
 62
     3
 10
298.5056373574967
 20
107.5772319944039
 30
0.0
 40
10.00000000000001
 50
54.42106815714364
 51
96.23588244926154
  0
CIRCLE
  5
269
  8
INTERIOR_LOOPS
 62
     3
 10
230.3740271854784
 20
83.99921747979164
 30
0.0
 40
3.000000000000003
  0
CIRCLE
  5
26A
  8
INTERIOR_LOOPS
 62
     3
 10
331.4646574804784
 20
83.99921747979164
 30
0.0
 40
3.000000000000003
  0
LINE
  5
26B
  8
INTERIOR_LOOPS
 62
     3
 10
247.8943856044784
 20
74.99762925229163
 30
0.0
 11
249.3422892078784
 21
77.85132425269163
 31
0.0
  0
LINE
  5
26C
  8
INTERIOR_LOOPS
 62
     3
 10
249.3422892078784
 20
77.85132425269163
 30
0.0
 11
243.8132551445784
 21
80.65663748419163
 31
0.0
  0
LINE
  5
26D
  8
INTERIOR_LOOPS
 62
     3
 10
243.8132551445784
 20
80.65663748419163
 30
0.0
 11
242.3653515411784
 21
77.80294248379164
 31
0.0
  0
LINE
  5
26E
  8
INTERIOR_LOOPS
 62
     3
 10
242.3653515411784
 20
77.80294248379164
 30
0.0
 11
247.8943856044784
 21
74.99762925229163
 31
0.0
  0
LINE
  5
26F
  8
INTERIOR_LOOPS
 62
     3
 10
295.4878452088784
 20
87.35731746749163
 30
0.0
 11
267.4674721184784
 21
84.17947393909162
 31
0.0
  0
LINE
  5
270
  8
INTERIOR_LOOPS
 62
     3
 10
267.4674721184784
 20
84.17947393909162
 30
0.0
 11
267.8280784768784
 21
80.99985712979162
 31
0.0
  0
LINE
  5
271
  8
INTERIOR_LOOPS
 62
     3
 10
267.8280784768784
 20
80.99985712979162
 30
0.0
 11
295.8484515672784
 21
84.17770065819164
 31
0.0
  0
LINE
  5
272
  8
INTERIOR_LOOPS
 62
     3
 10
295.8484515672784
 20
84.17770065819164
 30
0.0
 11
295.4878452088784
 21
87.35731746749163
 31
0.0
  0
LINE
  5
273
  8
INTERIOR_LOOPS
 62
     3
 10
264.6502337609784
 20
109.0202403150916
 30
0.0
 11
265.0108401193784
 21
105.8406235056916
 31
0.0
  0
LINE
  5
274
  8
INTERIOR_LOOPS
 62
     3
 10
265.0108401193784
 20
105.8406235056916
 30
0.0
 11
293.0312132097784
 21
109.0184670341916
 31
0.0
  0
LINE
  5
275
  8
INTERIOR_LOOPS
 62
     3
 10
293.0312132097784
 20
109.0184670341916
 30
0.0
 11
292.6706068513784
 21
112.1980838434916
 31
0.0
  0
LINE
  5
276
  8
INTERIOR_LOOPS
 62
     3
 10
292.6706068513784
 20
112.1980838434916
 30
0.0
 11
264.6502337609784
 21
109.0202403150916
 31
0.0
  0
ARC
  5
277
  8
OUTER_LOOP
 62
     3
 10
323.3181645104123
 20
364.9597228016152
 30
0.0
 40
12.5
 50
162.3581998776003
 51
359.9999999999998
  0
LINE
  5
278
  8
OUTER_LOOP
 62
     3
 10
335.8181645104123
 20
364.9597228016152
 30
0.0
 11
335.8181645104123
 21
402.6035036521151
 31
0.0
  0
ARC
  5
279
  8
OUTER_LOOP
 62
     3
 10
331.8181645104123
 20
402.6035036521151
 30
0.0
 40
4.0
 50
0.0
 51
90.0
  0
LINE
  5
27A
  8
OUTER_LOOP
 62
     3
 10
331.8181645104123
 20
406.6035036521151
 30
0.0
 11
324.4114271718122
 21
406.6035036521151
 31
0.0
  0
LINE
  5
27B
  8
OUTER_LOOP
 62
     3
 10
324.4114271718122
 20
406.6035036521151
 30
0.0
 11
311.4024791610482
 21
465.8424863248931
 31
0.0
  0
ARC
  5
27C
  8
OUTER_LOOP
 62
     3
 10
301.6352176946123
 20
463.6975845914152
 30
0.0
 40
10.00000000000001
 50
12.38561862349979
 51
221.2993685518998
  0
LINE
  5
27D
  8
OUTER_LOOP
 62
     3
 10
294.1225036222501
 20
457.0976507078879
 30
0.0
 11
292.5263589274123
 21
446.8926262374151
 31
0.0
  0
LINE
  5
27E
  8
OUTER_LOOP
 62
     3
 10
292.5263589274123
 20
446.8926262374151
 30
0.0
 11
276.0210449752122
 21
436.5807291918152
 31
0.0
  0
ARC
  5
27F
  8
OUTER_LOOP
 62
     3
 10
280.1007016487944
 20
427.4507564960347
 30
0.0
 40
10.00000000000001
 50
114.0771051151715
 51
276.1324966123505
  0
LINE
  5
280
  8
OUTER_LOOP
 62
     3
 10
281.1689818061037
 20
417.5079813549838
 30
0.0
 11
293.4556771718122
 21
418.8280989955152
 31
0.0
  0
LINE
  5
281
  8
OUTER_LOOP
 62
     3
 10
293.4556771718122
 20
418.8280989955152
 30
0.0
 11
301.8568294832123
 21
391.8431763918152
 31
0.0
  0
LINE
  5
282
  8
OUTER_LOOP
 62
     3
 10
301.8568294832123
 20
391.8431763918152
 30
0.0
 11
311.4060417570905
 21
368.7480379297155
 31
0.0
  0
CIRCLE
  5
283
  8
INTERIOR_LOOPS
 62
     3
 10
323.3181645104123
 20
364.9597228016152
 30
0.0
 40
3.000000000000003
  0
CIRCLE
  5
284
  8
INTERIOR_LOOPS
 62
     3
 10
301.6352176946123
 20
463.6975845914151
 30
0.0
 40
3.000000000000003
  0
CIRCLE
  5
285
  8
INTERIOR_LOOPS
 62
     3
 10
280.1007016486122
 20
427.4507564960152
 30
0.0
 40
3.000000000000003
  0
LINE
  5
286
  8
INTERIOR_LOOPS
 62
     3
 10
300.5744785794122
 20
451.5749871921151
 30
0.0
 11
303.5778645636123
 21
452.6793750905151
 31
0.0
  0
LINE
  5
287
  8
INTERIOR_LOOPS
 62
     3
 10
303.5778645636123
 20
452.6793750905151
 30
0.0
 11
301.4381130104122
 21
458.4984354348152
 31
0.0
  0
LINE
  5
288
  8
INTERIOR_LOOPS
 62
     3
 10
301.4381130104122
 20
458.4984354348152
 30
0.0
 11
298.4347270262123
 21
457.3940475364151
 31
0.0
  0
LINE
  5
289
  8
INTERIOR_LOOPS
 62
     3
 10
298.4347270262123
 20
457.3940475364151
 30
0.0
 11
300.5744785794122
 21
451.5749871921151
 31
0.0
  0
LINE
  5
28A
  8
INTERIOR_LOOPS
 62
     3
 10
306.0080715906122
 20
436.7983157739152
 30
0.0
 11
308.1478231438123
 21
430.9792554296151
 31
0.0
  0
LINE
  5
28B
  8
INTERIOR_LOOPS
 62
     3
 10
308.1478231438123
 20
430.9792554296151
 30
0.0
 11
311.1512091279122
 21
432.0836433280152
 31
0.0
  0
LINE
  5
28C
  8
INTERIOR_LOOPS
 62
     3
 10
311.1512091279122
 20
432.0836433280152
 30
0.0
 11
309.0114575747123
 21
437.9027036723152
 31
0.0
  0
LINE
  5
28D
  8
INTERIOR_LOOPS
 62
     3
 10
309.0114575747123
 20
437.9027036723152
 30
0.0
 11
306.0080715906122
 21
436.7983157739152
 31
0.0
  0
LINE
  5
28E
  8
INTERIOR_LOOPS
 62
     3
 10
328.3523063791122
 20
384.0030671874151
 30
0.0
 11
325.2544667628122
 21
384.8051829593152
 31
0.0
  0
LINE
  5
28F
  8
INTERIOR_LOOPS
 62
     3
 10
325.2544667628122
 20
384.8051829593152
 30
0.0
 11
323.7003674547123
 21
378.8031187027152
 31
0.0
  0
LINE
  5
290
  8
INTERIOR_LOOPS
 62
     3
 10
323.7003674547123
 20
378.8031187027152
 30
0.0
 11
326.7982070710123
 21
378.0010029307152
 31
0.0
  0
LINE
  5
291
  8
INTERIOR_LOOPS
 62
     3
 10
326.7982070710123
 20
378.0010029307152
 30
0.0
 11
328.3523063791122
 21
384.0030671874151
 31
0.0
  0
LINE
  5
292
  8
INTERIOR_LOOPS
 62
     3
 10
303.1385231532122
 20
409.1695708981151
 30
0.0
 11
306.0861402010123
 21
410.4151846984151
 31
0.0
  0
LINE
  5
293
  8
INTERIOR_LOOPS
 62
     3
 10
306.0861402010123
 20
410.4151846984151
 30
0.0
 11
302.1157462127122
 21
419.8107140383152
 31
0.0
  0
LINE
  5
294
  8
INTERIOR_LOOPS
 62
     3
 10
302.1157462127122
 20
419.8107140383152
 30
0.0
 11
299.1681291649122
 21
418.5651002381152
 31
0.0
  0
LINE
  5
295
  8
INTERIOR_LOOPS
 62
     3
 10
299.1681291649122
 20
418.5651002381152
 30
0.0
 11
303.1385231532122
 21
409.1695708981151
 31
0.0
  0
LINE
  5
296
  8
OUTER_LOOP
 62
     3
 10
232.5746542681176
 20
268.8759421681463
 30
0.0
 11
259.8090263774176
 21
251.9836967907463
 31
0.0
  0
LINE
  5
297
  8
OUTER_LOOP
 62
     3
 10
259.8090263774176
 20
251.9836967907463
 30
0.0
 11
281.9483789267176
 21
240.7506644142463
 31
0.0
  0
LINE
  5
298
  8
OUTER_LOOP
 62
     3
 10
281.9483789267176
 20
240.7506644142463
 30
0.0
 11
297.9569279050177
 21
211.2472578014463
 31
0.0
  0
ARC
  5
299
  8
OUTER_LOOP
 62
     3
 10
308.943780083127
 20
217.2087239983121
 30
0.0
 40
12.50000000000002
 50
208.4842585385421
 51
54.00005213238676
  0
LINE
  5
29A
  8
OUTER_LOOP
 62
     3
 10
316.291086535407
 20
227.3214431131836
 30
0.0
 11
312.0121023952177
 21
249.4907902597463
 31
0.0
  0
ARC
  5
29B
  8
OUTER_LOOP
 62
     3
 10
302.0795523985187
 20
250.6502947069458
 30
0.0
 40
9.99999999999999
 50
353.341551730428
 51
63.09774060170658
  0
LINE
  5
29C
  8
OUTER_LOOP
 62
     3
 10
306.6042511590155
 20
259.5680915832353
 30
0.0
 11
252.5173183530176
 21
287.0106405919463
 31
0.0
  0
LINE
  5
29D
  8
OUTER_LOOP
 62
     3
 10
252.5173183530176
 20
287.0106405919463
 30
0.0
 11
254.3738998648176
 21
294.1809169529463
 31
0.0
  0
ARC
  5
29E
  8
OUTER_LOOP
 62
     3
 10
250.5016003444185
 20
295.183561667846
 30
0.0
 40
3.999999999999992
 50
345.4833592248391
 51
75.48335922511312
  0
LINE
  5
29F
  8
OUTER_LOOP
 62
     3
 10
251.5042450592998
 20
299.05586118825
 30
0.0
 11
215.0622464259176
 21
308.4916956676463
 31
0.0
  0
ARC
  5
2A0
  8
OUTER_LOOP
 62
     3
 10
211.9289816917155
 20
296.3907596664353
 30
0.0
 40
12.5
 50
75.48335922417463
 51
273.1251593485276
  0
LINE
  5
2A1
  8
OUTER_LOOP
 62
     3
 10
212.6104476749483
 20
283.9093493249035
 30
0.0
 11
232.5746542681176
 21
268.8759421681463
 31
0.0
  0
CIRCLE
  5
2A2
  8
INTERIOR_LOOPS
 62
     3
 10
302.0795523985176
 20
250.6502947069463
 30
0.0
 40
3.000000000000003
  0
CIRCLE
  5
2A3
  8
INTERIOR_LOOPS
 62
     3
 10
308.9437800832176
 20
217.2087239982463
 30
0.0
 40
3.000000000000003
  0
CIRCLE
  5
2A4
  8
INTERIOR_LOOPS
 62
     3
 10
211.9289816919176
 20
296.3907596664463
 30
0.0
 40
3.000000000000003
  0
LINE
  5
2A5
  8
INTERIOR_LOOPS
 62
     3
 10
296.9969802097177
 20
251.7627074693463
 30
0.0
 11
291.9000467110176
 21
255.2927597225463
 31
0.0
  0
LINE
  5
2A6
  8
INTERIOR_LOOPS
 62
     3
 10
291.9000467110176
 20
255.2927597225463
 30
0.0
 11
290.0780842577176
 21
252.6620843684463
 31
0.0
  0
LINE
  5
2A7
  8
INTERIOR_LOOPS
 62
     3
 10
290.0780842577176
 20
252.6620843684463
 30
0.0
 11
295.1750177564176
 21
249.1320321151463
 31
0.0
  0
LINE
  5
2A8
  8
INTERIOR_LOOPS
 62
     3
 10
295.1750177564176
 20
249.1320321151463
 30
0.0
 11
296.9969802097177
 21
251.7627074693463
 31
0.0
  0
LINE
  5
2A9
  8
INTERIOR_LOOPS
 62
     3
 10
272.0382171765176
 20
265.1561993997463
 30
0.0
 11
277.1351506751176
 21
261.6261471465463
 31
0.0
  0
LINE
  5
2AA
  8
INTERIOR_LOOPS
 62
     3
 10
277.1351506751176
 20
261.6261471465463
 30
0.0
 11
278.9571131284176
 21
264.2568225006463
 31
0.0
  0
LINE
  5
2AB
  8
INTERIOR_LOOPS
 62
     3
 10
278.9571131284176
 20
264.2568225006463
 30
0.0
 11
273.8601796298177
 21
267.7868747538463
 31
0.0
  0
LINE
  5
2AC
  8
INTERIOR_LOOPS
 62
     3
 10
273.8601796298177
 20
267.7868747538463
 30
0.0
 11
272.0382171765176
 21
265.1561993997463
 31
0.0
  0
LINE
  5
2AD
  8
INTERIOR_LOOPS
 62
     3
 10
231.6262289595176
 20
293.2907588018463
 30
0.0
 11
231.6262289595176
 21
296.4907588018463
 31
0.0
  0
LINE
  5
2AE
  8
INTERIOR_LOOPS
 62
     3
 10
231.6262289595176
 20
296.4907588018463
 30
0.0
 11
225.4262289595176
 21
296.4907588018463
 31
0.0
  0
LINE
  5
2AF
  8
INTERIOR_LOOPS
 62
     3
 10
225.4262289595176
 20
296.4907588018463
 30
0.0
 11
225.4262289595176
 21
293.2907588018463
 31
0.0
  0
LINE
  5
2B0
  8
INTERIOR_LOOPS
 62
     3
 10
225.4262289595176
 20
293.2907588018463
 30
0.0
 11
231.6262289595176
 21
293.2907588018463
 31
0.0
  0
ARC
  5
2B1
  8
INTERIOR_LOOPS
 62
     3
 10
262.3196843232176
 20
264.9975283767463
 30
0.0
 40
3.000000000000123
 50
180.1954747931992
 51
264.9095949394007
  0
ARC
  5
2B2
  8
INTERIOR_LOOPS
 62
     3
 10
264.9996221302863
 20
261.4433435850444
 30
0.0
 40
3.000000000000116
 50
169.1246872060495
 51
268.430441360788
  0
ARC
  5
2B3
  8
INTERIOR_LOOPS
 62
     3
 10
267.8232499995098
 20
257.6985942839465
 30
0.0
 40
3.000000000005582
 50
165.6038407857503
 51
88.43044136204959
  0
ARC
  5
2B4
  8
INTERIOR_LOOPS
 62
     3
 10
264.9996221302245
 20
261.4433435850457
 30
0.0
 40
3.000000000000123
 50
345.6038407858413
 51
84.90959493953154
  0
ARC
  5
2B5
  8
INTERIOR_LOOPS
 62
     3
 10
262.3196843231478
 20
264.9975283767425
 30
0.0
 40
3.000000000000134
 50
349.1246872061613
 51
93.16488989516535
  0
ARC
  5
2B6
  8
INTERIOR_LOOPS
 62
     3
 10
259.1540727892771
 20
267.9827177142496
 30
0.0
 40
3.00000000386905
 50
0.195474722899753
 51
93.16488996953719
  0
ARC
  5
2B7
  8
INTERIOR_LOOPS
 62
     3
 10
255.9884612551865
 20
270.9679070516445
 30
0.0
 40
2.999999999999996
 50
0.195474794966654
 51
273.1648898988943
  0
ARC
  5
2B8
  8
INTERIOR_LOOPS
 62
     3
 10
259.1540727892518
 20
267.9827177142407
 30
0.0
 40
3.000000003869006
 50
180.1954747246628
 51
273.1648899671419
  0
LINE
  5
2B9
  8
OUTER_LOOP
 62
     3
 10
309.1745955591585
 20
333.2571860706829
 30
0.0
 11
305.2187612808585
 21
369.4600765037829
 31
0.0
  0
LINE
  5
2BA
  8
OUTER_LOOP
 62
     3
 10
305.2187612808585
 20
369.4600765037829
 30
0.0
 11
290.8513601607585
 21
381.7444782518829
 31
0.0
  0
LINE
  5
2BB
  8
OUTER_LOOP
 62
     3
 10
290.8513601607585
 20
381.7444782518829
 30
0.0
 11
287.7897697163585
 21
386.6672825601829
 31
0.0
  0
LINE
  5
2BC
  8
OUTER_LOOP
 62
     3
 10
287.7897697163585
 20
386.6672825601829
 30
0.0
 11
286.4780751052336
 21
394.0473971479418
 31
0.0
  0
ARC
  5
2BD
  8
OUTER_LOOP
 62
     3
 10
275.6557497186122
 20
400.3025768596759
 30
0.0
 40
12.5
 50
329.9725812536076
 51
167.6143813766895
  0
LINE
  5
2BE
  8
OUTER_LOOP
 62
     3
 10
263.4466728855585
 20
402.9837040264829
 30
0.0
 11
255.3724518053841
 21
366.2160390112741
 31
0.0
  0
ARC
  5
2BF
  8
OUTER_LOOP
 62
     3
 10
259.2793563919573
 20
365.3580783178776
 30
0.0
 40
3.999999999999999
 50
167.614381376422
 51
257.6143813778544
  0
LINE
  5
2C0
  8
OUTER_LOOP
 62
     3
 10
258.4213956986585
 20
361.4511737312829
 30
0.0
 11
265.6557497185585
 21
359.8625013555829
 31
0.0
  0
LINE
  5
2C1
  8
OUTER_LOOP
 62
     3
 10
265.6557497185585
 20
359.8625013555829
 30
0.0
 11
265.6557497185585
 21
299.2119465645829
 31
0.0
  0
ARC
  5
2C2
  8
OUTER_LOOP
 62
     3
 10
275.6557497185585
 20
299.2119465645829
 30
0.0
 40
9.99999999999998
 50
180.0000000000003
 51
324.4210681569996
  0
LINE
  5
2C3
  8
OUTER_LOOP
 62
     3
 10
283.7888972961316
 20
293.3937070987809
 30
0.0
 11
307.3669118107585
 21
326.3527272217829
 31
0.0
  0
ARC
  5
2C4
  8
OUTER_LOOP
 62
     3
 10
299.2337642331708
 20
332.1709666875645
 30
0.0
 40
10.00000000000001
 50
324.4210681571438
 51
6.23588244926187
  0
CIRCLE
  5
2C5
  8
INTERIOR_LOOPS
 62
     3
 10
275.6557497185585
 20
400.3025768595829
 30
0.0
 40
3.000000000000003
  0
CIRCLE
  5
2C6
  8
INTERIOR_LOOPS
 62
     3
 10
275.6557497185585
 20
299.2119465645829
 30
0.0
 40
3.000000000000003
  0
LINE
  5
2C7
  8
INTERIOR_LOOPS
 62
     3
 10
266.6541614910585
 20
382.7822184405829
 30
0.0
 11
269.5078564914585
 21
381.3343148371829
 31
0.0
  0
LINE
  5
2C8
  8
INTERIOR_LOOPS
 62
     3
 10
269.5078564914585
 20
381.3343148371829
 30
0.0
 11
272.3131697229585
 21
386.8633489004829
 31
0.0
  0
LINE
  5
2C9
  8
INTERIOR_LOOPS
 62
     3
 10
272.3131697229585
 20
386.8633489004829
 30
0.0
 11
269.4594747225585
 21
388.3112525038829
 31
0.0
  0
LINE
  5
2CA
  8
INTERIOR_LOOPS
 62
     3
 10
269.4594747225585
 20
388.3112525038829
 30
0.0
 11
266.6541614910585
 21
382.7822184405829
 31
0.0
  0
LINE
  5
2CB
  8
INTERIOR_LOOPS
 62
     3
 10
279.0138497062585
 20
335.1887588361829
 30
0.0
 11
275.8360061778585
 21
363.2091319265829
 31
0.0
  0
LINE
  5
2CC
  8
INTERIOR_LOOPS
 62
     3
 10
275.8360061778585
 20
363.2091319265829
 30
0.0
 11
272.6563893685585
 21
362.8485255681829
 31
0.0
  0
LINE
  5
2CD
  8
INTERIOR_LOOPS
 62
     3
 10
272.6563893685585
 20
362.8485255681829
 30
0.0
 11
275.8342328969585
 21
334.8281524777829
 31
0.0
  0
LINE
  5
2CE
  8
INTERIOR_LOOPS
 62
     3
 10
275.8342328969585
 20
334.8281524777829
 30
0.0
 11
279.0138497062585
 21
335.1887588361829
 31
0.0
  0
LINE
  5
2CF
  8
INTERIOR_LOOPS
 62
     3
 10
300.6767725538585
 20
366.0263702840829
 30
0.0
 11
297.4971557444585
 21
365.6657639256829
 31
0.0
  0
LINE
  5
2D0
  8
INTERIOR_LOOPS
 62
     3
 10
297.4971557444585
 20
365.6657639256829
 30
0.0
 11
300.6749992729585
 21
337.6453908352829
 31
0.0
  0
LINE
  5
2D1
  8
INTERIOR_LOOPS
 62
     3
 10
300.6749992729585
 20
337.6453908352829
 30
0.0
 11
303.8546160822585
 21
338.0059971936829
 31
0.0
  0
LINE
  5
2D2
  8
INTERIOR_LOOPS
 62
     3
 10
303.8546160822585
 20
338.0059971936829
 30
0.0
 11
300.6767725538585
 21
366.0263702840829
 31
0.0
  0
LINE
  5
2D3
  8
OUTER_LOOP
 62
     3
 10
254.9722660153461
 20
243.2295009206954
 30
0.0
 11
227.7378939060461
 21
260.1217462980954
 31
0.0
  0
LINE
  5
2D4
  8
OUTER_LOOP
 62
     3
 10
227.7378939060461
 20
260.1217462980954
 30
0.0
 11
205.5985413567461
 21
271.3547786745954
 31
0.0
  0
LINE
  5
2D5
  8
OUTER_LOOP
 62
     3
 10
205.5985413567461
 20
271.3547786745954
 30
0.0
 11
189.5899923784461
 21
300.8581852873954
 31
0.0
  0
ARC
  5
2D6
  8
OUTER_LOOP
 62
     3
 10
178.6031402003368
 20
294.8967190905295
 30
0.0
 40
12.50000000000002
 50
28.48425853854241
 51
234.0000521323865
  0
LINE
  5
2D7
  8
OUTER_LOOP
 62
     3
 10
171.2558337480567
 20
284.7839999756581
 30
0.0
 11
175.5348178882461
 21
262.6146528290953
 31
0.0
  0
ARC
  5
2D8
  8
OUTER_LOOP
 62
     3
 10
185.467367884945
 20
261.4551483818959
 30
0.0
 40
9.99999999999999
 50
173.3415517304279
 51
243.0977406017066
  0
LINE
  5
2D9
  8
OUTER_LOOP
 62
     3
 10
180.9426691244483
 20
252.5373515056064
 30
0.0
 11
235.0296019304461
 21
225.0948024968954
 31
0.0
  0
LINE
  5
2DA
  8
OUTER_LOOP
 62
     3
 10
235.0296019304461
 20
225.0948024968954
 30
0.0
 11
233.1730204186461
 21
217.9245261358954
 31
0.0
  0
ARC
  5
2DB
  8
OUTER_LOOP
 62
     3
 10
237.0453199390452
 20
216.9218814209956
 30
0.0
 40
3.999999999999992
 50
165.4833592248387
 51
255.4833592251129
  0
LINE
  5
2DC
  8
OUTER_LOOP
 62
     3
 10
236.042675224164
 20
213.0495819005916
 30
0.0
 11
272.4846738575461
 21
203.6137474211953
 31
0.0
  0
ARC
  5
2DD
  8
OUTER_LOOP
 62
     3
 10
275.6179385917482
 20
215.7146834224064
 30
0.0
 40
12.5
 50
255.4833592241746
 51
93.1251593485279
  0
LINE
  5
2DE
  8
OUTER_LOOP
 62
     3
 10
274.9364726085154
 20
228.1960937639382
 30
0.0
 11
254.9722660153461
 21
243.2295009206954
 31
0.0
  0
CIRCLE
  5
2DF
  8
INTERIOR_LOOPS
 62
     3
 10
185.4673678849461
 20
261.4551483818954
 30
0.0
 40
3.000000000000003
  0
CIRCLE
  5
2E0
  8
INTERIOR_LOOPS
 62
     3
 10
178.6031402002461
 20
294.8967190905954
 30
0.0
 40
3.000000000000003
  0
CIRCLE
  5
2E1
  8
INTERIOR_LOOPS
 62
     3
 10
275.6179385915461
 20
215.7146834223954
 30
0.0
 40
3.000000000000003
  0
LINE
  5
2E2
  8
INTERIOR_LOOPS
 62
     3
 10
190.5499400737461
 20
260.3427356194954
 30
0.0
 11
195.6468735724461
 21
256.8126833662953
 31
0.0
  0
LINE
  5
2E3
  8
INTERIOR_LOOPS
 62
     3
 10
195.6468735724461
 20
256.8126833662953
 30
0.0
 11
197.4688360257461
 21
259.4433587203954
 31
0.0
  0
LINE
  5
2E4
  8
INTERIOR_LOOPS
 62
     3
 10
197.4688360257461
 20
259.4433587203954
 30
0.0
 11
192.3719025270461
 21
262.9734109736954
 31
0.0
  0
LINE
  5
2E5
  8
INTERIOR_LOOPS
 62
     3
 10
192.3719025270461
 20
262.9734109736954
 30
0.0
 11
190.5499400737461
 21
260.3427356194954
 31
0.0
  0
LINE
  5
2E6
  8
INTERIOR_LOOPS
 62
     3
 10
215.5087031069461
 20
246.9492436890954
 30
0.0
 11
210.4117696083461
 21
250.4792959422954
 31
0.0
  0
LINE
  5
2E7
  8
INTERIOR_LOOPS
 62
     3
 10
210.4117696083461
 20
250.4792959422954
 30
0.0
 11
208.5898071550461
 21
247.8486205881954
 31
0.0
  0
LINE
  5
2E8
  8
INTERIOR_LOOPS
 62
     3
 10
208.5898071550461
 20
247.8486205881954
 30
0.0
 11
213.6867406536461
 21
244.3185683349954
 31
0.0
  0
LINE
  5
2E9
  8
INTERIOR_LOOPS
 62
     3
 10
213.6867406536461
 20
244.3185683349954
 30
0.0
 11
215.5087031069461
 21
246.9492436890954
 31
0.0
  0
LINE
  5
2EA
  8
INTERIOR_LOOPS
 62
     3
 10
255.9206913239461
 20
218.8146842869954
 30
0.0
 11
255.9206913239461
 21
215.6146842869954
 31
0.0
  0
LINE
  5
2EB
  8
INTERIOR_LOOPS
 62
     3
 10
255.9206913239461
 20
215.6146842869954
 30
0.0
 11
262.1206913239461
 21
215.6146842869954
 31
0.0
  0
LINE
  5
2EC
  8
INTERIOR_LOOPS
 62
     3
 10
262.1206913239461
 20
215.6146842869954
 30
0.0
 11
262.1206913239461
 21
218.8146842869954
 31
0.0
  0
LINE
  5
2ED
  8
INTERIOR_LOOPS
 62
     3
 10
262.1206913239461
 20
218.8146842869954
 30
0.0
 11
255.9206913239461
 21
218.8146842869954
 31
0.0
  0
ARC
  5
2EE
  8
INTERIOR_LOOPS
 62
     3
 10
225.2272359602461
 20
247.1079147120954
 30
0.0
 40
3.000000000000123
 50
0.195474793199773
 51
84.90959493939964
  0
ARC
  5
2EF
  8
INTERIOR_LOOPS
 62
     3
 10
222.5472981531774
 20
250.6620995037972
 30
0.0
 40
3.000000000000116
 50
349.1246872060507
 51
88.4304413607875
  0
ARC
  5
2F0
  8
INTERIOR_LOOPS
 62
     3
 10
219.723670283954
 20
254.4068488048951
 30
0.0
 40
3.000000000005582
 50
345.6038407857498
 51
268.4304413620496
  0
ARC
  5
2F1
  8
INTERIOR_LOOPS
 62
     3
 10
222.5472981532392
 20
250.662099503796
 30
0.0
 40
3.000000000000123
 50
165.6038407858413
 51
264.909594939532
  0
ARC
  5
2F2
  8
INTERIOR_LOOPS
 62
     3
 10
225.2272359603159
 20
247.1079147120992
 30
0.0
 40
3.000000000000134
 50
169.1246872061619
 51
273.1648898951642
  0
ARC
  5
2F3
  8
INTERIOR_LOOPS
 62
     3
 10
228.3928474941866
 20
244.1227253745921
 30
0.0
 40
3.00000000386905
 50
180.1954747228997
 51
273.1648899695388
  0
ARC
  5
2F4
  8
INTERIOR_LOOPS
 62
     3
 10
231.5584590282772
 20
241.1375360371971
 30
0.0
 40
2.999999999999996
 50
180.1954747949655
 51
93.16488989889538
  0
ARC
  5
2F5
  8
INTERIOR_LOOPS
 62
     3
 10
228.3928474942118
 20
244.122725374601
 30
0.0
 40
3.000000003869006
 50
0.1954747246617432
 51
93.1648899671414
  0
LINE
  5
2F6
  8
OUTER_LOOP
 62
     3
 10
225.4424891
 20
470.517426851877
 30
0.0
 11
219.4726623698
 21
471.118400071877
 31
0.0
  0
LINE
  5
2F7
  8
OUTER_LOOP
 62
     3
 10
219.4726623698
 20
471.118400071877
 30
0.0
 11
219.2222568615
 21
468.630972267577
 31
0.0
  0
LINE
  5
2F8
  8
OUTER_LOOP
 62
     3
 10
219.2222568615
 20
468.630972267577
 30
0.0
 11
166.0560486219
 21
473.983132188677
 31
0.0
  0
LINE
  5
2F9
  8
OUTER_LOOP
 62
     3
 10
166.0560486219
 20
473.983132188677
 30
0.0
 11
18.80026792098886
 21
473.9831321887217
 31
0.0
  0
ARC
  5
2FA
  8
OUTER_LOOP
 62
     3
 10
17.5464522334
 20
461.528230443577
 30
0.0
 40
12.51785250191312
 50
84.25148906050008
 51
184.0266653743999
  0
LINE
  5
2FB
  8
OUTER_LOOP
 62
     3
 10
5.059500329997974
 20
460.6492176895302
 30
0.0
 11
6.175005709200008
 21
444.802733149177
 31
0.0
  0
LINE
  5
2FC
  8
OUTER_LOOP
 62
     3
 10
6.175005709200008
 20
444.802733149177
 30
0.0
 11
10.87649677760001
 21
443.100974725377
 31
0.0
  0
LINE
  5
2FD
  8
OUTER_LOOP
 62
     3
 10
10.87649677760001
 20
443.100974725377
 30
0.0
 11
13.28598035390002
 21
449.757715984777
 31
0.0
  0
ARC
  5
2FE
  8
OUTER_LOOP
 62
     3
 10
17.54645223334079
 20
461.5282304435484
 30
0.0
 40
12.51785250191314
 50
250.1016994571186
 51
295.749283504801
  0
LINE
  5
2FF
  8
OUTER_LOOP
 62
     3
 10
22.98463289153102
 20
450.2533547285555
 30
0.0
 11
36.80456095279999
 21
421.600762790677
 31
0.0
  0
LINE
  5
300
  8
OUTER_LOOP
 62
     3
 10
36.80456095279999
 20
421.600762790677
 30
0.0
 11
49.93568630109999
 21
429.380900717977
 31
0.0
  0
LINE
  5
301
  8
OUTER_LOOP
 62
     3
 10
49.93568630109999
 20
429.380900717977
 30
0.0
 11
59.52223186589998
 21
419.317013520477
 31
0.0
  0
LINE
  5
302
  8
OUTER_LOOP
 62
     3
 10
59.52223186589998
 20
419.317013520477
 30
0.0
 11
70.19113316990001
 21
431.732456395677
 31
0.0
  0
ARC
  5
303
  8
OUTER_LOOP
 62
     3
 10
90.91252942883098
 20
413.9260411278652
 30
0.0
 40
27.3211399397865
 50
99.66561300035316
 51
139.3267060317454
  0
LINE
  5
304
  8
OUTER_LOOP
 62
     3
 10
86.32537114517098
 20
440.8593414545992
 30
0.0
 11
131.3308051777
 21
444.282391165077
 31
0.0
  0
LINE
  5
305
  8
OUTER_LOOP
 62
     3
 10
131.3308051777
 20
444.282391165077
 30
0.0
 11
239.9466528939
 21
446.148515765777
 31
0.0
  0
LINE
  5
306
  8
OUTER_LOOP
 62
     3
 10
239.9466528939
 20
446.148515765777
 30
0.0
 11
260.3760084409
 21
444.091924152577
 31
0.0
  0
LINE
  5
307
  8
OUTER_LOOP
 62
     3
 10
260.3760084409
 20
444.091924152577
 30
0.0
 11
284.4736328047
 21
455.979150870177
 31
0.0
  0
ARC
  5
308
  8
OUTER_LOOP
 62
     3
 10
219.7439585280532
 20
282.1676954344119
 30
0.0
 40
185.4733209188312
 50
69.57400682841693
 51
84.25148906029234
  0
LINE
  5
309
  8
OUTER_LOOP
 62
     3
 10
238.3213750114371
 20
466.7082935949865
 30
0.0
 11
231.1619103219
 21
467.429025827577
 31
0.0
  0
LINE
  5
30A
  8
OUTER_LOOP
 62
     3
 10
231.1619103219
 20
467.429025827577
 30
0.0
 11
231.3266270019
 21
469.065255207677
 31
0.0
  0
ARC
  5
30B
  8
OUTER_LOOP
 62
     3
 10
223.2922007041112
 20
449.1573250756506
 30
0.0
 40
21.46806204752176
 50
68.02202242086821
 51
84.25148906071497
  0
CIRCLE
  5
30C
  8
INTERIOR_LOOPS
 62
     3
 10
36.7109723396
 20
466.041585948877
 30
0.0
 40
2.999999999999999
  0
CIRCLE
  5
30D
  8
INTERIOR_LOOPS
 62
     3
 10
17.54645208900001
 20
461.528231618677
 30
0.0
 40
7.0
  0
CIRCLE
  5
30E
  8
INTERIOR_LOOPS
 62
     3
 10
57.45111662299999
 20
439.663427677177
 30
0.0
 40
3.000000000000003
  0
CIRCLE
  5
30F
  8
INTERIOR_LOOPS
 62
     3
 10
71.32361264420001
 20
456.056444542077
 30
0.0
 40
11.0
  0
CIRCLE
  5
310
  8
INTERIOR_LOOPS
 62
     3
 10
106.5533505798
 20
459.093946081377
 30
0.0
 40
10.0
  0
CIRCLE
  5
311
  8
INTERIOR_LOOPS
 62
     3
 10
141.3570563031
 20
460.743025896577
 30
0.0
 40
9.000000000000002
  0
CIRCLE
  5
312
  8
INTERIOR_LOOPS
 62
     3
 10
174.4870559419
 20
459.984237603777
 30
0.0
 40
8.0
  0
CIRCLE
  5
313
  8
INTERIOR_LOOPS
 62
     3
 10
157.4494425994
 20
452.825267465577
 30
0.0
 40
2.999999999999999
  0
CIRCLE
  5
314
  8
INTERIOR_LOOPS
 62
     3
 10
259.9190652516
 20
453.273258253377
 30
0.0
 40
2.999999999999999
  0
CIRCLE
  5
315
  8
INTERIOR_LOOPS
 62
     3
 10
201.4580349754
 20
458.846779846077
 30
0.0
 40
5.999999999999998
  0
LINE
  5
316
  8
INTERIOR_LOOPS
 62
     3
 10
220.5017125524
 20
462.371340238877
 30
0.0
 11
228.6604757503
 21
461.550010171577
 31
0.0
  0
LINE
  5
317
  8
INTERIOR_LOOPS
 62
     3
 10
228.6604757503
 20
461.550010171577
 30
0.0
 11
228.980994801
 21
464.733917760977
 31
0.0
  0
LINE
  5
318
  8
INTERIOR_LOOPS
 62
     3
 10
228.980994801
 20
464.733917760977
 30
0.0
 11
220.822231603
 21
465.555247828377
 31
0.0
  0
LINE
  5
319
  8
INTERIOR_LOOPS
 62
     3
 10
220.822231603
 20
465.555247828377
 30
0.0
 11
220.5017125524
 21
462.371340238877
 31
0.0
  0
LINE
  5
31A
  8
INTERIOR_LOOPS
 62
     3
 10
33.7283436939
 20
437.132361973477
 30
0.0
 11
38.83679514829998
 21
428.303787697977
 31
0.0
  0
LINE
  5
31B
  8
INTERIOR_LOOPS
 62
     3
 10
38.83679514829998
 20
428.303787697977
 30
0.0
 11
41.60654394060001
 21
429.906439134577
 31
0.0
  0
LINE
  5
31C
  8
INTERIOR_LOOPS
 62
     3
 10
41.60654394060001
 20
429.906439134577
 30
0.0
 11
36.49809248630001
 21
438.735013410177
 31
0.0
  0
LINE
  5
31D
  8
INTERIOR_LOOPS
 62
     3
 10
36.49809248630001
 20
438.735013410177
 30
0.0
 11
33.7283436939
 21
437.132361973477
 31
0.0
  0
LINE
  5
31E
  8
OUTER_LOOP
 62
     3
 10
223.3718111
 20
50.32344456796748
 30
0.0
 11
259.3718111000001
 21
50.32344456796747
 31
0.0
  0
LINE
  5
31F
  8
OUTER_LOOP
 62
     3
 10
259.3718111000001
 20
50.32344456796747
 30
0.0
 11
259.3718111000001
 21
56.32344456796747
 31
0.0
  0
LINE
  5
320
  8
OUTER_LOOP
 62
     3
 10
259.3718111000001
 20
56.32344456796747
 30
0.0
 11
256.3718111000001
 21
56.32344456796747
 31
0.0
  0
LINE
  5
321
  8
OUTER_LOOP
 62
     3
 10
256.3718111000001
 20
56.32344456796747
 30
0.0
 11
256.3718111000001
 21
60.32344456796747
 31
0.0
  0
LINE
  5
322
  8
OUTER_LOOP
 62
     3
 10
256.3718111000001
 20
60.32344456796747
 30
0.0
 11
226.3718111
 21
60.32344456796748
 31
0.0
  0
LINE
  5
323
  8
OUTER_LOOP
 62
     3
 10
226.3718111
 20
60.32344456796748
 30
0.0
 11
226.3718111
 21
56.32344456796748
 31
0.0
  0
LINE
  5
324
  8
OUTER_LOOP
 62
     3
 10
226.3718111
 20
56.32344456796748
 30
0.0
 11
223.3718111
 21
56.32344456796748
 31
0.0
  0
LINE
  5
325
  8
OUTER_LOOP
 62
     3
 10
223.3718111
 20
56.32344456796748
 30
0.0
 11
223.3718111
 21
50.32344456796748
 31
0.0
  0
ARC
  5
326
  8
OUTER_LOOP
 62
     3
 10
200.3063964645526
 20
384.6302246892033
 30
0.0
 40
50.86034197935419
 50
93.54368566841765
 51
123.5999587687059
  0
ARC
  5
327
  8
OUTER_LOOP
 62
     3
 10
174.7853115107416
 20
418.7630460315181
 30
0.0
 40
8.638224402910232
 50
107.6879011183256
 51
229.0869903832769
  0
ARC
  5
328
  8
OUTER_LOOP
 62
     3
 10
174.6276409649772
 20
418.611660469534
 30
0.0
 40
8.420584981203087
 50
229.223130664435
 51
279.1933809252531
  0
ARC
  5
329
  8
OUTER_LOOP
 62
     3
 10
176.807617590952
 20
352.7155571956164
 30
0.0
 40
57.58973152460735
 50
48.61879468597246
 51
90.830412625894
  0
ARC
  5
32A
  8
OUTER_LOOP
 62
     3
 10
198.9548792255717
 20
377.8349361163509
 30
0.0
 40
24.10116567524288
 50
355.1273833874083
 51
48.6476741946871
  0
ARC
  5
32B
  8
OUTER_LOOP
 62
     3
 10
136.4649036970877
 20
383.1166273042094
 30
0.0
 40
86.81394533478122
 50
322.169914532503
 51
355.1573076664478
  0
ARC
  5
32C
  8
OUTER_LOOP
 62
     3
 10
211.7308642133766
 20
324.6506468267249
 30
0.0
 40
8.49207932902914
 50
142.061253516451
 51
270.1090639712513
  0
LINE
  5
32D
  8
OUTER_LOOP
 62
     3
 10
211.7470290922622
 20
316.1585828828291
 30
0.0
 11
234.6037486923811
 21
316.1590349877306
 31
0.0
  0
LINE
  5
32E
  8
OUTER_LOOP
 62
     3
 10
234.6037486923811
 20
316.1590349877306
 30
0.0
 11
234.970001560281
 21
316.5672205543306
 31
0.0
  0
LINE
  5
32F
  8
OUTER_LOOP
 62
     3
 10
234.970001560281
 20
316.5672205543306
 30
0.0
 11
238.1036667197811
 21
320.0596648896307
 31
0.0
  0
LINE
  5
330
  8
OUTER_LOOP
 62
     3
 10
238.1036667197811
 20
320.0596648896307
 30
0.0
 11
241.237316454181
 21
316.5672079763306
 31
0.0
  0
LINE
  5
331
  8
OUTER_LOOP
 62
     3
 10
241.237316454181
 20
316.5672079763306
 30
0.0
 11
241.6035673185265
 21
316.1590207650303
 31
0.0
  0
LINE
  5
332
  8
OUTER_LOOP
 62
     3
 10
241.6035673185265
 20
316.1590207650303
 30
0.0
 11
250.2625769095174
 21
316.1589827925019
 31
0.0
  0
LINE
  5
333
  8
OUTER_LOOP
 62
     3
 10
250.2625769095174
 20
316.1589827925019
 30
0.0
 11
250.2626738535739
 21
316.1585171218502
 31
0.0
  0
ARC
  5
334
  8
OUTER_LOOP
 62
     3
 10
250.2790325849364
 20
324.6423594688308
 30
0.0
 40
8.48385811859866
 50
269.8895211550015
 51
0.1100367519152588
  0
LINE
  5
335
  8
OUTER_LOOP
 62
     3
 10
258.7628750578881
 20
324.6586527390358
 30
0.0
 11
258.7624090881785
 21
324.6587497303821
 31
0.0
  0
LINE
  5
336
  8
OUTER_LOOP
 62
     3
 10
258.7624090881785
 20
324.6587497303821
 30
0.0
 11
258.7623796299899
 21
344.6583018530131
 31
0.0
  0
LINE
  5
337
  8
OUTER_LOOP
 62
     3
 10
258.7623796299899
 20
344.6583018530131
 30
0.0
 11
258.7628452977792
 21
344.6583987982144
 31
0.0
  0
ARC
  5
338
  8
OUTER_LOOP
 62
     3
 10
250.2789056672812
 20
344.6747049997564
 30
0.0
 40
8.483955300810107
 50
359.8898771775257
 51
90.1093329276092
  0
LINE
  5
339
  8
OUTER_LOOP
 62
     3
 10
250.2627164275903
 20
353.1586448542499
 30
0.0
 11
250.2629019638582
 21
398.9396224998228
 31
0.0
  0
ARC
  5
33A
  8
OUTER_LOOP
 62
     3
 10
250.2764374936296
 20
407.4263481651305
 30
0.0
 40
8.486736459249808
 50
269.908618694372
 51
0.0903345537671835
  0
LINE
  5
33B
  8
OUTER_LOOP
 62
     3
 10
258.7631634048053
 20
407.4397286486475
 30
0.0
 11
258.7626897919162
 21
407.4398257070593
 31
0.0
  0
LINE
  5
33C
  8
OUTER_LOOP
 62
     3
 10
258.7626897919162
 20
407.4398257070593
 30
0.0
 11
258.7631766797253
 21
427.4394272937049
 31
0.0
  0
ARC
  5
33D
  8
OUTER_LOOP
 62
     3
 10
250.299063130181
 20
427.4642668811965
 30
0.0
 40
8.464149997766272
 50
359.8318548736311
 51
69.50014450200968
  0
LINE
  5
33E
  8
OUTER_LOOP
 62
     3
 10
253.2632509404387
 20
435.3924082655442
 30
0.0
 11
241.6042026148814
 21
435.3923110097079
 31
0.0
  0
LINE
  5
33F
  8
OUTER_LOOP
 62
     3
 10
241.6042026148814
 20
435.3923110097079
 30
0.0
 11
241.237945834281
 21
434.9841289881306
 31
0.0
  0
LINE
  5
340
  8
OUTER_LOOP
 62
     3
 10
241.237945834281
 20
434.9841289881306
 30
0.0
 11
238.104243305281
 21
431.4917150021306
 31
0.0
  0
LINE
  5
341
  8
OUTER_LOOP
 62
     3
 10
238.104243305281
 20
431.4917150021306
 30
0.0
 11
234.9706189172811
 21
434.9841950065306
 31
0.0
  0
LINE
  5
342
  8
OUTER_LOOP
 62
     3
 10
234.9706189172811
 20
434.9841950065306
 30
0.0
 11
234.6043711747811
 21
435.3923851457307
 31
0.0
  0
LINE
  5
343
  8
OUTER_LOOP
 62
     3
 10
234.6043711747811
 20
435.3923851457307
 30
0.0
 11
197.1627805495384
 21
435.3929102592162
 31
0.0
  0
LINE
  5
344
  8
OUTER_LOOP
 62
     3
 10
197.1627805495384
 20
435.3929102592162
 30
0.0
 11
197.162741190469
 21
435.3933197265883
 31
0.0
  0
CIRCLE
  5
345
  8
INTERIOR_LOOPS
 62
     3
 10
226.6917015222811
 20
424.6370065133306
 30
0.0
 40
2.998353422585277
  0
CIRCLE
  5
346
  8
INTERIOR_LOOPS
 62
     3
 10
219.240738783981
 20
425.4697124739307
 30
0.0
 40
2.997931180818648
  0
CIRCLE
  5
347
  8
INTERIOR_LOOPS
 62
     3
 10
175.1027578279811
 20
418.8726268575306
 30
0.0
 40
2.997952199561607
  0
CIRCLE
  5
348
  8
INTERIOR_LOOPS
 62
     3
 10
182.1868321804811
 20
421.3296332414307
 30
0.0
 40
2.998218870532735
  0
CIRCLE
  5
349
  8
INTERIOR_LOOPS
 62
     3
 10
189.4335748792811
 20
423.2547125082306
 30
0.0
 40
2.997930468644569
  0
CIRCLE
  5
34A
  8
INTERIOR_LOOPS
 62
     3
 10
196.8030516743811
 20
424.6373168326306
 30
0.0
 40
2.998263212782569
  0
CIRCLE
  5
34B
  8
INTERIOR_LOOPS
 62
     3
 10
204.254790059781
 20
425.4699060684306
 30
0.0
 40
2.998263359820409
  0
CIRCLE
  5
34C
  8
INTERIOR_LOOPS
 62
     3
 10
211.7477949530811
 20
425.7479017741306
 30
0.0
 40
2.997930068970673
  0
CIRCLE
  5
34D
  8
INTERIOR_LOOPS
 62
     3
 10
211.7469222863811
 20
324.6587847813306
 30
0.0
 40
2.997926165514564
  0
LINE
  5
34E
  8
INTERIOR_LOOPS
 62
     3
 10
247.262372726381
 20
344.6586016359306
 30
0.0
 11
247.2626741958827
 21
344.6583817071152
 31
0.0
  0
LINE
  5
34F
  8
INTERIOR_LOOPS
 62
     3
 10
247.2626741958827
 20
344.6583817071152
 30
0.0
 11
247.2626741959562
 21
324.6588080835307
 31
0.0
  0
LINE
  5
350
  8
INTERIOR_LOOPS
 62
     3
 10
247.2626741959562
 20
324.6588080835307
 30
0.0
 11
247.2623727339501
 21
324.6585881625184
 31
0.0
  0
LINE
  5
351
  8
INTERIOR_LOOPS
 62
     3
 10
247.2623727339501
 20
324.6585881625184
 30
0.0
 11
247.262071271944
 21
324.6583682415061
 31
0.0
  0
LINE
  5
352
  8
INTERIOR_LOOPS
 62
     3
 10
247.262071271944
 20
324.6583682415061
 30
0.0
 11
247.4076488313499
 21
324.0738687242176
 31
0.0
  0
ARC
  5
353
  8
INTERIOR_LOOPS
 62
     3
 10
253.435169364419
 20
325.6507318152051
 30
0.0
 40
6.230369249433577
 50
194.6606181230582
 51
200.0813745467671
  0
ARC
  5
354
  8
INTERIOR_LOOPS
 62
     3
 10
250.8313760361798
 20
324.6690483484975
 30
0.0
 40
3.447919332524156
 50
199.6164281477396
 51
209.0986848869174
  0
ARC
  5
355
  8
INTERIOR_LOOPS
 62
     3
 10
249.9394408971771
 20
324.1578761190119
 30
0.0
 40
2.420004678442537
 50
208.793452020034
 51
222.0296390767736
  0
ARC
  5
356
  8
INTERIOR_LOOPS
 62
     3
 10
250.0021519840798
 20
324.2468420611522
 30
0.0
 40
2.526265348525888
 50
222.5761854756093
 51
243.3692563048928
  0
LINE
  5
357
  8
INTERIOR_LOOPS
 62
     3
 10
248.8697818168822
 20
321.9885784769788
 30
0.0
 11
249.0842558865567
 21
321.8900995587779
 31
0.0
  0
ARC
  5
358
  8
INTERIOR_LOOPS
 62
     3
 10
250.2618857449447
 20
324.7779280218572
 30
0.0
 40
3.118712124505596
 50
247.8148173144066
 51
270.0129781160704
  0
ARC
  5
359
  8
INTERIOR_LOOPS
 62
     3
 10
250.2616317884267
 20
324.7867683281839
 30
0.0
 40
3.127552498277994
 50
270.0175938358037
 51
292.1522351366501
  0
ARC
  5
35A
  8
INTERIOR_LOOPS
 62
     3
 10
250.438109584865
 20
324.3714028182094
 30
0.0
 40
2.676311532580706
 50
292.0060201959615
 51
311.8671650288138
  0
LINE
  5
35B
  8
INTERIOR_LOOPS
 62
     3
 10
252.2242956838971
 20
322.3783692913843
 30
0.0
 11
252.3833377985632
 21
322.5376049374408
 31
0.0
  0
ARC
  5
35C
  8
INTERIOR_LOOPS
 62
     3
 10
250.4806676726858
 20
324.232562722291
 30
0.0
 40
2.548143539977802
 50
318.3043559225268
 51
330.8721208979513
  0
LINE
  5
35D
  8
INTERIOR_LOOPS
 62
     3
 10
252.7065614566308
 20
322.9922271374892
 30
0.0
 11
252.83336209408
 21
323.2450941966855
 31
0.0
  0
LINE
  5
35E
  8
INTERIOR_LOOPS
 62
     3
 10
252.83336209408
 20
323.2450941966855
 30
0.0
 11
252.9416373528801
 21
323.5114596265021
 31
0.0
  0
ARC
  5
35F
  8
INTERIOR_LOOPS
 62
     3
 10
246.0977311202054
 20
325.9612171718821
 30
0.0
 40
7.269137813578055
 50
340.3053106893485
 51
344.950978852344
  0
LINE
  5
360
  8
INTERIOR_LOOPS
 62
     3
 10
253.1175668178953
 20
324.0738191401388
 30
0.0
 11
253.2631467516656
 21
324.6583190040041
 31
0.0
  0
LINE
  5
361
  8
INTERIOR_LOOPS
 62
     3
 10
253.2631467516656
 20
324.6583190040041
 30
0.0
 11
253.2626060574045
 21
324.6587134577553
 31
0.0
  0
LINE
  5
362
  8
INTERIOR_LOOPS
 62
     3
 10
253.2626060574045
 20
324.6587134577553
 30
0.0
 11
253.2625143337462
 21
344.6583164110567
 31
0.0
  0
LINE
  5
363
  8
INTERIOR_LOOPS
 62
     3
 10
253.2625143337462
 20
344.6583164110567
 30
0.0
 11
253.2628157954726
 21
344.6585363278205
 31
0.0
  0
LINE
  5
364
  8
INTERIOR_LOOPS
 62
     3
 10
253.2628157954726
 20
344.6585363278205
 30
0.0
 11
253.263117257199
 21
344.6587562445842
 31
0.0
  0
LINE
  5
365
  8
INTERIOR_LOOPS
 62
     3
 10
253.263117257199
 20
344.6587562445842
 30
0.0
 11
253.117542571493
 21
345.2432564253878
 31
0.0
  0
ARC
  5
366
  8
INTERIOR_LOOPS
 62
     3
 10
247.0899590340986
 20
343.6664079670473
 30
0.0
 40
6.230426499112169
 50
14.66034129953851
 51
20.08104948751771
  0
ARC
  5
367
  8
INTERIOR_LOOPS
 62
     3
 10
249.6937777813167
 20
344.6480829602609
 30
0.0
 40
3.447955768144884
 50
19.61612294939459
 51
29.09828815344624
  0
ARC
  5
368
  8
INTERIOR_LOOPS
 62
     3
 10
250.5857290839598
 20
345.1592557123116
 30
0.0
 40
2.42002682381524
 50
28.79306485310318
 51
42.0291501683305
  0
ARC
  5
369
  8
INTERIOR_LOOPS
 62
     3
 10
250.5230290725615
 20
345.0703022215873
 30
0.0
 40
2.526270715907296
 50
42.57567435629415
 51
63.3684755315946
  0
LINE
  5
36A
  8
INTERIOR_LOOPS
 62
     3
 10
251.6554324190921
 20
347.3285551726132
 30
0.0
 11
251.4409491656845
 21
347.4270411628638
 31
0.0
  0
ARC
  5
36B
  8
INTERIOR_LOOPS
 62
     3
 10
250.2633072815886
 20
344.5392592889665
 30
0.0
 40
3.118673525457019
 50
67.81428953617217
 51
90.0127226922363
  0
ARC
  5
36C
  8
INTERIOR_LOOPS
 62
     3
 10
250.2635637078487
 20
344.5304211112217
 30
0.0
 40
3.127511770276159
 50
90.01738444821706
 51
112.1523239464675
  0
ARC
  5
36D
  8
INTERIOR_LOOPS
 62
     3
 10
250.0870969837021
 20
344.9457567793879
 30
0.0
 40
2.676302608839594
 50
112.0061021379771
 51
131.8671089007678
  0
LINE
  5
36E
  8
INTERIOR_LOOPS
 62
     3
 10
248.3009187928357
 20
346.9387854105307
 30
0.0
 11
248.1418690939256
 21
346.7795417799913
 31
0.0
  0
ARC
  5
36F
  8
INTERIOR_LOOPS
 62
     3
 10
250.0445355253796
 20
345.084599978888
 30
0.0
 40
2.548130149444653
 50
138.3045690270065
 51
150.8724097416529
  0
LINE
  5
370
  8
INTERIOR_LOOPS
 62
     3
 10
247.8186471857304
 20
346.324917824411
 30
0.0
 11
247.6918477741901
 21
346.0720499586685
 31
0.0
  0
LINE
  5
371
  8
INTERIOR_LOOPS
 62
     3
 10
247.6918477741901
 20
346.0720499586685
 30
0.0
 11
247.5835739233297
 21
345.8056837629923
 31
0.0
  0
ARC
  5
372
  8
INTERIOR_LOOPS
 62
     3
 10
254.4274489075943
 20
343.3559809875427
 30
0.0
 40
7.269089935355611
 50
160.3056341319891
 51
164.951336201598
  0
LINE
  5
373
  8
INTERIOR_LOOPS
 62
     3
 10
247.4076476747584
 20
345.2433228060174
 30
0.0
 11
247.2620712568794
 21
344.6588215647462
 31
0.0
  0
LINE
  5
374
  8
INTERIOR_LOOPS
 62
     3
 10
247.2620712568794
 20
344.6588215647462
 30
0.0
 11
247.262372726381
 21
344.6586016359306
 31
0.0
  0
LINE
  5
375
  8
INTERIOR_LOOPS
 62
     3
 10
253.2631225259399
 20
407.4396729006121
 30
0.0
 11
253.2628234215666
 21
407.43989251605
 31
0.0
  0
LINE
  5
376
  8
INTERIOR_LOOPS
 62
     3
 10
253.2628234215666
 20
407.43989251605
 30
0.0
 11
253.2630970092442
 21
427.4394333837701
 31
0.0
  0
LINE
  5
377
  8
INTERIOR_LOOPS
 62
     3
 10
253.2630970092442
 20
427.4394333837701
 30
0.0
 11
253.2633961052149
 21
427.4396529917979
 31
0.0
  0
LINE
  5
378
  8
INTERIOR_LOOPS
 62
     3
 10
253.2633961052149
 20
427.4396529917979
 30
0.0
 11
253.2636952011856
 21
427.4398725998257
 31
0.0
  0
LINE
  5
379
  8
INTERIOR_LOOPS
 62
     3
 10
253.2636952011856
 20
427.4398725998257
 30
0.0
 11
253.1924620155229
 21
427.7334168565109
 31
0.0
  0
LINE
  5
37A
  8
INTERIOR_LOOPS
 62
     3
 10
253.1924620155229
 20
427.7334168565109
 30
0.0
 11
253.1172965470512
 21
428.0240741814164
 31
0.0
  0
ARC
  5
37B
  8
INTERIOR_LOOPS
 62
     3
 10
247.0711806883341
 20
426.4406347047247
 30
0.0
 40
6.250023804224747
 50
14.67579845728996
 51
20.08052373293136
  0
ARC
  5
37C
  8
INTERIOR_LOOPS
 62
     3
 10
249.6730269267132
 20
427.4219060434556
 30
0.0
 40
3.469546441773856
 50
19.61314540611026
 51
29.03558303958575
  0
ARC
  5
37D
  8
INTERIOR_LOOPS
 62
     3
 10
250.594968612127
 20
427.9496672915903
 30
0.0
 40
2.407365969810005
 50
28.70322312325893
 51
42.0027848633648
  0
ARC
  5
37E
  8
INTERIOR_LOOPS
 62
     3
 10
250.5274594745402
 20
427.8544240870631
 30
0.0
 40
2.521396402374446
 50
42.58455960030957
 51
63.42501723472374
  0
LINE
  5
37F
  8
INTERIOR_LOOPS
 62
     3
 10
251.6554531232571
 20
430.1094340973205
 30
0.0
 11
251.440830245374
 21
430.2078846464427
 31
0.0
  0
ARC
  5
380
  8
INTERIOR_LOOPS
 62
     3
 10
250.2625725439794
 20
427.3200692673171
 30
0.0
 40
3.118937138643577
 50
67.80404675421336
 51
89.9890771842989
  0
ARC
  5
381
  8
INTERIOR_LOOPS
 62
     3
 10
250.264989200092
 20
427.3136990693943
 30
0.0
 40
3.125307811025152
 50
90.03340363019356
 51
112.1726700377184
  0
ARC
  5
382
  8
INTERIOR_LOOPS
 62
     3
 10
250.0886613253377
 20
427.7225929274005
 30
0.0
 40
2.680120400495487
 50
111.9808576477166
 51
131.8237916211821
  0
LINE
  5
383
  8
INTERIOR_LOOPS
 62
     3
 10
248.3014445688522
 20
429.7198164067562
 30
0.0
 11
248.1424210168464
 21
429.5606030837188
 31
0.0
  0
ARC
  5
384
  8
INTERIOR_LOOPS
 62
     3
 10
250.0427236808226
 20
427.870717642844
 30
0.0
 40
2.543002756191211
 50
138.3542094907193
 51
150.9414944001688
  0
ARC
  5
385
  8
INTERIOR_LOOPS
 62
     3
 10
251.1860126593501
 20
427.271661675598
 30
0.0
 40
3.833472927436619
 50
151.4145305932456
 51
159.9408165634242
  0
ARC
  5
386
  8
INTERIOR_LOOPS
 62
     3
 10
254.4860106688959
 20
426.1176432771508
 30
0.0
 40
7.329262903298543
 50
160.314913423949
 51
164.9232707872834
  0
LINE
  5
387
  8
INTERIOR_LOOPS
 62
     3
 10
247.4090330467155
 20
428.0240751382006
 30
0.0
 11
247.2626036892125
 21
427.4398921363522
 31
0.0
  0
LINE
  5
388
  8
INTERIOR_LOOPS
 62
     3
 10
247.2626036892125
 20
427.4398921363522
 30
0.0
 11
247.2631402245019
 21
427.4394981842087
 31
0.0
  0
LINE
  5
389
  8
INTERIOR_LOOPS
 62
     3
 10
247.2631402245019
 20
427.4394981842087
 30
0.0
 11
247.2629506493954
 21
407.4399065367609
 31
0.0
  0
LINE
  5
38A
  8
INTERIOR_LOOPS
 62
     3
 10
247.2629506493954
 20
407.4399065367609
 30
0.0
 11
247.2626515506552
 21
407.4396869295326
 31
0.0
  0
LINE
  5
38B
  8
INTERIOR_LOOPS
 62
     3
 10
247.2626515506552
 20
407.4396869295326
 30
0.0
 11
247.2623524519149
 21
407.4394673223044
 31
0.0
  0
LINE
  5
38C
  8
INTERIOR_LOOPS
 62
     3
 10
247.2623524519149
 20
407.4394673223044
 30
0.0
 11
247.3335837006643
 21
407.1459226028979
 31
0.0
  0
LINE
  5
38D
  8
INTERIOR_LOOPS
 62
     3
 10
247.3335837006643
 20
407.1459226028979
 30
0.0
 11
247.4087472686065
 21
406.8552648047494
 31
0.0
  0
ARC
  5
38E
  8
INTERIOR_LOOPS
 62
     3
 10
253.4548562274339
 20
408.4386610644704
 30
0.0
 40
6.250006180581879
 50
194.6754312244522
 51
200.0801708760626
  0
ARC
  5
38F
  8
INTERIOR_LOOPS
 62
     3
 10
250.8530077807293
 20
407.4574079760764
 30
0.0
 40
3.469533178486367
 50
199.6128035584812
 51
209.0352743831162
  0
ARC
  5
390
  8
INTERIOR_LOOPS
 62
     3
 10
249.9310644485008
 20
406.929652926883
 30
0.0
 40
2.407354347877927
 50
208.7029246884117
 51
222.0025478945569
  0
ARC
  5
391
  8
INTERIOR_LOOPS
 62
     3
 10
249.9985712547721
 20
407.0248931157703
 30
0.0
 40
2.521380922831183
 50
222.5843214342961
 51
243.4246618634629
  0
LINE
  5
392
  8
INTERIOR_LOOPS
 62
     3
 10
248.8705705447539
 20
404.7699039459038
 30
0.0
 11
249.0852032113332
 21
404.6714479185225
 31
0.0
  0
ARC
  5
393
  8
INTERIOR_LOOPS
 62
     3
 10
250.2634525045079
 20
407.5592274721104
 30
0.0
 40
3.118900791462706
 50
247.8039411447811
 51
269.989218553426
  0
ARC
  5
394
  8
INTERIOR_LOOPS
 62
     3
 10
250.2610334048268
 20
407.5655950210035
 30
0.0
 40
3.125268822211069
 50
270.0335900531709
 51
292.1731040339643
  0
ARC
  5
395
  8
INTERIOR_LOOPS
 62
     3
 10
250.4373438667754
 20
407.1567529348083
 30
0.0
 40
2.680135858657951
 50
291.9812918599202
 51
311.8238893443108
  0
LINE
  5
396
  8
INTERIOR_LOOPS
 62
     3
 10
252.2245743378745
 20
405.159520984323
 30
0.0
 11
252.3836052079893
 21
405.3187425081011
 31
0.0
  0
ARC
  5
397
  8
INTERIOR_LOOPS
 62
     3
 10
250.4832716882657
 20
407.0086407267976
 30
0.0
 40
2.543034304868571
 50
318.3544563329696
 51
330.9415974538435
  0
ARC
  5
398
  8
INTERIOR_LOOPS
 62
     3
 10
249.3399781204098
 20
407.6076980187879
 30
0.0
 40
3.833509176559307
 50
331.4146104938146
 51
339.9408159008168
  0
ARC
  5
399
  8
INTERIOR_LOOPS
 62
     3
 10
246.039978629447
 20
408.7617190232597
 30
0.0
 40
7.32930142403976
 50
340.3148959465418
 51
344.9232242844462
  0
LINE
  5
39A
  8
INTERIOR_LOOPS
 62
     3
 10
253.1169918990982
 20
406.855271398589
 30
0.0
 11
253.2634216303132
 21
407.4394532851742
 31
0.0
  0
LINE
  5
39B
  8
INTERIOR_LOOPS
 62
     3
 10
253.2634216303132
 20
407.4394532851742
 30
0.0
 11
253.2631225259399
 21
407.4396729006121
 31
0.0
  0
LINE
  5
39C
  8
OUTER_LOOP
 62
     3
 10
14.48493910000003
 20
129.5484851
 30
0.0
 11
12.75432639500003
 21
136.4130896017
 31
0.0
  0
LINE
  5
39D
  8
OUTER_LOOP
 62
     3
 10
12.75432639500003
 20
136.4130896017
 30
0.0
 11
7.906026679600025
 21
135.1908008182
 31
0.0
  0
LINE
  5
39E
  8
OUTER_LOOP
 62
     3
 10
7.906026679600025
 20
135.1908008182
 30
0.0
 11
5.208912234620321
 21
119.5357377967432
 31
0.0
  0
ARC
  5
39F
  8
OUTER_LOOP
 62
     3
 10
17.54502492240002
 20
117.4104248753
 30
0.0
 40
12.51785250191312
 50
170.2248236861
 51
270.0
  0
LINE
  5
3A0
  8
OUTER_LOOP
 62
     3
 10
17.54502492240002
 20
104.8925723733869
 30
0.0
 11
106.8085333092
 21
99.99999985989999
 31
0.0
  0
LINE
  5
3A1
  8
OUTER_LOOP
 62
     3
 10
106.8085333092
 20
99.99999985989999
 30
0.0
 11
181.3449798539
 21
99.99999985989999
 31
0.0
  0
LINE
  5
3A2
  8
OUTER_LOOP
 62
     3
 10
181.3449798539
 20
99.99999985989999
 30
0.0
 11
181.3449798539
 21
97.49999985989999
 31
0.0
  0
LINE
  5
3A3
  8
OUTER_LOOP
 62
     3
 10
181.3449798539
 20
97.49999985989999
 30
0.0
 11
185.3449798539
 21
97.49999985989999
 31
0.0
  0
ARC
  5
3A4
  8
OUTER_LOOP
 62
     3
 10
185.3449798540362
 20
137.9194044165275
 30
0.0
 40
40.4194045566275
 50
269.999999999807
 51
281.4156294463031
  0
LINE
  5
3A5
  8
OUTER_LOOP
 62
     3
 10
193.3449798538909
 20
98.29960804256004
 30
0.0
 11
193.3449798539
 21
100.2996080426
 31
0.0
  0
ARC
  5
3A6
  8
OUTER_LOOP
 62
     3
 10
148.7842714013305
 20
668.3680424599054
 30
0.0
 40
569.8134808155413
 50
274.4852396956867
 51
280.0182577194969
  0
LINE
  5
3A7
  8
OUTER_LOOP
 62
     3
 10
247.9101556286712
 20
107.2428674808539
 30
0.0
 11
218.9231826368
 21
119.5166308195
 31
0.0
  0
LINE
  5
3A8
  8
OUTER_LOOP
 62
     3
 10
218.9231826368
 20
119.5166308195
 30
0.0
 11
132.4845514641
 21
123.172645431
 31
0.0
  0
LINE
  5
3A9
  8
OUTER_LOOP
 62
     3
 10
132.4845514641
 20
123.172645431
 30
0.0
 11
77.72153087880002
 21
128.8720035503
 31
0.0
  0
ARC
  5
3AA
  8
OUTER_LOOP
 62
     3
 10
78.89343936998534
 20
140.1324380564131
 30
0.0
 40
11.32125235025585
 50
228.3529786906995
 51
264.0584395968682
  0
LINE
  5
3AB
  8
OUTER_LOOP
 62
     3
 10
71.37001784900085
 20
131.6725986137427
 30
0.0
 11
75.37670374250001
 21
157.9892198303
 31
0.0
  0
LINE
  5
3AC
  8
OUTER_LOOP
 62
     3
 10
75.37670374250001
 20
157.9892198303
 30
0.0
 11
69.37184995590002
 21
158.9034543273
 31
0.0
  0
ARC
  5
3AD
  8
OUTER_LOOP
 62
     3
 10
61.48129950093121
 20
107.0769241130566
 30
0.0
 40
52.42375435363522
 50
81.34323935296024
 51
113.3473806467562
  0
LINE
  5
3AE
  8
OUTER_LOOP
 62
     3
 10
40.70551009038584
 20
155.2081675511703
 30
0.0
 11
24.08517402570002
 21
128.0839004557
 31
0.0
  0
ARC
  5
3AF
  8
OUTER_LOOP
 62
     3
 10
17.5450249223893
 20
117.4104248752662
 30
0.0
 40
12.51785250191313
 50
58.50220555630615
 51
104.149789603712
  0
CIRCLE
  5
3B0
  8
INTERIOR_LOOPS
 62
     3
 10
220.555332017
 20
110.6377381915
 30
0.0
 40
2.499999999999999
  0
CIRCLE
  5
3B1
  8
INTERIOR_LOOPS
 62
     3
 10
126.8763451563
 20
111.3660896278
 30
0.0
 40
5.999999999999998
  0
CIRCLE
  5
3B2
  8
INTERIOR_LOOPS
 62
     3
 10
36.16110135750002
 20
111.0002059258
 30
0.0
 40
2.999999999999999
  0
CIRCLE
  5
3B3
  8
INTERIOR_LOOPS
 62
     3
 10
100.4835828161
 20
113.4248795567
 30
0.0
 40
7.000000000000063
  0
CIRCLE
  5
3B4
  8
INTERIOR_LOOPS
 62
     3
 10
50.81179648150002
 20
129.8971008772
 30
0.0
 40
8.0
  0
CIRCLE
  5
3B5
  8
INTERIOR_LOOPS
 62
     3
 10
153.6462927556
 20
110.4264459411
 30
0.0
 40
5.000000000000001
  0
CIRCLE
  5
3B6
  8
INTERIOR_LOOPS
 62
     3
 10
17.54502466100002
 20
117.4104237205
 30
0.0
 40
7.0
  0
CIRCLE
  5
3B7
  8
INTERIOR_LOOPS
 62
     3
 10
59.63673283530002
 20
146.7865851146
 30
0.0
 40
5.000000000000002
  0
LINE
  5
3B8
  8
INTERIOR_LOOPS
 62
     3
 10
191.4840719614
 20
107.0144585217
 30
0.0
 11
183.2840719614
 21
107.0144585217
 31
0.0
  0
LINE
  5
3B9
  8
INTERIOR_LOOPS
 62
     3
 10
183.2840719614
 20
107.0144585217
 30
0.0
 11
183.2840719614
 21
103.8144585217
 31
0.0
  0
LINE
  5
3BA
  8
INTERIOR_LOOPS
 62
     3
 10
183.2840719614
 20
103.8144585217
 30
0.0
 11
191.4840719614
 21
103.8144585217
 31
0.0
  0
LINE
  5
3BB
  8
INTERIOR_LOOPS
 62
     3
 10
191.4840719614
 20
103.8144585217
 30
0.0
 11
191.4840719614
 21
107.0144585217
 31
0.0
  0
LINE
  5
3BC
  8
INTERIOR_LOOPS
 62
     3
 10
44.70993014870002
 20
146.544385214
 30
0.0
 11
42.11463518500002
 21
148.4164012533
 31
0.0
  0
LINE
  5
3BD
  8
INTERIOR_LOOPS
 62
     3
 10
42.11463518500002
 20
148.4164012533
 30
0.0
 11
36.14758405960003
 21
140.1438985567
 31
0.0
  0
LINE
  5
3BE
  8
INTERIOR_LOOPS
 62
     3
 10
36.14758405960003
 20
140.1438985567
 30
0.0
 11
38.74287902320003
 21
138.2718825173
 31
0.0
  0
LINE
  5
3BF
  8
INTERIOR_LOOPS
 62
     3
 10
38.74287902320003
 20
138.2718825173
 30
0.0
 11
44.70993014870002
 21
146.544385214
 31
0.0
  0
ARC
  5
3C0
  8
INTERIOR_LOOPS
 62
     3
 10
59.0637786113567
 20
112.8282040861035
 30
0.0
 40
2.999999999999986
 50
84.41257072946952
 51
264.4125623642304
  0
ARC
  5
3C1
  8
INTERIOR_LOOPS
 62
     3
 10
70.60865313977013
 20
230.8384515699839
 30
0.0
 40
121.57361696045
 50
264.4125665482485
 51
277.0467243220617
  0
ARC
  5
3C2
  8
INTERIOR_LOOPS
 62
     3
 10
85.15512378644868
 20
113.1604891861366
 30
0.0
 40
2.99999999999996
 50
277.0465051363331
 51
97.04694350584609
  0
ARC
  5
3C3
  8
INTERIOR_LOOPS
 62
     3
 10
70.60865313997004
 20
230.8384515699644
 30
0.0
 40
115.5736169604501
 50
264.4125665482216
 51
277.0467243220149
  0
LINE
  5
3C4
  8
OUTER_LOOP
 62
     3
 10
219.4095576565023
 20
38.0000001
 30
0.0
 11
217.4095576565023
 21
38.0000001
 31
0.0
  0
LINE
  5
3C5
  8
OUTER_LOOP
 62
     3
 10
217.4095576565023
 20
38.0000001
 30
0.0
 11
217.4095576565023
 21
8.000000100000001
 31
0.0
  0
LINE
  5
3C6
  8
OUTER_LOOP
 62
     3
 10
217.4095576565023
 20
8.000000100000001
 30
0.0
 11
219.4095576565023
 21
8.000000100000001
 31
0.0
  0
LINE
  5
3C7
  8
OUTER_LOOP
 62
     3
 10
219.4095576565023
 20
8.000000100000001
 30
0.0
 11
219.4095576565023
 21
5.000000100000001
 31
0.0
  0
LINE
  5
3C8
  8
OUTER_LOOP
 62
     3
 10
219.4095576565023
 20
5.000000100000001
 30
0.0
 11
229.4095576565023
 21
5.000000100000001
 31
0.0
  0
LINE
  5
3C9
  8
OUTER_LOOP
 62
     3
 10
229.4095576565023
 20
5.000000100000001
 30
0.0
 11
229.4095576565023
 21
8.000000100000001
 31
0.0
  0
LINE
  5
3CA
  8
OUTER_LOOP
 62
     3
 10
229.4095576565023
 20
8.000000100000001
 30
0.0
 11
231.4095576565023
 21
8.000000100000001
 31
0.0
  0
LINE
  5
3CB
  8
OUTER_LOOP
 62
     3
 10
231.4095576565023
 20
8.000000100000001
 30
0.0
 11
231.4095576565023
 21
38.0000001
 31
0.0
  0
LINE
  5
3CC
  8
OUTER_LOOP
 62
     3
 10
231.4095576565023
 20
38.0000001
 30
0.0
 11
229.4095576565023
 21
38.0000001
 31
0.0
  0
LINE
  5
3CD
  8
OUTER_LOOP
 62
     3
 10
229.4095576565023
 20
38.0000001
 30
0.0
 11
229.4095576565023
 21
41.0000001
 31
0.0
  0
LINE
  5
3CE
  8
OUTER_LOOP
 62
     3
 10
229.4095576565023
 20
41.0000001
 30
0.0
 11
219.4095576565023
 21
41.0000001
 31
0.0
  0
LINE
  5
3CF
  8
OUTER_LOOP
 62
     3
 10
219.4095576565023
 20
41.0000001
 30
0.0
 11
219.4095576565023
 21
38.0000001
 31
0.0
  0
LINE
  5
3D0
  8
OUTER_LOOP
 62
     3
 10
227.1755843747195
 20
200.8231867692155
 30
0.0
 11
227.1755843747195
 21
220.8231867692155
 31
0.0
  0
LINE
  5
3D1
  8
OUTER_LOOP
 62
     3
 10
227.1755843747195
 20
220.8231867692155
 30
0.0
 11
225.1755843747195
 21
220.8231867692155
 31
0.0
  0
LINE
  5
3D2
  8
OUTER_LOOP
 62
     3
 10
225.1755843747195
 20
220.8231867692155
 30
0.0
 11
225.1755843747195
 21
223.8231867692155
 31
0.0
  0
LINE
  5
3D3
  8
OUTER_LOOP
 62
     3
 10
225.1755843747195
 20
223.8231867692155
 30
0.0
 11
215.1755843747195
 21
223.8231867692155
 31
0.0
  0
LINE
  5
3D4
  8
OUTER_LOOP
 62
     3
 10
215.1755843747195
 20
223.8231867692155
 30
0.0
 11
215.1755843747195
 21
220.8231867692155
 31
0.0
  0
LINE
  5
3D5
  8
OUTER_LOOP
 62
     3
 10
215.1755843747195
 20
220.8231867692155
 30
0.0
 11
213.1755843747195
 21
220.8231867692155
 31
0.0
  0
LINE
  5
3D6
  8
OUTER_LOOP
 62
     3
 10
213.1755843747195
 20
220.8231867692155
 30
0.0
 11
213.1755843747195
 21
200.8231867692155
 31
0.0
  0
LINE
  5
3D7
  8
OUTER_LOOP
 62
     3
 10
213.1755843747195
 20
200.8231867692155
 30
0.0
 11
215.1755843747195
 21
200.8231867692155
 31
0.0
  0
LINE
  5
3D8
  8
OUTER_LOOP
 62
     3
 10
215.1755843747195
 20
200.8231867692155
 30
0.0
 11
215.1755843747195
 21
197.8231867692155
 31
0.0
  0
LINE
  5
3D9
  8
OUTER_LOOP
 62
     3
 10
215.1755843747195
 20
197.8231867692155
 30
0.0
 11
225.1755843747195
 21
197.8231867692155
 31
0.0
  0
LINE
  5
3DA
  8
OUTER_LOOP
 62
     3
 10
225.1755843747195
 20
197.8231867692155
 30
0.0
 11
225.1755843747195
 21
200.8231867692155
 31
0.0
  0
LINE
  5
3DB
  8
OUTER_LOOP
 62
     3
 10
225.1755843747195
 20
200.8231867692155
 30
0.0
 11
227.1755843747195
 21
200.8231867692155
 31
0.0
  0
CIRCLE
  5
3DC
  8
INTERIOR_LOOPS
 62
     3
 10
220.1755843747195
 20
210.8231867692155
 30
0.0
 40
2.000000000000002
  0
ARC
  5
3DD
  8
OUTER_LOOP
 62
     3
 10
198.9771293618216
 20
13.0013752569138
 30
0.0
 40
7.999999999999991
 50
260.2438141015136
 51
62.92044238341262
  0
LINE
  5
3DE
  8
OUTER_LOOP
 62
     3
 10
202.6189474576684
 20
20.12437750012294
 30
0.0
 11
218.3480840287684
 21
50.88886713862294
 31
0.0
  0
LINE
  5
3DF
  8
OUTER_LOOP
 62
     3
 10
218.3480840287684
 20
50.88886713862294
 30
0.0
 11
216.9948377699034
 21
64.18825257025526
 31
0.0
  0
ARC
  5
3E0
  8
OUTER_LOOP
 62
     3
 10
212.0205224437745
 20
63.68210334696305
 30
0.0
 40
5.0
 50
5.80999479228987
 51
62.92044238225914
  0
LINE
  5
3E1
  8
OUTER_LOOP
 62
     3
 10
214.2966587537684
 20
68.13397974892294
 30
0.0
 11
207.5554201833188
 21
71.58061134856186
 31
0.0
  0
ARC
  5
3E2
  8
OUTER_LOOP
 62
     3
 10
203.0031475633721
 20
62.67685854462107
 30
0.0
 40
9.99999999999999
 50
62.92044238252358
 51
152.3474750380713
  0
LINE
  5
3E3
  8
OUTER_LOOP
 62
     3
 10
194.1453626843684
 20
67.31794107322294
 30
0.0
 11
196.8160433267684
 21
65.95248690662295
 31
0.0
  0
LINE
  5
3E4
  8
OUTER_LOOP
 62
     3
 10
196.8160433267684
 20
65.95248690662295
 30
0.0
 11
187.6204526344684
 21
47.96690624262294
 31
0.0
  0
LINE
  5
3E5
  8
OUTER_LOOP
 62
     3
 10
187.6204526344684
 20
47.96690624262294
 30
0.0
 11
184.5169609830684
 21
49.55364616932294
 31
0.0
  0
LINE
  5
3E6
  8
OUTER_LOOP
 62
     3
 10
184.5169609830684
 20
49.55364616932294
 30
0.0
 11
179.2764676912684
 21
51.00137525692294
 31
0.0
  0
LINE
  5
3E7
  8
OUTER_LOOP
 62
     3
 10
179.2764676912684
 20
51.00137525692294
 30
0.0
 11
160.8865738097684
 21
51.00137525692294
 31
0.0
  0
ARC
  5
3E8
  8
OUTER_LOOP
 62
     3
 10
153.0062303860803
 20
49.62290236102108
 30
0.0
 40
8.000000000000037
 50
9.922102928072636
 51
261.0902943024136
  0
LINE
  5
3E9
  8
OUTER_LOOP
 62
     3
 10
151.7672084588572
 20
41.71943320729745
 30
0.0
 11
151.7672084588684
 21
19.70800234532294
 31
0.0
  0
ARC
  5
3EA
  8
OUTER_LOOP
 62
     3
 10
153.0062303859048
 20
13.83732737013287
 30
0.0
 40
5.999999999999988
 50
101.9175357303152
 51
266.5250562506652
  0
LINE
  5
3EB
  8
OUTER_LOOP
 62
     3
 10
152.6425581739981
 20
7.848358967954852
 30
0.0
 11
197.6214821
 21
5.1170731
 31
0.0
  0
CIRCLE
  5
3EC
  8
INTERIOR_LOOPS
 62
     3
 10
211.8925423101684
 20
63.29823878782294
 30
0.0
 40
3.000000000000003
  0
CIRCLE
  5
3ED
  8
INTERIOR_LOOPS
 62
     3
 10
198.9771293617684
 20
13.00137525692294
 30
0.0
 40
3.0
  0
CIRCLE
  5
3EE
  8
INTERIOR_LOOPS
 62
     3
 10
153.0062303860684
 20
49.62290236102294
 30
0.0
 40
3.0
  0
CIRCLE
  5
3EF
  8
INTERIOR_LOOPS
 62
     3
 10
153.0062303860684
 20
13.83732737012294
 30
0.0
 40
2.999999999999999
  0
LINE
  5
3F0
  8
INTERIOR_LOOPS
 62
     3
 10
189.9906137304684
 20
21.10137525692294
 30
0.0
 11
169.7906137304684
 21
21.10137525692294
 31
0.0
  0
LINE
  5
3F1
  8
INTERIOR_LOOPS
 62
     3
 10
169.7906137304684
 20
21.10137525692294
 30
0.0
 11
169.7906137304684
 21
17.90137525692294
 31
0.0
  0
LINE
  5
3F2
  8
INTERIOR_LOOPS
 62
     3
 10
169.7906137304684
 20
17.90137525692294
 30
0.0
 11
189.9906137304684
 21
17.90137525692294
 31
0.0
  0
LINE
  5
3F3
  8
INTERIOR_LOOPS
 62
     3
 10
189.9906137304684
 20
17.90137525692294
 30
0.0
 11
189.9906137304684
 21
21.10137525692294
 31
0.0
  0
LINE
  5
3F4
  8
INTERIOR_LOOPS
 62
     3
 10
176.7966956517684
 20
46.10137525692294
 30
0.0
 11
161.5966956517684
 21
46.10137525692294
 31
0.0
  0
LINE
  5
3F5
  8
INTERIOR_LOOPS
 62
     3
 10
161.5966956517684
 20
46.10137525692294
 30
0.0
 11
161.5966956517684
 21
42.90137525692294
 31
0.0
  0
LINE
  5
3F6
  8
INTERIOR_LOOPS
 62
     3
 10
161.5966956517684
 20
42.90137525692294
 30
0.0
 11
176.7966956517684
 21
42.90137525692294
 31
0.0
  0
LINE
  5
3F7
  8
INTERIOR_LOOPS
 62
     3
 10
176.7966956517684
 20
42.90137525692294
 30
0.0
 11
176.7966956517684
 21
46.10137525692294
 31
0.0
  0
LINE
  5
3F8
  8
OUTER_LOOP
 62
     3
 10
213.2251688319206
 20
361.9244223186778
 30
0.0
 11
209.2251688319206
 21
361.9244223186778
 31
0.0
  0
LINE
  5
3F9
  8
OUTER_LOOP
 62
     3
 10
209.2251688319206
 20
361.9244223186778
 30
0.0
 11
209.2251688319206
 21
377.8468337858778
 31
0.0
  0
LINE
  5
3FA
  8
OUTER_LOOP
 62
     3
 10
209.2251688319206
 20
377.8468337858778
 30
0.0
 11
213.2251688319206
 21
377.8468337858778
 31
0.0
  0
LINE
  5
3FB
  8
OUTER_LOOP
 62
     3
 10
213.2251688319206
 20
377.8468337858778
 30
0.0
 11
213.2251688319206
 21
384.8856280522779
 31
0.0
  0
LINE
  5
3FC
  8
OUTER_LOOP
 62
     3
 10
213.2251688319206
 20
384.8856280522779
 30
0.0
 11
209.2251688319206
 21
384.8856280522779
 31
0.0
  0
LINE
  5
3FD
  8
OUTER_LOOP
 62
     3
 10
209.2251688319206
 20
384.8856280522779
 30
0.0
 11
209.2251688319206
 21
387.8856280522779
 31
0.0
  0
LINE
  5
3FE
  8
OUTER_LOOP
 62
     3
 10
209.2251688319206
 20
387.8856280522779
 30
0.0
 11
203.2251688319206
 21
387.8856280522779
 31
0.0
  0
LINE
  5
3FF
  8
OUTER_LOOP
 62
     3
 10
203.2251688319206
 20
387.8856280522779
 30
0.0
 11
203.2251688319206
 21
351.8856280522779
 31
0.0
  0
LINE
  5
400
  8
OUTER_LOOP
 62
     3
 10
203.2251688319206
 20
351.8856280522779
 30
0.0
 11
209.2251688319206
 21
351.8856280522779
 31
0.0
  0
LINE
  5
401
  8
OUTER_LOOP
 62
     3
 10
209.2251688319206
 20
351.8856280522779
 30
0.0
 11
209.2251688319206
 21
354.8856280522779
 31
0.0
  0
LINE
  5
402
  8
OUTER_LOOP
 62
     3
 10
209.2251688319206
 20
354.8856280522779
 30
0.0
 11
213.2251688319206
 21
354.8856280522779
 31
0.0
  0
LINE
  5
403
  8
OUTER_LOOP
 62
     3
 10
213.2251688319206
 20
354.8856280522779
 30
0.0
 11
213.2251688319206
 21
361.9244223186778
 31
0.0
  0
LINE
  5
404
  8
OUTER_LOOP
 62
     3
 10
189.0000001
 20
88.6848081
 30
0.0
 11
186.0000001
 21
88.6848081
 31
0.0
  0
LINE
  5
405
  8
OUTER_LOOP
 62
     3
 10
186.0000001
 20
88.6848081
 30
0.0
 11
186.0000001
 21
80.6848081
 31
0.0
  0
LINE
  5
406
  8
OUTER_LOOP
 62
     3
 10
186.0000001
 20
80.6848081
 30
0.0
 11
189.0000001
 21
80.6848081
 31
0.0
  0
LINE
  5
407
  8
OUTER_LOOP
 62
     3
 10
189.0000001
 20
80.6848081
 30
0.0
 11
189.0000001
 21
77.6848081
 31
0.0
  0
LINE
  5
408
  8
OUTER_LOOP
 62
     3
 10
189.0000001
 20
77.6848081
 30
0.0
 11
209.0000001
 21
77.6848081
 31
0.0
  0
LINE
  5
409
  8
OUTER_LOOP
 62
     3
 10
209.0000001
 20
77.6848081
 30
0.0
 11
209.0000001
 21
80.6848081
 31
0.0
  0
LINE
  5
40A
  8
OUTER_LOOP
 62
     3
 10
209.0000001
 20
80.6848081
 30
0.0
 11
212.0000001
 21
80.6848081
 31
0.0
  0
LINE
  5
40B
  8
OUTER_LOOP
 62
     3
 10
212.0000001
 20
80.6848081
 30
0.0
 11
212.0000001
 21
88.6848081
 31
0.0
  0
LINE
  5
40C
  8
OUTER_LOOP
 62
     3
 10
212.0000001
 20
88.6848081
 30
0.0
 11
209.0000001
 21
88.6848081
 31
0.0
  0
LINE
  5
40D
  8
OUTER_LOOP
 62
     3
 10
209.0000001
 20
88.6848081
 30
0.0
 11
209.0000001
 21
91.6848081
 31
0.0
  0
LINE
  5
40E
  8
OUTER_LOOP
 62
     3
 10
209.0000001
 20
91.6848081
 30
0.0
 11
189.0000001
 21
91.6848081
 31
0.0
  0
LINE
  5
40F
  8
OUTER_LOOP
 62
     3
 10
189.0000001
 20
91.6848081
 30
0.0
 11
189.0000001
 21
88.6848081
 31
0.0
  0
CIRCLE
  5
410
  8
INTERIOR_LOOPS
 62
     3
 10
199.0000001
 20
84.6848081
 30
0.0
 40
3.000000000000003
  0
LINE
  5
411
  8
OUTER_LOOP
 62
     3
 10
195.9949788029475
 20
235.8153922350859
 30
0.0
 11
179.8949788029475
 21
235.8153922350859
 31
0.0
  0
ARC
  5
412
  8
OUTER_LOOP
 62
     3
 10
179.8949788029475
 20
230.8153922350859
 30
0.0
 40
5.000000000000004
 50
90.0
 51
180.0
  0
LINE
  5
413
  8
OUTER_LOOP
 62
     3
 10
174.8949788029475
 20
230.8153922350859
 30
0.0
 11
174.8949788029475
 21
157.7110278226859
 31
0.0
  0
LINE
  5
414
  8
OUTER_LOOP
 62
     3
 10
174.8949788029475
 20
157.7110278226859
 30
0.0
 11
176.8949788029475
 21
143.0848894599859
 31
0.0
  0
ARC
  5
415
  8
OUTER_LOOP
 62
     3
 10
187.8949788029475
 20
143.0848894606172
 30
0.0
 40
11.0
 50
180.0000000032882
 51
4.559511743068134
  0
LINE
  5
416
  8
OUTER_LOOP
 62
     3
 10
198.8601671295475
 20
143.9593292596859
 30
0.0
 11
196.1722510454282
 21
177.6649154859058
 31
0.0
  0
ARC
  5
417
  8
OUTER_LOOP
 62
     3
 10
209.1969764757588
 20
179.4688522810042
 30
0.0
 40
13.14905549825579
 50
106.8753685163605
 51
187.8853547244407
  0
ARC
  5
418
  8
OUTER_LOOP
 62
     3
 10
203.9284720529554
 20
196.8363816569883
 30
0.0
 40
4.999999999999998
 50
286.8753685166051
 51
18.22523333023247
  0
LINE
  5
419
  8
OUTER_LOOP
 62
     3
 10
208.6776440811475
 20
198.4001479587859
 30
0.0
 11
200.9949788029475
 21
221.7324700590859
 31
0.0
  0
LINE
  5
41A
  8
OUTER_LOOP
 62
     3
 10
200.9949788029475
 20
221.7324700590859
 30
0.0
 11
200.9949788029475
 21
230.8153922350859
 31
0.0
  0
ARC
  5
41B
  8
OUTER_LOOP
 62
     3
 10
195.9949788029475
 20
230.8153922350859
 30
0.0
 40
4.999999999999997
 50
0.0
 51
90.0
  0
CIRCLE
  5
41C
  8
INTERIOR_LOOPS
 62
     3
 10
203.9284720529475
 20
196.8363816569859
 30
0.0
 40
3.000000000000003
  0
CIRCLE
  5
41D
  8
INTERIOR_LOOPS
 62
     3
 10
187.8949788029475
 20
143.0848894599859
 30
0.0
 40
3.000000000000003
  0
LINE
  5
41E
  8
INTERIOR_LOOPS
 62
     3
 10
179.7949788029475
 20
227.6153922350859
 30
0.0
 11
195.9949788029475
 21
227.6153922350859
 31
0.0
  0
LINE
  5
41F
  8
INTERIOR_LOOPS
 62
     3
 10
195.9949788029475
 20
227.6153922350859
 30
0.0
 11
195.9949788029475
 21
230.8153922350859
 31
0.0
  0
LINE
  5
420
  8
INTERIOR_LOOPS
 62
     3
 10
195.9949788029475
 20
230.8153922350859
 30
0.0
 11
179.7949788029475
 21
230.8153922350859
 31
0.0
  0
LINE
  5
421
  8
INTERIOR_LOOPS
 62
     3
 10
179.7949788029475
 20
230.8153922350859
 30
0.0
 11
179.7949788029475
 21
227.6153922350859
 31
0.0
  0
ARC
  5
422
  8
OUTER_LOOP
 62
     3
 10
147.4624817945356
 20
370.864590414637
 30
0.0
 40
50.86034197935419
 50
3.543685668417721
 51
33.599958768706
  0
ARC
  5
423
  8
OUTER_LOOP
 62
     3
 10
181.5953031368503
 20
396.3856753684479
 30
0.0
 40
8.638224402910232
 50
17.68790111832602
 51
139.0869903832765
  0
ARC
  5
424
  8
OUTER_LOOP
 62
     3
 10
181.4439175748662
 20
396.5433459142125
 30
0.0
 40
8.420584981203087
 50
139.223130664435
 51
189.1933809252529
  0
ARC
  5
425
  8
OUTER_LOOP
 62
     3
 10
115.5478143009487
 20
394.3633692882377
 30
0.0
 40
57.58973152460735
 50
318.6187946859725
 51
0.8304126258939871
  0
ARC
  5
426
  8
OUTER_LOOP
 62
     3
 10
140.6671932216831
 20
372.2161076536179
 30
0.0
 40
24.10116567524288
 50
265.1273833874084
 51
318.6476741946872
  0
ARC
  5
427
  8
OUTER_LOOP
 62
     3
 10
145.9488844095417
 20
434.706083182102
 30
0.0
 40
86.81394533478122
 50
232.169914532503
 51
265.1573076664478
  0
ARC
  5
428
  8
OUTER_LOOP
 62
     3
 10
87.48290393205714
 20
359.4401226658131
 30
0.0
 40
8.49207932902914
 50
52.06125351645088
 51
180.1090639712511
  0
LINE
  5
429
  8
OUTER_LOOP
 62
     3
 10
78.99083998816137
 20
359.4239577869275
 30
0.0
 11
78.99129209306288
 21
336.5672381868086
 31
0.0
  0
LINE
  5
42A
  8
OUTER_LOOP
 62
     3
 10
78.99129209306288
 20
336.5672381868086
 30
0.0
 11
79.39947765966288
 21
336.2009853189086
 31
0.0
  0
LINE
  5
42B
  8
OUTER_LOOP
 62
     3
 10
79.39947765966288
 20
336.2009853189086
 30
0.0
 11
82.89192199496287
 21
333.0673201594086
 31
0.0
  0
LINE
  5
42C
  8
OUTER_LOOP
 62
     3
 10
82.89192199496287
 20
333.0673201594086
 30
0.0
 11
79.39946508166287
 21
329.9336704250086
 31
0.0
  0
LINE
  5
42D
  8
OUTER_LOOP
 62
     3
 10
79.39946508166287
 20
329.9336704250086
 30
0.0
 11
78.9912778703625
 21
329.5674195606631
 31
0.0
  0
LINE
  5
42E
  8
OUTER_LOOP
 62
     3
 10
78.9912778703625
 20
329.5674195606631
 30
0.0
 11
78.99123989783413
 21
320.9084099696722
 31
0.0
  0
LINE
  5
42F
  8
OUTER_LOOP
 62
     3
 10
78.99123989783413
 20
320.9084099696722
 30
0.0
 11
78.9907742271824
 21
320.9083130256158
 31
0.0
  0
ARC
  5
430
  8
OUTER_LOOP
 62
     3
 10
87.47461657416297
 20
320.8919542942532
 30
0.0
 40
8.48385811859866
 50
179.8895211550011
 51
270.1100367519153
  0
LINE
  5
431
  8
OUTER_LOOP
 62
     3
 10
87.490909844368
 20
312.4081118213015
 30
0.0
 11
87.4910068357143
 21
312.4085777910112
 31
0.0
  0
LINE
  5
432
  8
OUTER_LOOP
 62
     3
 10
87.4910068357143
 20
312.4085777910112
 30
0.0
 11
107.4905589583453
 21
312.4086072491998
 31
0.0
  0
LINE
  5
433
  8
OUTER_LOOP
 62
     3
 10
107.4905589583453
 20
312.4086072491998
 30
0.0
 11
107.4906559035466
 21
312.4081415814105
 31
0.0
  0
ARC
  5
434
  8
OUTER_LOOP
 62
     3
 10
107.5069621050887
 20
320.8920812119085
 30
0.0
 40
8.483955300810107
 50
269.8898771775256
 51
0.1093329276090091
  0
LINE
  5
435
  8
OUTER_LOOP
 62
     3
 10
115.9909019595821
 20
320.9082704515994
 30
0.0
 11
161.771879605155
 21
320.9080849153315
 31
0.0
  0
ARC
  5
436
  8
OUTER_LOOP
 62
     3
 10
170.2586052704628
 20
320.89454938556
 30
0.0
 40
8.486736459249808
 50
179.9086186943722
 51
270.0903345537672
  0
LINE
  5
437
  8
OUTER_LOOP
 62
     3
 10
170.2719857539798
 20
312.4078234743843
 30
0.0
 11
170.2720828123915
 21
312.4082970872734
 31
0.0
  0
LINE
  5
438
  8
OUTER_LOOP
 62
     3
 10
170.2720828123915
 20
312.4082970872734
 30
0.0
 11
190.2716843990371
 21
312.4078101994643
 31
0.0
  0
ARC
  5
439
  8
OUTER_LOOP
 62
     3
 10
190.2965239865287
 20
320.8719237490087
 30
0.0
 40
8.464149997766272
 50
269.8318548736311
 51
339.5001445020097
  0
LINE
  5
43A
  8
OUTER_LOOP
 62
     3
 10
198.2246653708764
 20
317.9077359387509
 30
0.0
 11
198.2245681150401
 21
329.5667842643082
 31
0.0
  0
LINE
  5
43B
  8
OUTER_LOOP
 62
     3
 10
198.2245681150401
 20
329.5667842643082
 30
0.0
 11
197.8163860934629
 21
329.9330410449086
 31
0.0
  0
LINE
  5
43C
  8
OUTER_LOOP
 62
     3
 10
197.8163860934629
 20
329.9330410449086
 30
0.0
 11
194.3239721074629
 21
333.0667435739086
 31
0.0
  0
LINE
  5
43D
  8
OUTER_LOOP
 62
     3
 10
194.3239721074629
 20
333.0667435739086
 30
0.0
 11
197.8164521118629
 21
336.2003679619086
 31
0.0
  0
LINE
  5
43E
  8
OUTER_LOOP
 62
     3
 10
197.8164521118629
 20
336.2003679619086
 30
0.0
 11
198.2246422510629
 21
336.5666157044085
 31
0.0
  0
LINE
  5
43F
  8
OUTER_LOOP
 62
     3
 10
198.2246422510629
 20
336.5666157044085
 30
0.0
 11
198.2251673645484
 21
374.0082063296513
 31
0.0
  0
LINE
  5
440
  8
OUTER_LOOP
 62
     3
 10
198.2251673645484
 20
374.0082063296513
 30
0.0
 11
198.2255768319206
 21
374.0082456887206
 31
0.0
  0
CIRCLE
  5
441
  8
INTERIOR_LOOPS
 62
     3
 10
187.4692636186629
 20
344.4792853569086
 30
0.0
 40
2.998353422585277
  0
CIRCLE
  5
442
  8
INTERIOR_LOOPS
 62
     3
 10
188.3019695792629
 20
351.9302480952086
 30
0.0
 40
2.997931180818648
  0
CIRCLE
  5
443
  8
INTERIOR_LOOPS
 62
     3
 10
181.7048839628629
 20
396.0682290512086
 30
0.0
 40
2.997952199561607
  0
CIRCLE
  5
444
  8
INTERIOR_LOOPS
 62
     3
 10
184.1618903467629
 20
388.9841546987086
 30
0.0
 40
2.998218870532735
  0
CIRCLE
  5
445
  8
INTERIOR_LOOPS
 62
     3
 10
186.0869696135629
 20
381.7374119999085
 30
0.0
 40
2.997930468644569
  0
CIRCLE
  5
446
  8
INTERIOR_LOOPS
 62
     3
 10
187.4695739379629
 20
374.3679352048086
 30
0.0
 40
2.998263212782569
  0
CIRCLE
  5
447
  8
INTERIOR_LOOPS
 62
     3
 10
188.3021631737629
 20
366.9161968194086
 30
0.0
 40
2.998263359820409
  0
CIRCLE
  5
448
  8
INTERIOR_LOOPS
 62
     3
 10
188.5801588794629
 20
359.4231919261086
 30
0.0
 40
2.997930068970673
  0
CIRCLE
  5
449
  8
INTERIOR_LOOPS
 62
     3
 10
87.49104188666288
 20
359.4240645928086
 30
0.0
 40
2.997926165514564
  0
LINE
  5
44A
  8
INTERIOR_LOOPS
 62
     3
 10
107.4908587412629
 20
323.9086141528086
 30
0.0
 11
107.4906388124474
 21
323.9083126833069
 31
0.0
  0
LINE
  5
44B
  8
INTERIOR_LOOPS
 62
     3
 10
107.4906388124474
 20
323.9083126833069
 30
0.0
 11
87.49106518886298
 21
323.9083126832334
 31
0.0
  0
LINE
  5
44C
  8
INTERIOR_LOOPS
 62
     3
 10
87.49106518886298
 20
323.9083126832334
 30
0.0
 11
87.49084526785067
 21
323.9086141452395
 31
0.0
  0
LINE
  5
44D
  8
INTERIOR_LOOPS
 62
     3
 10
87.49084526785067
 20
323.9086141452395
 30
0.0
 11
87.49062534683834
 21
323.9089156072457
 31
0.0
  0
LINE
  5
44E
  8
INTERIOR_LOOPS
 62
     3
 10
87.49062534683834
 20
323.9089156072457
 30
0.0
 11
86.90612582954984
 21
323.7633380478397
 31
0.0
  0
ARC
  5
44F
  8
INTERIOR_LOOPS
 62
     3
 10
88.48298892053742
 20
317.7358175147707
 30
0.0
 40
6.230369249433577
 50
104.6606181230595
 51
110.0813745467681
  0
ARC
  5
450
  8
INTERIOR_LOOPS
 62
     3
 10
87.50130545382943
 20
320.3396108430097
 30
0.0
 40
3.447919332524156
 50
109.6164281477331
 51
119.0986848869108
  0
ARC
  5
451
  8
INTERIOR_LOOPS
 62
     3
 10
86.99013322434416
 20
321.2315459820127
 30
0.0
 40
2.420004678442537
 50
118.7934520200368
 51
132.0296390767779
  0
ARC
  5
452
  8
INTERIOR_LOOPS
 62
     3
 10
87.07909916648437
 20
321.1688348951098
 30
0.0
 40
2.526265348525888
 50
132.5761854756077
 51
153.3692563048903
  0
LINE
  5
453
  8
INTERIOR_LOOPS
 62
     3
 10
84.82083558231106
 20
322.3012050623075
 30
0.0
 11
84.72235666411017
 21
322.086730992633
 31
0.0
  0
ARC
  5
454
  8
INTERIOR_LOOPS
 62
     3
 10
87.61018512718945
 20
320.9091011342448
 30
0.0
 40
3.118712124505596
 50
157.814817314405
 51
180.0129781160699
  0
ARC
  5
455
  8
INTERIOR_LOOPS
 62
     3
 10
87.61902543351609
 20
320.909355090763
 30
0.0
 40
3.127552498277994
 50
180.0175938358053
 51
202.1522351366512
  0
ARC
  5
456
  8
INTERIOR_LOOPS
 62
     3
 10
87.20365992354166
 20
320.7328772943246
 30
0.0
 40
2.676311532580706
 50
202.0060201959611
 51
221.8671650288124
  0
LINE
  5
457
  8
INTERIOR_LOOPS
 62
     3
 10
85.21062639671648
 20
318.9466911952926
 30
0.0
 11
85.36986204277311
 21
318.7876490806264
 31
0.0
  0
ARC
  5
458
  8
INTERIOR_LOOPS
 62
     3
 10
87.06481982762318
 20
320.6903192065039
 30
0.0
 40
2.548143539977802
 50
228.3043559225293
 51
240.8721208979519
  0
LINE
  5
459
  8
INTERIOR_LOOPS
 62
     3
 10
85.82448424282138
 20
318.4644254225589
 30
0.0
 11
86.0773513020177
 21
318.3376247851096
 31
0.0
  0
LINE
  5
45A
  8
INTERIOR_LOOPS
 62
     3
 10
86.0773513020177
 20
318.3376247851096
 30
0.0
 11
86.34371673183438
 21
318.2293495263096
 31
0.0
  0
ARC
  5
45B
  8
INTERIOR_LOOPS
 62
     3
 10
88.79347427721478
 20
325.0732557589842
 30
0.0
 40
7.269137813578055
 50
250.3053106893449
 51
254.95097885234
  0
LINE
  5
45C
  8
INTERIOR_LOOPS
 62
     3
 10
86.90607624547097
 20
318.0534200612944
 30
0.0
 11
87.49057610933627
 21
317.907840127524
 31
0.0
  0
LINE
  5
45D
  8
INTERIOR_LOOPS
 62
     3
 10
87.49057610933627
 20
317.907840127524
 30
0.0
 11
87.4909705630875
 21
317.9083808217852
 31
0.0
  0
LINE
  5
45E
  8
INTERIOR_LOOPS
 62
     3
 10
87.4909705630875
 20
317.9083808217852
 30
0.0
 11
107.4905735163889
 21
317.9084725454435
 31
0.0
  0
LINE
  5
45F
  8
INTERIOR_LOOPS
 62
     3
 10
107.4905735163889
 20
317.9084725454435
 30
0.0
 11
107.4907934331527
 21
317.908171083717
 31
0.0
  0
LINE
  5
460
  8
INTERIOR_LOOPS
 62
     3
 10
107.4907934331527
 20
317.908171083717
 30
0.0
 11
107.4910133499164
 21
317.9078696219906
 31
0.0
  0
LINE
  5
461
  8
INTERIOR_LOOPS
 62
     3
 10
107.4910133499164
 20
317.9078696219906
 30
0.0
 11
108.0755135307201
 21
318.0534443076966
 31
0.0
  0
ARC
  5
462
  8
INTERIOR_LOOPS
 62
     3
 10
106.4986650723799
 20
324.0810278450911
 30
0.0
 40
6.230426499112169
 50
284.6603412995357
 51
290.081049487515
  0
ARC
  5
463
  8
INTERIOR_LOOPS
 62
     3
 10
107.4803400655928
 20
321.4772090978728
 30
0.0
 40
3.447955768144884
 50
289.6161229494018
 51
299.0982881534534
  0
ARC
  5
464
  8
INTERIOR_LOOPS
 62
     3
 10
107.991512817644
 20
320.5852577952299
 30
0.0
 40
2.42002682381524
 50
298.7930648530977
 51
312.0291501683245
  0
ARC
  5
465
  8
INTERIOR_LOOPS
 62
     3
 10
107.9025593269195
 20
320.6479578066281
 30
0.0
 40
2.526270715907296
 50
312.5756743562956
 51
333.3684755315967
  0
LINE
  5
466
  8
INTERIOR_LOOPS
 62
     3
 10
110.1608122779454
 20
319.5155544600976
 30
0.0
 11
110.2592982681961
 21
319.7300377135051
 31
0.0
  0
ARC
  5
467
  8
INTERIOR_LOOPS
 62
     3
 10
107.3715163942988
 20
320.907679597601
 30
0.0
 40
3.118673525457019
 50
337.8142895361728
 51
0.0127226922368173
  0
ARC
  5
468
  8
INTERIOR_LOOPS
 62
     3
 10
107.3626782165539
 20
320.9074231713409
 30
0.0
 40
3.127511770276159
 50
0.0173844482170445
 51
22.15232394646737
  0
ARC
  5
469
  8
INTERIOR_LOOPS
 62
     3
 10
107.7780138847201
 20
321.0838898954875
 30
0.0
 40
2.676302608839594
 50
22.00610213797768
 51
41.86710890076806
  0
LINE
  5
46A
  8
INTERIOR_LOOPS
 62
     3
 10
109.7710425158629
 20
322.8700680863539
 30
0.0
 11
109.6117988853235
 21
323.029117785264
 31
0.0
  0
ARC
  5
46B
  8
INTERIOR_LOOPS
 62
     3
 10
107.9168570842201
 20
321.1264513538101
 30
0.0
 40
2.548130149444653
 50
48.30456902700395
 51
60.87240974164916
  0
LINE
  5
46C
  8
INTERIOR_LOOPS
 62
     3
 10
109.1571749297433
 20
323.3523396934592
 30
0.0
 11
108.9043070640007
 21
323.4791391049996
 31
0.0
  0
LINE
  5
46D
  8
INTERIOR_LOOPS
 62
     3
 10
108.9043070640007
 20
323.4791391049996
 30
0.0
 11
108.6379408683246
 21
323.5874129558599
 31
0.0
  0
ARC
  5
46E
  8
INTERIOR_LOOPS
 62
     3
 10
106.1882380928744
 20
316.7435379715955
 30
0.0
 40
7.269089935355611
 50
70.30563413198448
 51
74.95133620159369
  0
LINE
  5
46F
  8
INTERIOR_LOOPS
 62
     3
 10
108.0755799113496
 20
323.7633392044313
 30
0.0
 11
107.4910786700784
 21
323.9089156223102
 31
0.0
  0
LINE
  5
470
  8
INTERIOR_LOOPS
 62
     3
 10
107.4910786700784
 20
323.9089156223102
 30
0.0
 11
107.4908587412629
 21
323.9086141528086
 31
0.0
  0
LINE
  5
471
  8
INTERIOR_LOOPS
 62
     3
 10
170.2719300059444
 20
317.9078643532497
 30
0.0
 11
170.2721496213823
 21
317.9081634576231
 31
0.0
  0
LINE
  5
472
  8
INTERIOR_LOOPS
 62
     3
 10
170.2721496213823
 20
317.9081634576231
 30
0.0
 11
190.2716904891023
 21
317.9078898699454
 31
0.0
  0
LINE
  5
473
  8
INTERIOR_LOOPS
 62
     3
 10
190.2716904891023
 20
317.9078898699454
 30
0.0
 11
190.2719100971301
 21
317.9075907739747
 31
0.0
  0
LINE
  5
474
  8
INTERIOR_LOOPS
 62
     3
 10
190.2719100971301
 20
317.9075907739747
 30
0.0
 11
190.2721297051579
 21
317.907291678004
 31
0.0
  0
LINE
  5
475
  8
INTERIOR_LOOPS
 62
     3
 10
190.2721297051579
 20
317.907291678004
 30
0.0
 11
190.5656739618431
 21
317.9785248636667
 31
0.0
  0
LINE
  5
476
  8
INTERIOR_LOOPS
 62
     3
 10
190.5656739618431
 20
317.9785248636667
 30
0.0
 11
190.8563312867486
 21
318.0536903321384
 31
0.0
  0
ARC
  5
477
  8
INTERIOR_LOOPS
 62
     3
 10
189.272891810057
 20
324.0998061908556
 30
0.0
 40
6.250023804224747
 50
284.6757984572897
 51
290.0805237329311
  0
ARC
  5
478
  8
INTERIOR_LOOPS
 62
     3
 10
190.2541631487879
 20
321.4979599524764
 30
0.0
 40
3.469546441773856
 50
289.613145406109
 51
299.0355830395845
  0
ARC
  5
479
  8
INTERIOR_LOOPS
 62
     3
 10
190.7819243969226
 20
320.5760182670626
 30
0.0
 40
2.407365969810005
 50
298.7032231232571
 51
312.0027848633638
  0
ARC
  5
47A
  8
INTERIOR_LOOPS
 62
     3
 10
190.6866811923953
 20
320.6435274046494
 30
0.0
 40
2.521396402374446
 50
312.5845596003123
 51
333.4250172347257
  0
LINE
  5
47B
  8
INTERIOR_LOOPS
 62
     3
 10
192.9416912026527
 20
319.5155337559326
 30
0.0
 11
193.0401417517749
 21
319.7301566338156
 31
0.0
  0
ARC
  5
47C
  8
INTERIOR_LOOPS
 62
     3
 10
190.1523263726494
 20
320.9084143352102
 30
0.0
 40
3.118937138643577
 50
337.8040467542133
 51
359.9890771842994
  0
ARC
  5
47D
  8
INTERIOR_LOOPS
 62
     3
 10
190.1459561747265
 20
320.9059976790977
 30
0.0
 40
3.125307811025152
 50
0.0334036301930441
 51
22.17267003771816
  0
ARC
  5
47E
  8
INTERIOR_LOOPS
 62
     3
 10
190.5548500327327
 20
321.0823255538519
 30
0.0
 40
2.680120400495487
 50
21.98085764771739
 51
41.82379162118248
  0
LINE
  5
47F
  8
INTERIOR_LOOPS
 62
     3
 10
192.5520735120884
 20
322.8695423103374
 30
0.0
 11
192.3928601890511
 21
323.0285658623433
 31
0.0
  0
ARC
  5
480
  8
INTERIOR_LOOPS
 62
     3
 10
190.7029747481762
 20
321.1282631983671
 30
0.0
 40
2.543002756191211
 50
48.35420949071839
 51
60.9414944001679
  0
ARC
  5
481
  8
INTERIOR_LOOPS
 62
     3
 10
190.1039187809305
 20
319.9849742198393
 30
0.0
 40
3.833472927436619
 50
61.41453059324974
 51
69.9408165634285
  0
ARC
  5
482
  8
INTERIOR_LOOPS
 62
     3
 10
188.9499003824826
 20
316.6849762102938
 30
0.0
 40
7.329262903298543
 50
70.31491342394614
 51
74.9232707872806
  0
LINE
  5
483
  8
INTERIOR_LOOPS
 62
     3
 10
190.8563322435328
 20
323.7619538324741
 30
0.0
 11
190.2721492416844
 21
323.9083831899771
 31
0.0
  0
LINE
  5
484
  8
INTERIOR_LOOPS
 62
     3
 10
190.2721492416844
 20
323.9083831899771
 30
0.0
 11
190.271755289541
 21
323.9078466546877
 31
0.0
  0
LINE
  5
485
  8
INTERIOR_LOOPS
 62
     3
 10
190.271755289541
 20
323.9078466546877
 30
0.0
 11
170.2721636420931
 21
323.9080362297942
 31
0.0
  0
LINE
  5
486
  8
INTERIOR_LOOPS
 62
     3
 10
170.2721636420931
 20
323.9080362297942
 30
0.0
 11
170.2719440348649
 21
323.9083353285345
 31
0.0
  0
LINE
  5
487
  8
INTERIOR_LOOPS
 62
     3
 10
170.2719440348649
 20
323.9083353285345
 30
0.0
 11
170.2717244276367
 21
323.9086344272748
 31
0.0
  0
LINE
  5
488
  8
INTERIOR_LOOPS
 62
     3
 10
170.2717244276367
 20
323.9086344272748
 30
0.0
 11
169.9781797082302
 21
323.8374031785253
 31
0.0
  0
LINE
  5
489
  8
INTERIOR_LOOPS
 62
     3
 10
169.9781797082302
 20
323.8374031785253
 30
0.0
 11
169.6875219100816
 21
323.7622396105831
 31
0.0
  0
ARC
  5
48A
  8
INTERIOR_LOOPS
 62
     3
 10
171.2709181698024
 20
317.7161306517556
 30
0.0
 40
6.250006180581879
 50
104.67543122445
 51
110.0801708760604
  0
ARC
  5
48B
  8
INTERIOR_LOOPS
 62
     3
 10
170.2896650814086
 20
320.3179790984605
 30
0.0
 40
3.469533178486367
 50
109.6128035584815
 51
119.0352743831173
  0
ARC
  5
48C
  8
INTERIOR_LOOPS
 62
     3
 10
169.7619100322152
 20
321.2399224306889
 30
0.0
 40
2.407354347877927
 50
118.7029246884123
 51
132.0025478945573
  0
ARC
  5
48D
  8
INTERIOR_LOOPS
 62
     3
 10
169.8571502211025
 20
321.1724156244175
 30
0.0
 40
2.521380922831183
 50
132.5843214342943
 51
153.4246618634615
  0
LINE
  5
48E
  8
INTERIOR_LOOPS
 62
     3
 10
167.602161051236
 20
322.3004163344357
 30
0.0
 11
167.5037050238548
 21
322.0857836678564
 31
0.0
  0
ARC
  5
48F
  8
INTERIOR_LOOPS
 62
     3
 10
170.3914845774426
 20
320.9075343746817
 30
0.0
 40
3.118900791462706
 50
157.803941144781
 51
179.9892185534261
  0
ARC
  5
490
  8
INTERIOR_LOOPS
 62
     3
 10
170.3978521263357
 20
320.9099534743627
 30
0.0
 40
3.125268822211069
 50
180.0335900531688
 51
202.1731040339625
  0
ARC
  5
491
  8
INTERIOR_LOOPS
 62
     3
 10
169.9890100401405
 20
320.7336430124142
 30
0.0
 40
2.680135858657951
 50
201.9812918599218
 51
221.8238893443128
  0
LINE
  5
492
  8
INTERIOR_LOOPS
 62
     3
 10
167.9917780896552
 20
318.9464125413152
 30
0.0
 11
168.1509996134333
 21
318.7873816712004
 31
0.0
  0
ARC
  5
493
  8
INTERIOR_LOOPS
 62
     3
 10
169.8408978321297
 20
320.6877151909239
 30
0.0
 40
2.543034304868571
 50
228.354456332971
 51
240.9415974538455
  0
ARC
  5
494
  8
INTERIOR_LOOPS
 62
     3
 10
170.4399551241201
 20
321.8310087587798
 30
0.0
 40
3.833509176559307
 50
241.4146104938148
 51
249.9408159008171
  0
ARC
  5
495
  8
INTERIOR_LOOPS
 62
     3
 10
171.5939761285921
 20
325.1310082497425
 30
0.0
 40
7.32930142403976
 50
250.314895946541
 51
254.9232242844452
  0
LINE
  5
496
  8
INTERIOR_LOOPS
 62
     3
 10
169.6875285039212
 20
318.0539949800914
 30
0.0
 11
170.2717103905064
 21
317.9075652488764
 31
0.0
  0
LINE
  5
497
  8
INTERIOR_LOOPS
 62
     3
 10
170.2717103905064
 20
317.9075652488764
 30
0.0
 11
170.2719300059444
 21
317.9078643532497
 31
0.0
  0
LINE
  5
498
  8
OUTER_LOOP
 62
     3
 10
181.0000001
 20
90.5757591
 30
0.0
 11
145.0000001
 21
90.5757591
 31
0.0
  0
LINE
  5
499
  8
OUTER_LOOP
 62
     3
 10
145.0000001
 20
90.5757591
 30
0.0
 11
145.0000001
 21
84.5757591
 31
0.0
  0
LINE
  5
49A
  8
OUTER_LOOP
 62
     3
 10
145.0000001
 20
84.5757591
 30
0.0
 11
148.0000001
 21
84.5757591
 31
0.0
  0
LINE
  5
49B
  8
OUTER_LOOP
 62
     3
 10
148.0000001
 20
84.5757591
 30
0.0
 11
148.0000001
 21
68.6320055628
 31
0.0
  0
LINE
  5
49C
  8
OUTER_LOOP
 62
     3
 10
148.0000001
 20
68.6320055628
 30
0.0
 11
145.0000001
 21
68.6320055628
 31
0.0
  0
LINE
  5
49D
  8
OUTER_LOOP
 62
     3
 10
145.0000001
 20
68.6320055628
 30
0.0
 11
145.0000001
 21
62.6320055628
 31
0.0
  0
LINE
  5
49E
  8
OUTER_LOOP
 62
     3
 10
145.0000001
 20
62.6320055628
 30
0.0
 11
181.0000001
 21
62.6320055628
 31
0.0
  0
LINE
  5
49F
  8
OUTER_LOOP
 62
     3
 10
181.0000001
 20
62.6320055628
 30
0.0
 11
181.0000001
 21
68.6320055628
 31
0.0
  0
LINE
  5
4A0
  8
OUTER_LOOP
 62
     3
 10
181.0000001
 20
68.6320055628
 30
0.0
 11
178.0000001
 21
68.6320055628
 31
0.0
  0
LINE
  5
4A1
  8
OUTER_LOOP
 62
     3
 10
178.0000001
 20
68.6320055628
 30
0.0
 11
178.0000001
 21
84.5757591
 31
0.0
  0
LINE
  5
4A2
  8
OUTER_LOOP
 62
     3
 10
178.0000001
 20
84.5757591
 30
0.0
 11
181.0000001
 21
84.5757591
 31
0.0
  0
LINE
  5
4A3
  8
OUTER_LOOP
 62
     3
 10
181.0000001
 20
84.5757591
 30
0.0
 11
181.0000001
 21
90.5757591
 31
0.0
  0
ARC
  5
4A4
  8
INTERIOR_LOOPS
 62
     3
 10
163.0000001000558
 20
82.63200576927655
 30
0.0
 40
2.000000000000003
 50
179.9845149331177
 51
359.9845031028824
  0
LINE
  5
4A5
  8
INTERIOR_LOOPS
 62
     3
 10
165.0000000269008
 20
82.63146482552605
 30
0.0
 11
165.0007959255
 21
85.5752179552
 31
0.0
  0
ARC
  5
4A6
  8
INTERIOR_LOOPS
 62
     3
 10
163.0007959984938
 20
85.57575848601043
 30
0.0
 40
2.000000000049603
 50
359.9845149327448
 51
179.9845031025099
  0
LINE
  5
4A7
  8
INTERIOR_LOOPS
 62
     3
 10
161.0007960715992
 20
85.57629942977394
 30
0.0
 11
161.0000001730992
 21
82.63254630007394
 31
0.0
  0
ARC
  5
4A8
  8
INTERIOR_LOOPS
 62
     3
 10
163.0000001
 20
67.63200565704322
 30
0.0
 40
2.000000000000002
 50
180.0000026998694
 51
359.9999973001306
  0
LINE
  5
4A9
  8
INTERIOR_LOOPS
 62
     3
 10
165.0000001
 20
67.6320055628
 30
0.0
 11
165.0000001
 21
70.6320055628
 31
0.0
  0
ARC
  5
4AA
  8
INTERIOR_LOOPS
 62
     3
 10
163.0000001
 20
70.63200546855678
 30
0.0
 40
2.000000000000002
 50
0.0000026998693611
 51
179.9999973001306
  0
LINE
  5
4AB
  8
INTERIOR_LOOPS
 62
     3
 10
161.0000001
 20
70.6320055628
 30
0.0
 11
161.0000001
 21
67.6320055628
 31
0.0
  0
LINE
  5
4AC
  8
OUTER_LOOP
 62
     3
 10
165.8949788029475
 20
180.9670734433826
 30
0.0
 11
165.8949788029475
 21
183.9670734433826
 31
0.0
  0
LINE
  5
4AD
  8
OUTER_LOOP
 62
     3
 10
165.8949788029475
 20
183.9670734433826
 30
0.0
 11
137.8949788029475
 21
183.9670734433826
 31
0.0
  0
LINE
  5
4AE
  8
OUTER_LOOP
 62
     3
 10
137.8949788029475
 20
183.9670734433826
 30
0.0
 11
137.8949788029475
 21
180.9670734433826
 31
0.0
  0
LINE
  5
4AF
  8
OUTER_LOOP
 62
     3
 10
137.8949788029475
 20
180.9670734433826
 30
0.0
 11
135.8949788029475
 21
180.9670734433826
 31
0.0
  0
LINE
  5
4B0
  8
OUTER_LOOP
 62
     3
 10
135.8949788029475
 20
180.9670734433826
 30
0.0
 11
135.8949788029475
 21
130.9670734433826
 31
0.0
  0
LINE
  5
4B1
  8
OUTER_LOOP
 62
     3
 10
135.8949788029475
 20
130.9670734433826
 30
0.0
 11
137.8949788029475
 21
130.9670734433826
 31
0.0
  0
LINE
  5
4B2
  8
OUTER_LOOP
 62
     3
 10
137.8949788029475
 20
130.9670734433826
 30
0.0
 11
137.8949788029475
 21
127.9670734433826
 31
0.0
  0
LINE
  5
4B3
  8
OUTER_LOOP
 62
     3
 10
137.8949788029475
 20
127.9670734433826
 30
0.0
 11
165.8949788029475
 21
127.9670734433826
 31
0.0
  0
LINE
  5
4B4
  8
OUTER_LOOP
 62
     3
 10
165.8949788029475
 20
127.9670734433826
 30
0.0
 11
165.8949788029475
 21
130.9670734433826
 31
0.0
  0
LINE
  5
4B5
  8
OUTER_LOOP
 62
     3
 10
165.8949788029475
 20
130.9670734433826
 30
0.0
 11
169.8949788029475
 21
130.9670734433826
 31
0.0
  0
LINE
  5
4B6
  8
OUTER_LOOP
 62
     3
 10
169.8949788029475
 20
130.9670734433826
 30
0.0
 11
169.8949788029475
 21
180.9670734433826
 31
0.0
  0
LINE
  5
4B7
  8
OUTER_LOOP
 62
     3
 10
169.8949788029475
 20
180.9670734433826
 30
0.0
 11
165.8949788029475
 21
180.9670734433826
 31
0.0
  0
CIRCLE
  5
4B8
  8
INTERIOR_LOOPS
 62
     3
 10
146.8949788029475
 20
148.4670722733826
 30
0.0
 40
3.000000000000003
  0
CIRCLE
  5
4B9
  8
INTERIOR_LOOPS
 62
     3
 10
146.8949788029475
 20
163.4670722733826
 30
0.0
 40
3.000000000000003
  0
LINE
  5
4BA
  8
OUTER_LOOP
 62
     3
 10
162.7531091
 20
241.9670734433826
 30
0.0
 11
162.7531091
 21
244.9670734433826
 31
0.0
  0
LINE
  5
4BB
  8
OUTER_LOOP
 62
     3
 10
162.7531091
 20
244.9670734433826
 30
0.0
 11
134.7531091
 21
244.9670734433826
 31
0.0
  0
LINE
  5
4BC
  8
OUTER_LOOP
 62
     3
 10
134.7531091
 20
244.9670734433826
 30
0.0
 11
134.7531091
 21
241.9670734433826
 31
0.0
  0
LINE
  5
4BD
  8
OUTER_LOOP
 62
     3
 10
134.7531091
 20
241.9670734433826
 30
0.0
 11
132.7531091
 21
241.9670734433826
 31
0.0
  0
LINE
  5
4BE
  8
OUTER_LOOP
 62
     3
 10
132.7531091
 20
241.9670734433826
 30
0.0
 11
132.7531091
 21
191.9670734433826
 31
0.0
  0
LINE
  5
4BF
  8
OUTER_LOOP
 62
     3
 10
132.7531091
 20
191.9670734433826
 30
0.0
 11
134.7531091
 21
191.9670734433826
 31
0.0
  0
LINE
  5
4C0
  8
OUTER_LOOP
 62
     3
 10
134.7531091
 20
191.9670734433826
 30
0.0
 11
134.7531091
 21
188.9670734433826
 31
0.0
  0
LINE
  5
4C1
  8
OUTER_LOOP
 62
     3
 10
134.7531091
 20
188.9670734433826
 30
0.0
 11
162.7531091
 21
188.9670734433826
 31
0.0
  0
LINE
  5
4C2
  8
OUTER_LOOP
 62
     3
 10
162.7531091
 20
188.9670734433826
 30
0.0
 11
162.7531091
 21
191.9670734433826
 31
0.0
  0
LINE
  5
4C3
  8
OUTER_LOOP
 62
     3
 10
162.7531091
 20
191.9670734433826
 30
0.0
 11
166.7531091
 21
191.9670734433826
 31
0.0
  0
LINE
  5
4C4
  8
OUTER_LOOP
 62
     3
 10
166.7531091
 20
191.9670734433826
 30
0.0
 11
166.7531091
 21
241.9670734433826
 31
0.0
  0
LINE
  5
4C5
  8
OUTER_LOOP
 62
     3
 10
166.7531091
 20
241.9670734433826
 30
0.0
 11
162.7531091
 21
241.9670734433826
 31
0.0
  0
CIRCLE
  5
4C6
  8
INTERIOR_LOOPS
 62
     3
 10
143.7531091
 20
209.4670722733826
 30
0.0
 40
3.000000000000003
  0
CIRCLE
  5
4C7
  8
INTERIOR_LOOPS
 62
     3
 10
143.7531091
 20
224.4670722733826
 30
0.0
 40
3.000000000000003
  0
ARC
  5
4C8
  8
OUTER_LOOP
 62
     3
 10
92.90089330269679
 20
257.4504026466972
 30
0.0
 40
50.86034197935419
 50
183.5436856684177
 51
213.599958768706
  0
ARC
  5
4C9
  8
OUTER_LOOP
 62
     3
 10
58.76807196038203
 20
231.9293176928862
 30
0.0
 40
8.638224402910232
 50
197.6879011183257
 51
319.086990383277
  0
ARC
  5
4CA
  8
OUTER_LOOP
 62
     3
 10
58.9194575223661
 20
231.7716471471217
 30
0.0
 40
8.420584981203087
 50
319.223130664435
 51
9.19338092525315
  0
ARC
  5
4CB
  8
OUTER_LOOP
 62
     3
 10
124.8155607962837
 20
233.9516237730965
 30
0.0
 40
57.58973152460735
 50
138.6187946859725
 51
180.8304126258939
  0
ARC
  5
4CC
  8
OUTER_LOOP
 62
     3
 10
99.69618187554929
 20
256.0988854077162
 30
0.0
 40
24.10116567524288
 50
85.12738338740847
 51
138.6476741946871
  0
ARC
  5
4CD
  8
OUTER_LOOP
 62
     3
 10
94.41449068769077
 20
193.6089098792323
 30
0.0
 40
86.81394533478122
 50
52.16991453250304
 51
85.15730766644786
  0
ARC
  5
4CE
  8
OUTER_LOOP
 62
     3
 10
152.8804711651752
 20
268.8748703955212
 30
0.0
 40
8.49207932902914
 50
232.0612535164509
 51
0.1090639712511022
  0
LINE
  5
4CF
  8
OUTER_LOOP
 62
     3
 10
161.372535109071
 20
268.8910352744067
 30
0.0
 11
161.3720830041695
 21
291.7477548745256
 31
0.0
  0
LINE
  5
4D0
  8
OUTER_LOOP
 62
     3
 10
161.3720830041695
 20
291.7477548745256
 30
0.0
 11
160.9638974375695
 21
292.1140077424256
 31
0.0
  0
LINE
  5
4D1
  8
OUTER_LOOP
 62
     3
 10
160.9638974375695
 20
292.1140077424256
 30
0.0
 11
157.4714531022695
 21
295.2476729019256
 31
0.0
  0
LINE
  5
4D2
  8
OUTER_LOOP
 62
     3
 10
157.4714531022695
 20
295.2476729019256
 30
0.0
 11
160.9639100155695
 21
298.3813226363256
 31
0.0
  0
LINE
  5
4D3
  8
OUTER_LOOP
 62
     3
 10
160.9639100155695
 20
298.3813226363256
 30
0.0
 11
161.3720972268698
 21
298.7475735006711
 31
0.0
  0
LINE
  5
4D4
  8
OUTER_LOOP
 62
     3
 10
161.3720972268698
 20
298.7475735006711
 30
0.0
 11
161.3721351993982
 21
307.406583091662
 31
0.0
  0
LINE
  5
4D5
  8
OUTER_LOOP
 62
     3
 10
161.3721351993982
 20
307.406583091662
 30
0.0
 11
161.37260087005
 21
307.4066800357184
 31
0.0
  0
ARC
  5
4D6
  8
OUTER_LOOP
 62
     3
 10
152.8887585230694
 20
307.423038767081
 30
0.0
 40
8.48385811859866
 50
359.8895211550015
 51
90.11003675191525
  0
LINE
  5
4D7
  8
OUTER_LOOP
 62
     3
 10
152.8724652528643
 20
315.9068812400326
 30
0.0
 11
152.872368261518
 21
315.906415270323
 31
0.0
  0
LINE
  5
4D8
  8
OUTER_LOOP
 62
     3
 10
152.872368261518
 20
315.906415270323
 30
0.0
 11
132.872816138887
 21
315.9063858121344
 31
0.0
  0
LINE
  5
4D9
  8
OUTER_LOOP
 62
     3
 10
132.872816138887
 20
315.9063858121344
 30
0.0
 11
132.8727191936857
 21
315.9068514799237
 31
0.0
  0
ARC
  5
4DA
  8
OUTER_LOOP
 62
     3
 10
132.8564129921436
 20
307.4229118494256
 30
0.0
 40
8.483955300810107
 50
89.88987717752576
 51
180.109332927609
  0
LINE
  5
4DB
  8
OUTER_LOOP
 62
     3
 10
124.3724731376502
 20
307.4067226097348
 30
0.0
 11
78.59149549207733
 21
307.4069081460027
 31
0.0
  0
ARC
  5
4DC
  8
OUTER_LOOP
 62
     3
 10
70.10476982676956
 20
307.4204436757742
 30
0.0
 40
8.486736459249808
 50
359.9086186943722
 51
90.09033455376718
  0
LINE
  5
4DD
  8
OUTER_LOOP
 62
     3
 10
70.09138934325257
 20
315.9071695869499
 30
0.0
 11
70.09129228484083
 21
315.9066959740608
 31
0.0
  0
LINE
  5
4DE
  8
OUTER_LOOP
 62
     3
 10
70.09129228484083
 20
315.9066959740608
 30
0.0
 11
50.09169069819521
 21
315.9071828618698
 31
0.0
  0
ARC
  5
4DF
  8
OUTER_LOOP
 62
     3
 10
50.0668511107036
 20
307.4430693123255
 30
0.0
 40
8.464149997766272
 50
89.83185487363113
 51
159.5001445020097
  0
LINE
  5
4E0
  8
OUTER_LOOP
 62
     3
 10
42.13870972635593
 20
310.4072571225832
 30
0.0
 11
42.13880698219221
 21
298.7482087970259
 31
0.0
  0
LINE
  5
4E1
  8
OUTER_LOOP
 62
     3
 10
42.13880698219221
 20
298.7482087970259
 30
0.0
 11
42.54698900376947
 21
298.3819520164256
 31
0.0
  0
LINE
  5
4E2
  8
OUTER_LOOP
 62
     3
 10
42.54698900376947
 20
298.3819520164256
 30
0.0
 11
46.03940298976947
 21
295.2482494874256
 31
0.0
  0
LINE
  5
4E3
  8
OUTER_LOOP
 62
     3
 10
46.03940298976947
 20
295.2482494874256
 30
0.0
 11
42.54692298536946
 21
292.1146250994256
 31
0.0
  0
LINE
  5
4E4
  8
OUTER_LOOP
 62
     3
 10
42.54692298536946
 20
292.1146250994256
 30
0.0
 11
42.13873284616946
 21
291.7483773569256
 31
0.0
  0
LINE
  5
4E5
  8
OUTER_LOOP
 62
     3
 10
42.13873284616946
 20
291.7483773569256
 30
0.0
 11
42.13820773268391
 21
254.3067867316829
 31
0.0
  0
LINE
  5
4E6
  8
OUTER_LOOP
 62
     3
 10
42.13820773268391
 20
254.3067867316829
 30
0.0
 11
42.13779826531176
 21
254.3067473726135
 31
0.0
  0
CIRCLE
  5
4E7
  8
INTERIOR_LOOPS
 62
     3
 10
52.89411147856947
 20
283.8357077044256
 30
0.0
 40
2.998353422585277
  0
CIRCLE
  5
4E8
  8
INTERIOR_LOOPS
 62
     3
 10
52.06140551796946
 20
276.3847449661256
 30
0.0
 40
2.997931180818648
  0
CIRCLE
  5
4E9
  8
INTERIOR_LOOPS
 62
     3
 10
58.65849113436947
 20
232.2467640101256
 30
0.0
 40
2.997952199561607
  0
CIRCLE
  5
4EA
  8
INTERIOR_LOOPS
 62
     3
 10
56.20148475046946
 20
239.3308383626256
 30
0.0
 40
2.998218870532735
  0
CIRCLE
  5
4EB
  8
INTERIOR_LOOPS
 62
     3
 10
54.27640548366946
 20
246.5775810614256
 30
0.0
 40
2.997930468644569
  0
CIRCLE
  5
4EC
  8
INTERIOR_LOOPS
 62
     3
 10
52.89380115926947
 20
253.9470578565256
 30
0.0
 40
2.998263212782569
  0
CIRCLE
  5
4ED
  8
INTERIOR_LOOPS
 62
     3
 10
52.06121192346947
 20
261.3987962419256
 30
0.0
 40
2.998263359820409
  0
CIRCLE
  5
4EE
  8
INTERIOR_LOOPS
 62
     3
 10
51.78321621776946
 20
268.8918011352256
 30
0.0
 40
2.997930068970673
  0
CIRCLE
  5
4EF
  8
INTERIOR_LOOPS
 62
     3
 10
152.8723332105695
 20
268.8909284685256
 30
0.0
 40
2.997926165514564
  0
LINE
  5
4F0
  8
INTERIOR_LOOPS
 62
     3
 10
132.8725163559695
 20
304.4063789085256
 30
0.0
 11
132.872736284785
 21
304.4066803780273
 31
0.0
  0
LINE
  5
4F1
  8
INTERIOR_LOOPS
 62
     3
 10
132.872736284785
 20
304.4066803780273
 30
0.0
 11
152.8723099083693
 21
304.4066803781008
 31
0.0
  0
LINE
  5
4F2
  8
INTERIOR_LOOPS
 62
     3
 10
152.8723099083693
 20
304.4066803781008
 30
0.0
 11
152.8725298293817
 21
304.4063789160946
 31
0.0
  0
LINE
  5
4F3
  8
INTERIOR_LOOPS
 62
     3
 10
152.8725298293817
 20
304.4063789160946
 30
0.0
 11
152.872749750394
 21
304.4060774540885
 31
0.0
  0
LINE
  5
4F4
  8
INTERIOR_LOOPS
 62
     3
 10
152.872749750394
 20
304.4060774540885
 30
0.0
 11
153.4572492676825
 21
304.5516550134944
 31
0.0
  0
ARC
  5
4F5
  8
INTERIOR_LOOPS
 62
     3
 10
151.880386176695
 20
310.5791755465634
 30
0.0
 40
6.230369249433577
 50
284.6606181230591
 51
290.0813745467679
  0
ARC
  5
4F6
  8
INTERIOR_LOOPS
 62
     3
 10
152.8620696434025
 20
307.9753822183244
 30
0.0
 40
3.447919332524156
 50
289.6164281477395
 51
299.0986848869172
  0
ARC
  5
4F7
  8
INTERIOR_LOOPS
 62
     3
 10
153.3732418728884
 20
307.0834470793217
 30
0.0
 40
2.420004678442537
 50
298.7934520200304
 51
312.0296390767708
  0
ARC
  5
4F8
  8
INTERIOR_LOOPS
 62
     3
 10
153.2842759307479
 20
307.1461581662243
 30
0.0
 40
2.526265348525888
 50
312.5761854756106
 51
333.3692563048943
  0
LINE
  5
4F9
  8
INTERIOR_LOOPS
 62
     3
 10
155.5425395149213
 20
306.0137879990268
 30
0.0
 11
155.6410184331222
 21
306.2282620687012
 31
0.0
  0
ARC
  5
4FA
  8
INTERIOR_LOOPS
 62
     3
 10
152.7531899700429
 20
307.4058919270894
 30
0.0
 40
3.118712124505596
 50
337.814817314404
 51
0.0129781160677753
  0
ARC
  5
4FB
  8
INTERIOR_LOOPS
 62
     3
 10
152.7443496637163
 20
307.4056379705711
 30
0.0
 40
3.127552498277994
 50
0.017593835806358
 51
22.1522351366524
  0
ARC
  5
4FC
  8
INTERIOR_LOOPS
 62
     3
 10
153.1597151736906
 20
307.5821157670097
 30
0.0
 40
2.676311532580706
 50
22.00602019595717
 51
41.86716502880911
  0
LINE
  5
4FD
  8
INTERIOR_LOOPS
 62
     3
 10
155.1527487005159
 20
309.3683018660416
 30
0.0
 11
154.9935130544592
 21
309.5273439807078
 31
0.0
  0
ARC
  5
4FE
  8
INTERIOR_LOOPS
 62
     3
 10
153.298555269609
 20
307.6246738548304
 30
0.0
 40
2.548143539977802
 50
48.3043559225241
 51
60.87212089794757
  0
LINE
  5
4FF
  8
INTERIOR_LOOPS
 62
     3
 10
154.538890854411
 20
309.8505676387753
 30
0.0
 11
154.2860237952146
 21
309.9773682762246
 31
0.0
  0
LINE
  5
500
  8
INTERIOR_LOOPS
 62
     3
 10
154.2860237952146
 20
309.9773682762246
 30
0.0
 11
154.019658365398
 21
310.0856435350246
 31
0.0
  0
ARC
  5
501
  8
INTERIOR_LOOPS
 62
     3
 10
151.5699008200181
 20
303.2417373023499
 30
0.0
 40
7.269137813578055
 50
70.30531068934972
 51
74.95097885234472
  0
LINE
  5
502
  8
INTERIOR_LOOPS
 62
     3
 10
153.4572988517614
 20
310.2615730000398
 30
0.0
 11
152.8727989878961
 21
310.4071529338102
 31
0.0
  0
LINE
  5
503
  8
INTERIOR_LOOPS
 62
     3
 10
152.8727989878961
 20
310.4071529338102
 30
0.0
 11
152.8724045341448
 21
310.406612239549
 31
0.0
  0
LINE
  5
504
  8
INTERIOR_LOOPS
 62
     3
 10
152.8724045341448
 20
310.406612239549
 30
0.0
 11
132.8728015808434
 21
310.4065205158907
 31
0.0
  0
LINE
  5
505
  8
INTERIOR_LOOPS
 62
     3
 10
132.8728015808434
 20
310.4065205158907
 30
0.0
 11
132.8725816640797
 21
310.4068219776171
 31
0.0
  0
LINE
  5
506
  8
INTERIOR_LOOPS
 62
     3
 10
132.8725816640797
 20
310.4068219776171
 30
0.0
 11
132.8723617473159
 21
310.4071234393436
 31
0.0
  0
LINE
  5
507
  8
INTERIOR_LOOPS
 62
     3
 10
132.8723617473159
 20
310.4071234393436
 30
0.0
 11
132.2878615665123
 21
310.2615487536376
 31
0.0
  0
ARC
  5
508
  8
INTERIOR_LOOPS
 62
     3
 10
133.8647100248525
 20
304.2339652162431
 30
0.0
 40
6.230426499112169
 50
104.6603412995361
 51
110.0810494875152
  0
ARC
  5
509
  8
INTERIOR_LOOPS
 62
     3
 10
132.8830350316392
 20
306.8377839634612
 30
0.0
 40
3.447955768144884
 50
109.6161229493953
 51
119.0982881534468
  0
ARC
  5
50A
  8
INTERIOR_LOOPS
 62
     3
 10
132.3718622795885
 20
307.7297352661044
 30
0.0
 40
2.42002682381524
 50
118.7930648531032
 51
132.0291501683305
  0
ARC
  5
50B
  8
INTERIOR_LOOPS
 62
     3
 10
132.4608157703128
 20
307.667035254706
 30
0.0
 40
2.526270715907296
 50
132.5756743562941
 51
153.3684755315949
  0
LINE
  5
50C
  8
INTERIOR_LOOPS
 62
     3
 10
130.2025628192869
 20
308.7994386012366
 30
0.0
 11
130.1040768290363
 21
308.5849553478291
 31
0.0
  0
ARC
  5
50D
  8
INTERIOR_LOOPS
 62
     3
 10
132.9918587029335
 20
307.4073134637331
 30
0.0
 40
3.118673525457019
 50
157.8142895361717
 51
180.0127226922358
  0
ARC
  5
50E
  8
INTERIOR_LOOPS
 62
     3
 10
133.0006968806784
 20
307.4075698899933
 30
0.0
 40
3.127511770276159
 50
180.0173844482171
 51
202.1523239464673
  0
ARC
  5
50F
  8
INTERIOR_LOOPS
 62
     3
 10
132.5853612125122
 20
307.2311031658466
 30
0.0
 40
2.676302608839594
 50
202.0061021379766
 51
221.8671089007673
  0
LINE
  5
510
  8
INTERIOR_LOOPS
 62
     3
 10
130.5923325813694
 20
305.4449249749803
 30
0.0
 11
130.7515762119089
 21
305.2858752760702
 31
0.0
  0
ARC
  5
511
  8
INTERIOR_LOOPS
 62
     3
 10
132.4465180130122
 20
307.188541707524
 30
0.0
 40
2.548130149444653
 50
228.3045690270033
 51
240.8724097416488
  0
LINE
  5
512
  8
INTERIOR_LOOPS
 62
     3
 10
131.206200167489
 20
304.962653367875
 30
0.0
 11
131.4590680332316
 21
304.8358539563346
 31
0.0
  0
LINE
  5
513
  8
INTERIOR_LOOPS
 62
     3
 10
131.4590680332316
 20
304.8358539563346
 30
0.0
 11
131.7254342289078
 21
304.7275801054743
 31
0.0
  0
ARC
  5
514
  8
INTERIOR_LOOPS
 62
     3
 10
134.1751370043573
 20
311.5714550897389
 30
0.0
 40
7.269089935355611
 50
250.30563413199
 51
254.9513362015991
  0
LINE
  5
515
  8
INTERIOR_LOOPS
 62
     3
 10
132.2877951858827
 20
304.5516538569029
 30
0.0
 11
132.872296427154
 21
304.4060774390239
 31
0.0
  0
LINE
  5
516
  8
INTERIOR_LOOPS
 62
     3
 10
132.872296427154
 20
304.4060774390239
 30
0.0
 11
132.8725163559695
 21
304.4063789085256
 31
0.0
  0
LINE
  5
517
  8
INTERIOR_LOOPS
 62
     3
 10
70.09144509128798
 20
310.4071287080844
 30
0.0
 11
70.0912254758501
 21
310.4068296037111
 31
0.0
  0
LINE
  5
518
  8
INTERIOR_LOOPS
 62
     3
 10
70.0912254758501
 20
310.4068296037111
 30
0.0
 11
50.09168460813001
 21
310.4071031913887
 31
0.0
  0
LINE
  5
519
  8
INTERIOR_LOOPS
 62
     3
 10
50.09168460813001
 20
310.4071031913887
 30
0.0
 11
50.09146500010222
 21
310.4074022873594
 31
0.0
  0
LINE
  5
51A
  8
INTERIOR_LOOPS
 62
     3
 10
50.09146500010222
 20
310.4074022873594
 30
0.0
 11
50.09124539207446
 21
310.4077013833302
 31
0.0
  0
LINE
  5
51B
  8
INTERIOR_LOOPS
 62
     3
 10
50.09124539207446
 20
310.4077013833302
 30
0.0
 11
49.79770113538926
 21
310.3364681976675
 31
0.0
  0
LINE
  5
51C
  8
INTERIOR_LOOPS
 62
     3
 10
49.79770113538926
 20
310.3364681976675
 30
0.0
 11
49.50704381048374
 21
310.2613027291957
 31
0.0
  0
ARC
  5
51D
  8
INTERIOR_LOOPS
 62
     3
 10
51.0904832871754
 20
304.2151868704786
 30
0.0
 40
6.250023804224747
 50
104.6757984572903
 51
110.0805237329316
  0
ARC
  5
51E
  8
INTERIOR_LOOPS
 62
     3
 10
50.1092119484444
 20
306.8170331088578
 30
0.0
 40
3.469546441773856
 50
109.6131454061088
 51
119.0355830395846
  0
ARC
  5
51F
  8
INTERIOR_LOOPS
 62
     3
 10
49.58145070030972
 20
307.7389747942715
 30
0.0
 40
2.407365969810005
 50
118.7032231232571
 51
132.0027848633631
  0
ARC
  5
520
  8
INTERIOR_LOOPS
 62
     3
 10
49.67669390483704
 20
307.6714656566847
 30
0.0
 40
2.521396402374446
 50
132.5845596003109
 51
153.4250172347244
  0
LINE
  5
521
  8
INTERIOR_LOOPS
 62
     3
 10
47.42168389457962
 20
308.7994593054016
 30
0.0
 11
47.32323334545741
 21
308.5848364275186
 31
0.0
  0
ARC
  5
522
  8
INTERIOR_LOOPS
 62
     3
 10
50.21104872458297
 20
307.4065787261238
 30
0.0
 40
3.118937138643577
 50
157.8040467542113
 51
179.9890771842963
  0
ARC
  5
523
  8
INTERIOR_LOOPS
 62
     3
 10
50.21741892250581
 20
307.4089953822366
 30
0.0
 40
3.125307811025152
 50
180.0334036301941
 51
202.1726700377192
  0
ARC
  5
524
  8
INTERIOR_LOOPS
 62
     3
 10
49.80852506449968
 20
307.2326675074821
 30
0.0
 40
2.680120400495487
 50
201.9808576477147
 51
221.8237916211805
  0
LINE
  5
525
  8
INTERIOR_LOOPS
 62
     3
 10
47.81130158514389
 20
305.4454507509968
 30
0.0
 11
47.97051490818126
 21
305.2864271989909
 31
0.0
  0
ARC
  5
526
  8
INTERIOR_LOOPS
 62
     3
 10
49.6604003490561
 20
307.1867298629672
 30
0.0
 40
2.543002756191211
 50
228.3542094907195
 51
240.9414944001691
  0
ARC
  5
527
  8
INTERIOR_LOOPS
 62
     3
 10
50.25945631630221
 20
308.3300188414946
 30
0.0
 40
3.833472927436619
 50
241.4145305932436
 51
249.9408165634228
  0
ARC
  5
528
  8
INTERIOR_LOOPS
 62
     3
 10
51.41347471474906
 20
311.6300168510405
 30
0.0
 40
7.329262903298543
 50
250.3149134239514
 51
254.9232707872858
  0
LINE
  5
529
  8
INTERIOR_LOOPS
 62
     3
 10
49.50704285369953
 20
304.5530392288601
 30
0.0
 11
50.09122585554792
 21
304.4066098713571
 31
0.0
  0
LINE
  5
52A
  8
INTERIOR_LOOPS
 62
     3
 10
50.09122585554792
 20
304.4066098713571
 30
0.0
 11
50.09161980769136
 21
304.4071464066465
 31
0.0
  0
LINE
  5
52B
  8
INTERIOR_LOOPS
 62
     3
 10
50.09161980769136
 20
304.4071464066465
 30
0.0
 11
70.09121145513923
 21
304.40695683154
 31
0.0
  0
LINE
  5
52C
  8
INTERIOR_LOOPS
 62
     3
 10
70.09121145513923
 20
304.40695683154
 30
0.0
 11
70.09143106236748
 21
304.4066577327997
 31
0.0
  0
LINE
  5
52D
  8
INTERIOR_LOOPS
 62
     3
 10
70.09143106236748
 20
304.4066577327997
 30
0.0
 11
70.0916506695957
 21
304.4063586340594
 31
0.0
  0
LINE
  5
52E
  8
INTERIOR_LOOPS
 62
     3
 10
70.0916506695957
 20
304.4063586340594
 30
0.0
 11
70.38519538900213
 21
304.4775898828088
 31
0.0
  0
LINE
  5
52F
  8
INTERIOR_LOOPS
 62
     3
 10
70.38519538900213
 20
304.4775898828088
 30
0.0
 11
70.67585318715074
 21
304.5527534507511
 31
0.0
  0
ARC
  5
530
  8
INTERIOR_LOOPS
 62
     3
 10
69.09245692742931
 20
310.5988624095784
 30
0.0
 40
6.250006180581879
 50
284.6754312244558
 51
290.0801708760663
  0
ARC
  5
531
  8
INTERIOR_LOOPS
 62
     3
 10
70.07371001582405
 20
307.9970139628739
 30
0.0
 40
3.469533178486367
 50
289.612803558476
 51
299.0352743831116
  0
ARC
  5
532
  8
INTERIOR_LOOPS
 62
     3
 10
70.60146506501708
 20
307.0750706306453
 30
0.0
 40
2.407354347877927
 50
298.7029246884129
 51
312.0025478945578
  0
ARC
  5
533
  8
INTERIOR_LOOPS
 62
     3
 10
70.5062248761298
 20
307.1425774369167
 30
0.0
 40
2.521380922831183
 50
312.5843214342946
 51
333.4246618634615
  0
LINE
  5
534
  8
INTERIOR_LOOPS
 62
     3
 10
72.76121404599635
 20
306.0145767268985
 30
0.0
 11
72.85967007337759
 21
306.2292093934777
 31
0.0
  0
ARC
  5
535
  8
INTERIOR_LOOPS
 62
     3
 10
69.97189051978974
 20
307.4074586866524
 30
0.0
 40
3.118900791462706
 50
337.8039411447821
 51
359.9892185534271
  0
ARC
  5
536
  8
INTERIOR_LOOPS
 62
     3
 10
69.96552297089663
 20
307.4050395869714
 30
0.0
 40
3.125268822211069
 50
0.0335900531698565
 51
22.1731040339634
  0
ARC
  5
537
  8
INTERIOR_LOOPS
 62
     3
 10
70.37436505709184
 20
307.58135004892
 30
0.0
 40
2.680135858657951
 50
21.98129185992041
 51
41.82388934431137
  0
LINE
  5
538
  8
INTERIOR_LOOPS
 62
     3
 10
72.37159700757714
 20
309.368580520019
 30
0.0
 11
72.21237548379905
 21
309.5276113901338
 31
0.0
  0
ARC
  5
539
  8
INTERIOR_LOOPS
 62
     3
 10
70.52247726510262
 20
307.6272778704102
 30
0.0
 40
2.543034304868571
 50
48.35445633297126
 51
60.94159745384577
  0
ARC
  5
53A
  8
INTERIOR_LOOPS
 62
     3
 10
69.92341997311229
 20
306.4839843025544
 30
0.0
 40
3.833509176559307
 50
61.41461049381496
 51
69.9408159008173
  0
ARC
  5
53B
  8
INTERIOR_LOOPS
 62
     3
 10
68.76939896864035
 20
303.1839848115916
 30
0.0
 40
7.32930142403976
 50
70.31489594654155
 51
74.92322428444588
  0
LINE
  5
53C
  8
INTERIOR_LOOPS
 62
     3
 10
70.67584659331115
 20
310.2609980812427
 30
0.0
 11
70.09166470672591
 21
310.4074278124578
 31
0.0
  0
LINE
  5
53D
  8
INTERIOR_LOOPS
 62
     3
 10
70.09166470672591
 20
310.4074278124578
 30
0.0
 11
70.09144509128798
 21
310.4071287080844
 31
0.0
  0
LINE
  5
53E
  8
OUTER_LOOP
 62
     3
 10
150.8985637513638
 20
436.4387961427238
 30
0.0
 11
145.4985637513638
 21
433.3211046890239
 31
0.0
  0
LINE
  5
53F
  8
OUTER_LOOP
 62
     3
 10
145.4985637513638
 20
433.3211046890239
 30
0.0
 11
143.9604934095479
 21
434.209110014944
 31
0.0
  0
LINE
  5
540
  8
OUTER_LOOP
 62
     3
 10
143.9604934095479
 20
434.209110014944
 30
0.0
 11
143.7917003618441
 21
434.1477923625861
 31
0.0
  0
ARC
  5
541
  8
OUTER_LOOP
 62
     3
 10
138.7395241397526
 20
448.5675252061232
 30
0.0
 40
15.27917471128749
 50
280.35024975831
 51
289.3086978870547
  0
ARC
  5
542
  8
OUTER_LOOP
 62
     3
 10
138.0200087548789
 20
452.4909120143372
 30
0.0
 40
19.26799154240237
 50
269.1070936294894
 51
280.3589086103612
  0
ARC
  5
543
  8
OUTER_LOOP
 62
     3
 10
137.9398457559834
 20
452.0966845367472
 30
0.0
 40
18.87270783018316
 50
258.434143256805
 51
269.3317810833634
  0
ARC
  5
544
  8
OUTER_LOOP
 62
     3
 10
137.0808173038785
 20
447.9374613121122
 30
0.0
 40
14.62570989194422
 50
249.8252477280248
 51
258.4642525066733
  0
LINE
  5
545
  8
OUTER_LOOP
 62
     3
 10
132.036635009084
 20
434.2091105437134
 30
0.0
 11
130.4985637513638
 21
433.3211046890239
 31
0.0
  0
LINE
  5
546
  8
OUTER_LOOP
 62
     3
 10
130.4985637513638
 20
433.3211046890239
 30
0.0
 11
125.0985637513638
 21
436.4387961427238
 31
0.0
  0
LINE
  5
547
  8
OUTER_LOOP
 62
     3
 10
125.0985637513638
 20
436.4387961427238
 30
0.0
 11
125.0985637513638
 21
438.2233163095239
 31
0.0
  0
LINE
  5
548
  8
OUTER_LOOP
 62
     3
 10
125.0985637513638
 20
438.2233163095239
 30
0.0
 11
117.9985649213638
 21
438.2233163095239
 31
0.0
  0
LINE
  5
549
  8
OUTER_LOOP
 62
     3
 10
117.9985649213638
 20
438.2233163095239
 30
0.0
 11
117.9985649213638
 21
436.2233163095239
 31
0.0
  0
LINE
  5
54A
  8
OUTER_LOOP
 62
     3
 10
117.9985649213638
 20
436.2233163095239
 30
0.0
 11
114.9985649213638
 21
436.2233163095239
 31
0.0
  0
LINE
  5
54B
  8
OUTER_LOOP
 62
     3
 10
114.9985649213638
 20
436.2233163095239
 30
0.0
 11
114.9985649213638
 21
421.2233163095239
 31
0.0
  0
LINE
  5
54C
  8
OUTER_LOOP
 62
     3
 10
114.9985649213638
 20
421.2233163095239
 30
0.0
 11
117.9985649213638
 21
421.2233163095239
 31
0.0
  0
LINE
  5
54D
  8
OUTER_LOOP
 62
     3
 10
117.9985649213638
 20
421.2233163095239
 30
0.0
 11
117.9985649213638
 21
419.2233163095239
 31
0.0
  0
LINE
  5
54E
  8
OUTER_LOOP
 62
     3
 10
117.9985649213638
 20
419.2233163095239
 30
0.0
 11
157.9985649213638
 21
419.2233163095239
 31
0.0
  0
LINE
  5
54F
  8
OUTER_LOOP
 62
     3
 10
157.9985649213638
 20
419.2233163095239
 30
0.0
 11
157.9985649213638
 21
421.2233163095239
 31
0.0
  0
LINE
  5
550
  8
OUTER_LOOP
 62
     3
 10
157.9985649213638
 20
421.2233163095239
 30
0.0
 11
160.9985649213638
 21
421.2233163095239
 31
0.0
  0
LINE
  5
551
  8
OUTER_LOOP
 62
     3
 10
160.9985649213638
 20
421.2233163095239
 30
0.0
 11
160.9985649213638
 21
436.2233163095239
 31
0.0
  0
LINE
  5
552
  8
OUTER_LOOP
 62
     3
 10
160.9985649213638
 20
436.2233163095239
 30
0.0
 11
157.9985649213638
 21
436.2233163095239
 31
0.0
  0
LINE
  5
553
  8
OUTER_LOOP
 62
     3
 10
157.9985649213638
 20
436.2233163095239
 30
0.0
 11
157.9985649213638
 21
438.2233163095239
 31
0.0
  0
LINE
  5
554
  8
OUTER_LOOP
 62
     3
 10
157.9985649213638
 20
438.2233163095239
 30
0.0
 11
150.8985637513638
 21
438.2233163095239
 31
0.0
  0
LINE
  5
555
  8
OUTER_LOOP
 62
     3
 10
150.8985637513638
 20
438.2233163095239
 30
0.0
 11
150.8985637513638
 21
436.4387961427238
 31
0.0
  0
ARC
  5
556
  8
OUTER_LOOP
 62
     3
 10
90.2672932449023
 20
355.7655994168075
 30
0.0
 40
50.86034197935419
 50
183.5436856684177
 51
213.599958768706
  0
ARC
  5
557
  8
OUTER_LOOP
 62
     3
 10
56.13447190258756
 20
330.2445144629965
 30
0.0
 40
8.638224402910232
 50
197.6879011183256
 51
319.0869903832769
  0
ARC
  5
558
  8
OUTER_LOOP
 62
     3
 10
56.28585746457161
 20
330.086843917232
 30
0.0
 40
8.420584981203087
 50
319.2231306644351
 51
9.193380925252951
  0
ARC
  5
559
  8
OUTER_LOOP
 62
     3
 10
122.1819607384892
 20
332.2668205432068
 30
0.0
 40
57.58973152460735
 50
138.6187946859724
 51
180.830412625894
  0
ARC
  5
55A
  8
OUTER_LOOP
 62
     3
 10
97.06258181775482
 20
354.4140821778266
 30
0.0
 40
24.10116567524288
 50
85.12738338740846
 51
138.6476741946872
  0
ARC
  5
55B
  8
OUTER_LOOP
 62
     3
 10
91.7808906298963
 20
291.9241066493425
 30
0.0
 40
86.81394533478122
 50
52.16991453250304
 51
85.15730766644786
  0
ARC
  5
55C
  8
OUTER_LOOP
 62
     3
 10
150.2468711073807
 20
367.1900671656315
 30
0.0
 40
8.49207932902914
 50
232.0612535164511
 51
0.1090639712507187
  0
LINE
  5
55D
  8
OUTER_LOOP
 62
     3
 10
158.7389350512765
 20
367.206232044517
 30
0.0
 11
158.738482946375
 21
390.0629516446359
 31
0.0
  0
LINE
  5
55E
  8
OUTER_LOOP
 62
     3
 10
158.738482946375
 20
390.0629516446359
 30
0.0
 11
158.330297379775
 21
390.4292045125359
 31
0.0
  0
LINE
  5
55F
  8
OUTER_LOOP
 62
     3
 10
158.330297379775
 20
390.4292045125359
 30
0.0
 11
154.837853044475
 21
393.5628696720359
 31
0.0
  0
LINE
  5
560
  8
OUTER_LOOP
 62
     3
 10
154.837853044475
 20
393.5628696720359
 30
0.0
 11
158.330309957775
 21
396.6965194064359
 31
0.0
  0
LINE
  5
561
  8
OUTER_LOOP
 62
     3
 10
158.330309957775
 20
396.6965194064359
 30
0.0
 11
158.7384971690754
 21
397.0627702707814
 31
0.0
  0
LINE
  5
562
  8
OUTER_LOOP
 62
     3
 10
158.7384971690754
 20
397.0627702707814
 30
0.0
 11
158.7385351416037
 21
405.7217798617722
 31
0.0
  0
LINE
  5
563
  8
OUTER_LOOP
 62
     3
 10
158.7385351416037
 20
405.7217798617722
 30
0.0
 11
158.7390008122555
 21
405.7218768058287
 31
0.0
  0
ARC
  5
564
  8
OUTER_LOOP
 62
     3
 10
150.2551584652749
 20
405.7382355371913
 30
0.0
 40
8.48385811859866
 50
359.8895211550011
 51
90.11003675191525
  0
LINE
  5
565
  8
OUTER_LOOP
 62
     3
 10
150.2388651950698
 20
414.2220780101429
 30
0.0
 11
150.2387682037236
 21
414.2216120404333
 31
0.0
  0
LINE
  5
566
  8
OUTER_LOOP
 62
     3
 10
150.2387682037236
 20
414.2216120404333
 30
0.0
 11
130.2392160810925
 21
414.2215825822447
 31
0.0
  0
LINE
  5
567
  8
OUTER_LOOP
 62
     3
 10
130.2392160810925
 20
414.2215825822447
 30
0.0
 11
130.2391191358913
 21
414.222048250034
 31
0.0
  0
ARC
  5
568
  8
OUTER_LOOP
 62
     3
 10
130.2228129343492
 20
405.738108619536
 30
0.0
 40
8.483955300810107
 50
89.88987717752556
 51
180.1093329276094
  0
LINE
  5
569
  8
OUTER_LOOP
 62
     3
 10
121.7388730798557
 20
405.7219193798451
 30
0.0
 11
75.95789543428285
 21
405.722104916113
 31
0.0
  0
ARC
  5
56A
  8
OUTER_LOOP
 62
     3
 10
67.47116976897507
 20
405.7356404458844
 30
0.0
 40
8.486736459249808
 50
359.9086186943722
 51
90.0903345537671
  0
LINE
  5
56B
  8
OUTER_LOOP
 62
     3
 10
67.4577892854581
 20
414.2223663570601
 30
0.0
 11
67.45769222704637
 21
414.221892744171
 31
0.0
  0
LINE
  5
56C
  8
OUTER_LOOP
 62
     3
 10
67.45769222704637
 20
414.221892744171
 30
0.0
 11
47.45809064040074
 21
414.2223796319801
 31
0.0
  0
ARC
  5
56D
  8
OUTER_LOOP
 62
     3
 10
47.43325105290913
 20
405.7582660824358
 30
0.0
 40
8.464149997766272
 50
89.83185487363113
 51
159.5001445020097
  0
LINE
  5
56E
  8
OUTER_LOOP
 62
     3
 10
39.50510966856145
 20
408.7224538926935
 30
0.0
 11
39.50520692439773
 21
397.0634055671362
 31
0.0
  0
LINE
  5
56F
  8
OUTER_LOOP
 62
     3
 10
39.50520692439773
 20
397.0634055671362
 30
0.0
 11
39.91338894597499
 21
396.6971487865359
 31
0.0
  0
LINE
  5
570
  8
OUTER_LOOP
 62
     3
 10
39.91338894597499
 20
396.6971487865359
 30
0.0
 11
43.405802931975
 21
393.5634462575359
 31
0.0
  0
LINE
  5
571
  8
OUTER_LOOP
 62
     3
 10
43.405802931975
 20
393.5634462575359
 30
0.0
 11
39.91332292757499
 21
390.4298218695359
 31
0.0
  0
LINE
  5
572
  8
OUTER_LOOP
 62
     3
 10
39.91332292757499
 20
390.4298218695359
 30
0.0
 11
39.50513278837499
 21
390.0635741270359
 31
0.0
  0
LINE
  5
573
  8
OUTER_LOOP
 62
     3
 10
39.50513278837499
 20
390.0635741270359
 30
0.0
 11
39.50460767488944
 21
352.6219835017932
 31
0.0
  0
LINE
  5
574
  8
OUTER_LOOP
 62
     3
 10
39.50460767488944
 20
352.6219835017932
 30
0.0
 11
39.50419820751728
 21
352.6219441427238
 31
0.0
  0
CIRCLE
  5
575
  8
INTERIOR_LOOPS
 62
     3
 10
50.260511420775
 20
382.1509044745359
 30
0.0
 40
2.998353422585277
  0
CIRCLE
  5
576
  8
INTERIOR_LOOPS
 62
     3
 10
49.42780546017499
 20
374.6999417362359
 30
0.0
 40
2.997931180818648
  0
CIRCLE
  5
577
  8
INTERIOR_LOOPS
 62
     3
 10
56.024891076575
 20
330.5619607802359
 30
0.0
 40
2.997952199561607
  0
CIRCLE
  5
578
  8
INTERIOR_LOOPS
 62
     3
 10
53.56788469267499
 20
337.6460351327359
 30
0.0
 40
2.998218870532735
  0
CIRCLE
  5
579
  8
INTERIOR_LOOPS
 62
     3
 10
51.64280542587499
 20
344.8927778315359
 30
0.0
 40
2.997930468644569
  0
CIRCLE
  5
57A
  8
INTERIOR_LOOPS
 62
     3
 10
50.260201101475
 20
352.2622546266359
 30
0.0
 40
2.998263212782569
  0
CIRCLE
  5
57B
  8
INTERIOR_LOOPS
 62
     3
 10
49.427611865675
 20
359.7139930120359
 30
0.0
 40
2.998263359820409
  0
CIRCLE
  5
57C
  8
INTERIOR_LOOPS
 62
     3
 10
49.14961615997499
 20
367.2069979053359
 30
0.0
 40
2.997930068970673
  0
CIRCLE
  5
57D
  8
INTERIOR_LOOPS
 62
     3
 10
150.238733152775
 20
367.2061252386359
 30
0.0
 40
2.997926165514564
  0
LINE
  5
57E
  8
INTERIOR_LOOPS
 62
     3
 10
130.238916298175
 20
402.7215756786359
 30
0.0
 11
130.2391362269905
 21
402.7218771481375
 31
0.0
  0
LINE
  5
57F
  8
INTERIOR_LOOPS
 62
     3
 10
130.2391362269905
 20
402.7218771481375
 30
0.0
 11
150.2387098505749
 21
402.721877148211
 31
0.0
  0
LINE
  5
580
  8
INTERIOR_LOOPS
 62
     3
 10
150.2387098505749
 20
402.721877148211
 30
0.0
 11
150.2389297715872
 21
402.7215756862049
 31
0.0
  0
LINE
  5
581
  8
INTERIOR_LOOPS
 62
     3
 10
150.2389297715872
 20
402.7215756862049
 30
0.0
 11
150.2391496925995
 21
402.7212742241988
 31
0.0
  0
LINE
  5
582
  8
INTERIOR_LOOPS
 62
     3
 10
150.2391496925995
 20
402.7212742241988
 30
0.0
 11
150.823649209888
 21
402.8668517836047
 31
0.0
  0
ARC
  5
583
  8
INTERIOR_LOOPS
 62
     3
 10
149.2467861189004
 20
408.8943723166738
 30
0.0
 40
6.230369249433577
 50
284.6606181230597
 51
290.0813745467682
  0
ARC
  5
584
  8
INTERIOR_LOOPS
 62
     3
 10
150.2284695856081
 20
406.2905789884347
 30
0.0
 40
3.447919332524156
 50
289.6164281477385
 51
299.0986848869168
  0
ARC
  5
585
  8
INTERIOR_LOOPS
 62
     3
 10
150.7396418150939
 20
405.3986438494319
 30
0.0
 40
2.420004678442537
 50
298.7934520200304
 51
312.0296390767708
  0
ARC
  5
586
  8
INTERIOR_LOOPS
 62
     3
 10
150.6506758729534
 20
405.4613549363346
 30
0.0
 40
2.526265348525888
 50
312.5761854756098
 51
333.3692563048932
  0
LINE
  5
587
  8
INTERIOR_LOOPS
 62
     3
 10
152.9089394571268
 20
404.328984769137
 30
0.0
 11
153.0074183753277
 21
404.5434588388115
 31
0.0
  0
ARC
  5
588
  8
INTERIOR_LOOPS
 62
     3
 10
150.1195899122484
 20
405.7210886971997
 30
0.0
 40
3.118712124505596
 50
337.8148173144052
 51
0.0129781160688196
  0
ARC
  5
589
  8
INTERIOR_LOOPS
 62
     3
 10
150.1107496059218
 20
405.7208347406815
 30
0.0
 40
3.127552498277994
 50
0.0175938358053166
 51
22.15223513665125
  0
ARC
  5
58A
  8
INTERIOR_LOOPS
 62
     3
 10
150.5261151158961
 20
405.8973125371199
 30
0.0
 40
2.676311532580706
 50
22.00602019595965
 51
41.86716502881174
  0
LINE
  5
58B
  8
INTERIOR_LOOPS
 62
     3
 10
152.5191486427214
 20
407.6834986361519
 30
0.0
 11
152.3599129966647
 21
407.842540750818
 31
0.0
  0
ARC
  5
58C
  8
INTERIOR_LOOPS
 62
     3
 10
150.6649552118145
 20
405.9398706249407
 30
0.0
 40
2.548143539977802
 50
48.30435592252325
 51
60.87212089794695
  0
LINE
  5
58D
  8
INTERIOR_LOOPS
 62
     3
 10
151.9052907966165
 20
408.1657644088856
 30
0.0
 11
151.6524237374202
 21
408.2925650463349
 31
0.0
  0
LINE
  5
58E
  8
INTERIOR_LOOPS
 62
     3
 10
151.6524237374202
 20
408.2925650463349
 30
0.0
 11
151.3860583076035
 21
408.4008403051349
 31
0.0
  0
ARC
  5
58F
  8
INTERIOR_LOOPS
 62
     3
 10
148.9363007622238
 20
401.5569340724601
 30
0.0
 40
7.269137813578055
 50
70.3053106893505
 51
74.9509788523457
  0
LINE
  5
590
  8
INTERIOR_LOOPS
 62
     3
 10
150.8236987939669
 20
408.5767697701501
 30
0.0
 11
150.2391989301016
 21
408.7223497039204
 31
0.0
  0
LINE
  5
591
  8
INTERIOR_LOOPS
 62
     3
 10
150.2391989301016
 20
408.7223497039204
 30
0.0
 11
150.2388044763504
 21
408.7218090096593
 31
0.0
  0
LINE
  5
592
  8
INTERIOR_LOOPS
 62
     3
 10
150.2388044763504
 20
408.7218090096593
 30
0.0
 11
130.239201523049
 21
408.721717286001
 31
0.0
  0
LINE
  5
593
  8
INTERIOR_LOOPS
 62
     3
 10
130.239201523049
 20
408.721717286001
 30
0.0
 11
130.2389816062852
 21
408.7220187477274
 31
0.0
  0
LINE
  5
594
  8
INTERIOR_LOOPS
 62
     3
 10
130.2389816062852
 20
408.7220187477274
 30
0.0
 11
130.2387616895214
 21
408.7223202094539
 31
0.0
  0
LINE
  5
595
  8
INTERIOR_LOOPS
 62
     3
 10
130.2387616895214
 20
408.7223202094539
 30
0.0
 11
129.6542615087178
 21
408.5767455237478
 31
0.0
  0
ARC
  5
596
  8
INTERIOR_LOOPS
 62
     3
 10
131.2311099670579
 20
402.5491619863533
 30
0.0
 40
6.230426499112169
 50
104.6603412995352
 51
110.0810494875145
  0
ARC
  5
597
  8
INTERIOR_LOOPS
 62
     3
 10
130.2494349738448
 20
405.1529807335716
 30
0.0
 40
3.447955768144884
 50
109.6161229493968
 51
119.0982881534482
  0
ARC
  5
598
  8
INTERIOR_LOOPS
 62
     3
 10
129.7382622217941
 20
406.0449320362147
 30
0.0
 40
2.42002682381524
 50
118.7930648531032
 51
132.0291501683305
  0
ARC
  5
599
  8
INTERIOR_LOOPS
 62
     3
 10
129.8272157125183
 20
405.9822320248163
 30
0.0
 40
2.526270715907296
 50
132.5756743562941
 51
153.3684755315949
  0
LINE
  5
59A
  8
INTERIOR_LOOPS
 62
     3
 10
127.5689627614925
 20
407.1146353713469
 30
0.0
 11
127.4704767712418
 21
406.9001521179393
 31
0.0
  0
ARC
  5
59B
  8
INTERIOR_LOOPS
 62
     3
 10
130.3582586451391
 20
405.7225102338435
 30
0.0
 40
3.118673525457019
 50
157.8142895361738
 51
180.0127226922378
  0
ARC
  5
59C
  8
INTERIOR_LOOPS
 62
     3
 10
130.367096822884
 20
405.7227666601036
 30
0.0
 40
3.127511770276159
 50
180.0173844482171
 51
202.1523239464673
  0
ARC
  5
59D
  8
INTERIOR_LOOPS
 62
     3
 10
129.9517611547178
 20
405.5462999359569
 30
0.0
 40
2.676302608839594
 50
202.0061021379777
 51
221.8671089007683
  0
LINE
  5
59E
  8
INTERIOR_LOOPS
 62
     3
 10
127.958732523575
 20
403.7601217450905
 30
0.0
 11
128.1179761541144
 21
403.6010720461804
 31
0.0
  0
ARC
  5
59F
  8
INTERIOR_LOOPS
 62
     3
 10
129.8129179552177
 20
405.5037384776343
 30
0.0
 40
2.548130149444653
 50
228.3045690270042
 51
240.8724097416494
  0
LINE
  5
5A0
  8
INTERIOR_LOOPS
 62
     3
 10
128.5726001096945
 20
403.2778501379852
 30
0.0
 11
128.8254679754371
 21
403.1510507264449
 31
0.0
  0
LINE
  5
5A1
  8
INTERIOR_LOOPS
 62
     3
 10
128.8254679754371
 20
403.1510507264449
 30
0.0
 11
129.0918341711133
 21
403.0427768755845
 31
0.0
  0
ARC
  5
5A2
  8
INTERIOR_LOOPS
 62
     3
 10
131.5415369465628
 20
409.8866518598491
 30
0.0
 40
7.269089935355611
 50
250.3056341319899
 51
254.951336201599
  0
LINE
  5
5A3
  8
INTERIOR_LOOPS
 62
     3
 10
129.6541951280882
 20
402.8668506270132
 30
0.0
 11
130.2386963693595
 21
402.7212742091342
 31
0.0
  0
LINE
  5
5A4
  8
INTERIOR_LOOPS
 62
     3
 10
130.2386963693595
 20
402.7212742091342
 30
0.0
 11
130.238916298175
 21
402.7215756786359
 31
0.0
  0
LINE
  5
5A5
  8
INTERIOR_LOOPS
 62
     3
 10
67.45784503349351
 20
408.7223254781948
 30
0.0
 11
67.45762541805563
 21
408.7220263738214
 31
0.0
  0
LINE
  5
5A6
  8
INTERIOR_LOOPS
 62
     3
 10
67.45762541805563
 20
408.7220263738214
 30
0.0
 11
47.45808455033554
 21
408.7222999614991
 31
0.0
  0
LINE
  5
5A7
  8
INTERIOR_LOOPS
 62
     3
 10
47.45808455033554
 20
408.7222999614991
 30
0.0
 11
47.45786494230775
 21
408.7225990574698
 31
0.0
  0
LINE
  5
5A8
  8
INTERIOR_LOOPS
 62
     3
 10
47.45786494230775
 20
408.7225990574698
 30
0.0
 11
47.45764533427999
 21
408.7228981534404
 31
0.0
  0
LINE
  5
5A9
  8
INTERIOR_LOOPS
 62
     3
 10
47.45764533427999
 20
408.7228981534404
 30
0.0
 11
47.16410107759479
 21
408.6516649677778
 31
0.0
  0
LINE
  5
5AA
  8
INTERIOR_LOOPS
 62
     3
 10
47.16410107759479
 20
408.6516649677778
 30
0.0
 11
46.87344375268927
 21
408.576499499306
 31
0.0
  0
ARC
  5
5AB
  8
INTERIOR_LOOPS
 62
     3
 10
48.45688322938094
 20
402.5303836405889
 30
0.0
 40
6.250023804224747
 50
104.6757984572901
 51
110.0805237329314
  0
ARC
  5
5AC
  8
INTERIOR_LOOPS
 62
     3
 10
47.47561189064994
 20
405.132229878968
 30
0.0
 40
3.469546441773856
 50
109.6131454061085
 51
119.0355830395842
  0
ARC
  5
5AD
  8
INTERIOR_LOOPS
 62
     3
 10
46.94785064251525
 20
406.0541715643819
 30
0.0
 40
2.407365969810005
 50
118.7032231232578
 51
132.0027848633641
  0
ARC
  5
5AE
  8
INTERIOR_LOOPS
 62
     3
 10
47.04309384704258
 20
405.9866624267951
 30
0.0
 40
2.521396402374446
 50
132.5845596003118
 51
153.4250172347256
  0
LINE
  5
5AF
  8
INTERIOR_LOOPS
 62
     3
 10
44.78808383678515
 20
407.1146560755119
 30
0.0
 11
44.68963328766294
 21
406.9000331976289
 31
0.0
  0
ARC
  5
5B0
  8
INTERIOR_LOOPS
 62
     3
 10
47.57744866678851
 20
405.7217754962342
 30
0.0
 40
3.118937138643577
 50
157.8040467542123
 51
179.9890771842984
  0
ARC
  5
5B1
  8
INTERIOR_LOOPS
 62
     3
 10
47.58381886471134
 20
405.7241921523469
 30
0.0
 40
3.125307811025152
 50
180.0334036301941
 51
202.1726700377192
  0
ARC
  5
5B2
  8
INTERIOR_LOOPS
 62
     3
 10
47.17492500670517
 20
405.5478642775925
 30
0.0
 40
2.680120400495487
 50
201.9808576477173
 51
221.8237916211821
  0
LINE
  5
5B3
  8
INTERIOR_LOOPS
 62
     3
 10
45.17770152734943
 20
403.7606475211071
 30
0.0
 11
45.33691485038679
 21
403.6016239691012
 31
0.0
  0
ARC
  5
5B4
  8
INTERIOR_LOOPS
 62
     3
 10
47.02680029126164
 20
405.5019266330774
 30
0.0
 40
2.543002756191211
 50
228.3542094907185
 51
240.9414944001682
  0
ARC
  5
5B5
  8
INTERIOR_LOOPS
 62
     3
 10
47.62585625850741
 20
406.6452156116051
 30
0.0
 40
3.833472927436619
 50
241.4145305932494
 51
249.9408165634282
  0
ARC
  5
5B6
  8
INTERIOR_LOOPS
 62
     3
 10
48.77987465695523
 20
409.9452136211507
 30
0.0
 40
7.329262903298543
 50
250.3149134239462
 51
254.9232707872806
  0
LINE
  5
5B7
  8
INTERIOR_LOOPS
 62
     3
 10
46.87344279590506
 20
402.8682359989704
 30
0.0
 11
47.45762579775344
 21
402.7218066414673
 31
0.0
  0
LINE
  5
5B8
  8
INTERIOR_LOOPS
 62
     3
 10
47.45762579775344
 20
402.7218066414673
 30
0.0
 11
47.45801974989688
 21
402.7223431767567
 31
0.0
  0
LINE
  5
5B9
  8
INTERIOR_LOOPS
 62
     3
 10
47.45801974989688
 20
402.7223431767567
 30
0.0
 11
67.45761139734476
 21
402.7221536016502
 31
0.0
  0
LINE
  5
5BA
  8
INTERIOR_LOOPS
 62
     3
 10
67.45761139734476
 20
402.7221536016502
 30
0.0
 11
67.45783100457301
 21
402.72185450291
 31
0.0
  0
LINE
  5
5BB
  8
INTERIOR_LOOPS
 62
     3
 10
67.45783100457301
 20
402.72185450291
 30
0.0
 11
67.45805061180123
 21
402.7215554041697
 31
0.0
  0
LINE
  5
5BC
  8
INTERIOR_LOOPS
 62
     3
 10
67.45805061180123
 20
402.7215554041697
 30
0.0
 11
67.75159533120767
 21
402.7927866529191
 31
0.0
  0
LINE
  5
5BD
  8
INTERIOR_LOOPS
 62
     3
 10
67.75159533120767
 20
402.7927866529191
 30
0.0
 11
68.04225312935627
 21
402.8679502208614
 31
0.0
  0
ARC
  5
5BE
  8
INTERIOR_LOOPS
 62
     3
 10
66.45885686963538
 20
408.9140591796888
 30
0.0
 40
6.250006180581879
 50
284.6754312244508
 51
290.0801708760611
  0
ARC
  5
5BF
  8
INTERIOR_LOOPS
 62
     3
 10
67.4401099580293
 20
406.312210732984
 30
0.0
 40
3.469533178486367
 50
289.6128035584811
 51
299.0352743831171
  0
ARC
  5
5C0
  8
INTERIOR_LOOPS
 62
     3
 10
67.96786500722261
 20
405.3902674007555
 30
0.0
 40
2.407354347877927
 50
298.7029246884129
 51
312.0025478945578
  0
ARC
  5
5C1
  8
INTERIOR_LOOPS
 62
     3
 10
67.87262481833534
 20
405.4577742070269
 30
0.0
 40
2.521380922831183
 50
312.5843214342954
 51
333.4246618634627
  0
LINE
  5
5C2
  8
INTERIOR_LOOPS
 62
     3
 10
70.12761398820189
 20
404.3297734970088
 30
0.0
 11
70.22607001558312
 21
404.544406163588
 31
0.0
  0
ARC
  5
5C3
  8
INTERIOR_LOOPS
 62
     3
 10
67.33829046199527
 20
405.7226554567627
 30
0.0
 40
3.118900791462706
 50
337.8039411447821
 51
359.9892185534271
  0
ARC
  5
5C4
  8
INTERIOR_LOOPS
 62
     3
 10
67.33192291310216
 20
405.7202363570817
 30
0.0
 40
3.125268822211069
 50
0.0335900531688144
 51
22.17310403396244
  0
ARC
  5
5C5
  8
INTERIOR_LOOPS
 62
     3
 10
67.74076499929737
 20
405.8965468190302
 30
0.0
 40
2.680135858657951
 50
21.98129185992153
 51
41.82388934431227
  0
LINE
  5
5C6
  8
INTERIOR_LOOPS
 62
     3
 10
69.73799694978267
 20
407.6837772901293
 30
0.0
 11
69.57877542600458
 21
407.8428081602441
 31
0.0
  0
ARC
  5
5C7
  8
INTERIOR_LOOPS
 62
     3
 10
67.88887720730816
 20
405.9424746405205
 30
0.0
 40
2.543034304868571
 50
48.35445633297126
 51
60.94159745384577
  0
ARC
  5
5C8
  8
INTERIOR_LOOPS
 62
     3
 10
67.28981991531782
 20
404.7991810726647
 30
0.0
 40
3.833509176559307
 50
61.41461049381496
 51
69.9408159008173
  0
ARC
  5
5C9
  8
INTERIOR_LOOPS
 62
     3
 10
66.13579891084588
 20
401.4991815817019
 30
0.0
 40
7.32930142403976
 50
70.3148959465414
 51
74.92322428444575
  0
LINE
  5
5CA
  8
INTERIOR_LOOPS
 62
     3
 10
68.04224653551668
 20
408.576194851353
 30
0.0
 11
67.45806464893144
 21
408.7226245825681
 31
0.0
  0
LINE
  5
5CB
  8
INTERIOR_LOOPS
 62
     3
 10
67.45806464893144
 20
408.7226245825681
 30
0.0
 11
67.45784503349351
 21
408.7223254781948
 31
0.0
  0
ARC
  5
5CC
  8
OUTER_LOOP
 62
     3
 10
125.0000001
 20
20.0000001
 30
0.0
 40
15.0
 50
270.0
 51
360.0
  0
LINE
  5
5CD
  8
OUTER_LOOP
 62
     3
 10
140.0000001
 20
20.0000001
 30
0.0
 11
140.0000001000001
 21
80.0000001
 31
0.0
  0
ARC
  5
5CE
  8
OUTER_LOOP
 62
     3
 10
125.0000001
 20
80.00000009999997
 30
0.0
 40
15.00000000000003
 50
0.0000000000001086
 51
89.99999999999994
  0
LINE
  5
5CF
  8
OUTER_LOOP
 62
     3
 10
125.0000001
 20
95.0000001
 30
0.0
 11
20.00000010000002
 21
95.0000001
 31
0.0
  0
ARC
  5
5D0
  8
OUTER_LOOP
 62
     3
 10
20.00000010000002
 20
80.0000001
 30
0.0
 40
15.0
 50
90.0
 51
179.9999999999999
  0
LINE
  5
5D1
  8
OUTER_LOOP
 62
     3
 10
5.000000100000022
 20
80.00000010000001
 30
0.0
 11
5.000000100000022
 21
20.00000010000001
 31
0.0
  0
ARC
  5
5D2
  8
OUTER_LOOP
 62
     3
 10
20.00000010000002
 20
20.00000010000001
 30
0.0
 40
15.0
 50
180.0
 51
270.0
  0
LINE
  5
5D3
  8
OUTER_LOOP
 62
     3
 10
20.00000010000002
 20
5.000000100000006
 30
0.0
 11
125.0000001
 21
5.0000001
 31
0.0
  0
CIRCLE
  5
5D4
  8
INTERIOR_LOOPS
 62
     3
 10
65.00000010000002
 20
50.00000010000001
 30
0.0
 40
2.999999999999999
  0
CIRCLE
  5
5D5
  8
INTERIOR_LOOPS
 62
     3
 10
50.00000010000002
 20
65.00000010000001
 30
0.0
 40
4.0
  0
CIRCLE
  5
5D6
  8
INTERIOR_LOOPS
 62
     3
 10
50.00000010000002
 20
35.0000001
 30
0.0
 40
4.0
  0
CIRCLE
  5
5D7
  8
INTERIOR_LOOPS
 62
     3
 10
80.00000010000002
 20
65.0000001
 30
0.0
 40
4.0
  0
CIRCLE
  5
5D8
  8
INTERIOR_LOOPS
 62
     3
 10
80.00000010000002
 20
35.0000001
 30
0.0
 40
4.0
  0
CIRCLE
  5
5D9
  8
INTERIOR_LOOPS
 62
     3
 10
110.0000001
 20
65.0000001
 30
0.0
 40
4.0
  0
CIRCLE
  5
5DA
  8
INTERIOR_LOOPS
 62
     3
 10
110.0000001
 20
35.0000001
 30
0.0
 40
4.0
  0
LINE
  5
5DB
  8
INTERIOR_LOOPS
 62
     3
 10
71.06090825390002
 20
26.9000001
 30
0.0
 11
71.06090825390002
 21
30.10000010000001
 31
0.0
  0
LINE
  5
5DC
  8
INTERIOR_LOOPS
 62
     3
 10
71.06090825390002
 20
30.10000010000001
 30
0.0
 11
58.86090799260002
 21
30.10000010000001
 31
0.0
  0
LINE
  5
5DD
  8
INTERIOR_LOOPS
 62
     3
 10
58.86090799260002
 20
30.10000010000001
 30
0.0
 11
58.86090799260002
 21
26.9000001
 31
0.0
  0
LINE
  5
5DE
  8
INTERIOR_LOOPS
 62
     3
 10
58.86090799260002
 20
26.9000001
 30
0.0
 11
71.06090825390002
 21
26.9000001
 31
0.0
  0
LINE
  5
5DF
  8
INTERIOR_LOOPS
 62
     3
 10
58.86090825390002
 20
69.9000001
 30
0.0
 11
71.06090851530004
 21
69.9000001
 31
0.0
  0
LINE
  5
5E0
  8
INTERIOR_LOOPS
 62
     3
 10
71.06090851530004
 20
69.9000001
 30
0.0
 11
71.06090851530004
 21
73.10000009999999
 31
0.0
  0
LINE
  5
5E1
  8
INTERIOR_LOOPS
 62
     3
 10
71.06090851530004
 20
73.10000009999999
 30
0.0
 11
58.86090825390002
 21
73.10000009999999
 31
0.0
  0
LINE
  5
5E2
  8
INTERIOR_LOOPS
 62
     3
 10
58.86090825390002
 20
73.10000009999999
 30
0.0
 11
58.86090825390002
 21
69.9000001
 31
0.0
  0
ARC
  5
5E3
  8
INTERIOR_LOOPS
 62
     3
 10
27.91464060080731
 20
49.63689988727168
 30
0.0
 40
0.9999999999999961
 50
215.3489113546977
 51
0.0002186709655383
  0
LINE
  5
5E4
  8
INTERIOR_LOOPS
 62
     3
 10
27.09899660440001
 20
49.05834576610001
 30
0.0
 11
25.95964060080001
 21
50.66460670150001
 31
0.0
  0
LINE
  5
5E5
  8
INTERIOR_LOOPS
 62
     3
 10
25.95964060080001
 20
50.66460670150001
 30
0.0
 11
25.95964060080001
 21
44.74200630610001
 31
0.0
  0
LINE
  5
5E6
  8
INTERIOR_LOOPS
 62
     3
 10
25.95964060080001
 20
44.74200630610001
 30
0.0
 11
28.87211739830002
 21
41.00000010000001
 31
0.0
  0
LINE
  5
5E7
  8
INTERIOR_LOOPS
 62
     3
 10
28.87211739830002
 20
41.00000010000001
 30
0.0
 11
33.41464060080003
 21
41.00000010000001
 31
0.0
  0
LINE
  5
5E8
  8
INTERIOR_LOOPS
 62
     3
 10
33.41464060080003
 20
41.00000010000001
 30
0.0
 11
33.41464060080003
 21
59.00000010000001
 31
0.0
  0
LINE
  5
5E9
  8
INTERIOR_LOOPS
 62
     3
 10
33.41464060080003
 20
59.00000010000001
 30
0.0
 11
28.91464060080003
 21
59.00000010000001
 31
0.0
  0
LINE
  5
5EA
  8
INTERIOR_LOOPS
 62
     3
 10
28.91464060080003
 20
59.00000010000001
 30
0.0
 11
28.91464060080003
 21
49.63690370380001
 31
0.0
  0
ARC
  5
5EB
  8
INTERIOR_LOOPS
 62
     3
 10
21.04716380320003
 20
49.42553536186021
 30
0.0
 40
1.000000000000006
 50
37.8943216825776
 51
179.9999999977198
  0
LINE
  5
5EC
  8
INTERIOR_LOOPS
 62
     3
 10
21.83630876310002
 20
50.03974235650001
 30
0.0
 11
22.95964060080001
 21
48.59646400610001
 31
0.0
  0
LINE
  5
5ED
  8
INTERIOR_LOOPS
 62
     3
 10
22.95964060080001
 20
48.59646400610001
 30
0.0
 11
22.95964060080001
 21
54.89399838480001
 31
0.0
  0
LINE
  5
5EE
  8
INTERIOR_LOOPS
 62
     3
 10
22.95964060080001
 20
54.89399838480001
 30
0.0
 11
20.04716380320002
 21
59.00000010000001
 31
0.0
  0
LINE
  5
5EF
  8
INTERIOR_LOOPS
 62
     3
 10
20.04716380320002
 20
59.00000010000001
 30
0.0
 11
15.54716380320002
 21
59.00000010000001
 31
0.0
  0
LINE
  5
5F0
  8
INTERIOR_LOOPS
 62
     3
 10
15.54716380320002
 20
59.00000010000001
 30
0.0
 11
15.54716380320002
 21
41.00000010000001
 31
0.0
  0
LINE
  5
5F1
  8
INTERIOR_LOOPS
 62
     3
 10
15.54716380320002
 20
41.00000010000001
 30
0.0
 11
20.04716380320002
 21
41.00000010000001
 31
0.0
  0
LINE
  5
5F2
  8
INTERIOR_LOOPS
 62
     3
 10
20.04716380320002
 20
41.00000010000001
 30
0.0
 11
20.04716380320002
 21
49.42553536190001
 31
0.0
  0
LINE
  5
5F3
  8
OUTER_LOOP
 62
     3
 10
125.3949788029475
 20
138.1386593558198
 30
0.0
 11
130.8949788029475
 21
138.1386593558198
 31
0.0
  0
LINE
  5
5F4
  8
OUTER_LOOP
 62
     3
 10
130.8949788029475
 20
138.1386593558198
 30
0.0
 11
130.8949788029475
 21
154.1386593558198
 31
0.0
  0
LINE
  5
5F5
  8
OUTER_LOOP
 62
     3
 10
130.8949788029475
 20
154.1386593558198
 30
0.0
 11
125.3949788029475
 21
154.1386593558198
 31
0.0
  0
LINE
  5
5F6
  8
OUTER_LOOP
 62
     3
 10
125.3949788029475
 20
154.1386593558198
 30
0.0
 11
125.3949788029475
 21
159.1386593558198
 31
0.0
  0
LINE
  5
5F7
  8
OUTER_LOOP
 62
     3
 10
125.3949788029475
 20
159.1386593558198
 30
0.0
 11
85.39497880294755
 21
159.1386593558198
 31
0.0
  0
LINE
  5
5F8
  8
OUTER_LOOP
 62
     3
 10
85.39497880294755
 20
159.1386593558198
 30
0.0
 11
85.39497880294755
 21
154.1386593558198
 31
0.0
  0
LINE
  5
5F9
  8
OUTER_LOOP
 62
     3
 10
85.39497880294755
 20
154.1386593558198
 30
0.0
 11
79.89497880294755
 21
154.1386593558198
 31
0.0
  0
LINE
  5
5FA
  8
OUTER_LOOP
 62
     3
 10
79.89497880294755
 20
154.1386593558198
 30
0.0
 11
79.89497880294755
 21
138.1386593558198
 31
0.0
  0
LINE
  5
5FB
  8
OUTER_LOOP
 62
     3
 10
79.89497880294755
 20
138.1386593558198
 30
0.0
 11
85.39497880294755
 21
138.1386593558198
 31
0.0
  0
LINE
  5
5FC
  8
OUTER_LOOP
 62
     3
 10
85.39497880294755
 20
138.1386593558198
 30
0.0
 11
85.39497880294755
 21
133.1386593558198
 31
0.0
  0
LINE
  5
5FD
  8
OUTER_LOOP
 62
     3
 10
85.39497880294755
 20
133.1386593558198
 30
0.0
 11
125.3949788029475
 21
133.1386593558198
 31
0.0
  0
LINE
  5
5FE
  8
OUTER_LOOP
 62
     3
 10
125.3949788029475
 20
133.1386593558198
 30
0.0
 11
125.3949788029475
 21
138.1386593558198
 31
0.0
  0
CIRCLE
  5
5FF
  8
INTERIOR_LOOPS
 62
     3
 10
105.3949788029475
 20
146.1386593558198
 30
0.0
 40
5.000000000000004
  0
LINE
  5
600
  8
OUTER_LOOP
 62
     3
 10
128.457677544471
 20
174.1386593558198
 30
0.0
 11
72.45767754447095
 21
174.1386593558198
 31
0.0
  0
LINE
  5
601
  8
OUTER_LOOP
 62
     3
 10
72.45767754447095
 20
174.1386593558198
 30
0.0
 11
72.45767754447095
 21
168.1386593558198
 31
0.0
  0
LINE
  5
602
  8
OUTER_LOOP
 62
     3
 10
72.45767754447095
 20
168.1386593558198
 30
0.0
 11
75.45767754447095
 21
168.1386593558198
 31
0.0
  0
LINE
  5
603
  8
OUTER_LOOP
 62
     3
 10
75.45767754447095
 20
168.1386593558198
 30
0.0
 11
75.45767754447095
 21
164.1386593558198
 31
0.0
  0
LINE
  5
604
  8
OUTER_LOOP
 62
     3
 10
75.45767754447095
 20
164.1386593558198
 30
0.0
 11
125.457677544471
 21
164.1386593558198
 31
0.0
  0
LINE
  5
605
  8
OUTER_LOOP
 62
     3
 10
125.457677544471
 20
164.1386593558198
 30
0.0
 11
125.457677544471
 21
168.1386593558198
 31
0.0
  0
LINE
  5
606
  8
OUTER_LOOP
 62
     3
 10
125.457677544471
 20
168.1386593558198
 30
0.0
 11
128.457677544471
 21
168.1386593558198
 31
0.0
  0
LINE
  5
607
  8
OUTER_LOOP
 62
     3
 10
128.457677544471
 20
168.1386593558198
 30
0.0
 11
128.457677544471
 21
174.1386593558198
 31
0.0
  0
LINE
  5
608
  8
OUTER_LOOP
 62
     3
 10
79.75310910000002
 20
182.1386593558198
 30
0.0
 11
83.75310910000002
 21
182.1386593558198
 31
0.0
  0
LINE
  5
609
  8
OUTER_LOOP
 62
     3
 10
83.75310910000002
 20
182.1386593558198
 30
0.0
 11
83.75310910000002
 21
179.1386593558198
 31
0.0
  0
LINE
  5
60A
  8
OUTER_LOOP
 62
     3
 10
83.75310910000002
 20
179.1386593558198
 30
0.0
 11
123.7531091
 21
179.1386593558198
 31
0.0
  0
LINE
  5
60B
  8
OUTER_LOOP
 62
     3
 10
123.7531091
 20
179.1386593558198
 30
0.0
 11
123.7531091
 21
182.1386593558198
 31
0.0
  0
LINE
  5
60C
  8
OUTER_LOOP
 62
     3
 10
123.7531091
 20
182.1386593558198
 30
0.0
 11
127.7531091
 21
182.1386593558198
 31
0.0
  0
LINE
  5
60D
  8
OUTER_LOOP
 62
     3
 10
127.7531091
 20
182.1386593558198
 30
0.0
 11
127.7531091
 21
202.1386593558198
 31
0.0
  0
LINE
  5
60E
  8
OUTER_LOOP
 62
     3
 10
127.7531091
 20
202.1386593558198
 30
0.0
 11
123.7531091
 21
202.1386593558198
 31
0.0
  0
LINE
  5
60F
  8
OUTER_LOOP
 62
     3
 10
123.7531091
 20
202.1386593558198
 30
0.0
 11
123.7531091
 21
205.1386593558198
 31
0.0
  0
LINE
  5
610
  8
OUTER_LOOP
 62
     3
 10
123.7531091
 20
205.1386593558198
 30
0.0
 11
83.75310910000002
 21
205.1386593558198
 31
0.0
  0
LINE
  5
611
  8
OUTER_LOOP
 62
     3
 10
83.75310910000002
 20
205.1386593558198
 30
0.0
 11
83.75310910000002
 21
202.1386593558198
 31
0.0
  0
LINE
  5
612
  8
OUTER_LOOP
 62
     3
 10
83.75310910000002
 20
202.1386593558198
 30
0.0
 11
79.75310910000002
 21
202.1386593558198
 31
0.0
  0
LINE
  5
613
  8
OUTER_LOOP
 62
     3
 10
79.75310910000002
 20
202.1386593558198
 30
0.0
 11
79.75310910000002
 21
182.1386593558198
 31
0.0
  0
CIRCLE
  5
614
  8
INTERIOR_LOOPS
 62
     3
 10
96.25310910000002
 20
191.9994065100198
 30
0.0
 40
3.000000000000003
  0
CIRCLE
  5
615
  8
INTERIOR_LOOPS
 62
     3
 10
111.2531091
 20
191.9994063835198
 30
0.0
 40
3.000000000000003
  0
LINE
  5
616
  8
OUTER_LOOP
 62
     3
 10
123.2531091
 20
212.1386593558198
 30
0.0
 11
126.7531091
 21
212.1386593558198
 31
0.0
  0
LINE
  5
617
  8
OUTER_LOOP
 62
     3
 10
126.7531091
 20
212.1386593558198
 30
0.0
 11
126.7531091
 21
224.1386593558198
 31
0.0
  0
LINE
  5
618
  8
OUTER_LOOP
 62
     3
 10
126.7531091
 20
224.1386593558198
 30
0.0
 11
123.2531091
 21
224.1386593558198
 31
0.0
  0
LINE
  5
619
  8
OUTER_LOOP
 62
     3
 10
123.2531091
 20
224.1386593558198
 30
0.0
 11
123.2531091
 21
226.1386593558198
 31
0.0
  0
LINE
  5
61A
  8
OUTER_LOOP
 62
     3
 10
123.2531091
 20
226.1386593558198
 30
0.0
 11
83.25310910000002
 21
226.1386593558198
 31
0.0
  0
LINE
  5
61B
  8
OUTER_LOOP
 62
     3
 10
83.25310910000002
 20
226.1386593558198
 30
0.0
 11
83.25310910000002
 21
224.1386593558198
 31
0.0
  0
LINE
  5
61C
  8
OUTER_LOOP
 62
     3
 10
83.25310910000002
 20
224.1386593558198
 30
0.0
 11
79.75310910000002
 21
224.1386593558198
 31
0.0
  0
LINE
  5
61D
  8
OUTER_LOOP
 62
     3
 10
79.75310910000002
 20
224.1386593558198
 30
0.0
 11
79.75310910000002
 21
212.1386593558198
 31
0.0
  0
LINE
  5
61E
  8
OUTER_LOOP
 62
     3
 10
79.75310910000002
 20
212.1386593558198
 30
0.0
 11
83.25310910000002
 21
212.1386593558198
 31
0.0
  0
LINE
  5
61F
  8
OUTER_LOOP
 62
     3
 10
83.25310910000002
 20
212.1386593558198
 30
0.0
 11
83.25310910000002
 21
210.1386593558198
 31
0.0
  0
LINE
  5
620
  8
OUTER_LOOP
 62
     3
 10
83.25310910000002
 20
210.1386593558198
 30
0.0
 11
123.2531091
 21
210.1386593558198
 31
0.0
  0
LINE
  5
621
  8
OUTER_LOOP
 62
     3
 10
123.2531091
 20
210.1386593558198
 30
0.0
 11
123.2531091
 21
212.1386593558198
 31
0.0
  0
CIRCLE
  5
622
  8
INTERIOR_LOOPS
 62
     3
 10
103.2531091
 20
218.1386593558198
 30
0.0
 40
3.0
  0
LINE
  5
623
  8
OUTER_LOOP
 62
     3
 10
124.7617272677135
 20
231.1386593558198
 30
0.0
 11
124.7617272677135
 21
267.1386593558199
 31
0.0
  0
LINE
  5
624
  8
OUTER_LOOP
 62
     3
 10
124.7617272677135
 20
267.1386593558199
 30
0.0
 11
118.7617272677135
 21
267.1386593558199
 31
0.0
  0
LINE
  5
625
  8
OUTER_LOOP
 62
     3
 10
118.7617272677135
 20
267.1386593558199
 30
0.0
 11
118.7617272677135
 21
264.1386593558199
 31
0.0
  0
LINE
  5
626
  8
OUTER_LOOP
 62
     3
 10
118.7617272677135
 20
264.1386593558199
 30
0.0
 11
102.8179737305135
 21
264.1386593558199
 31
0.0
  0
LINE
  5
627
  8
OUTER_LOOP
 62
     3
 10
102.8179737305135
 20
264.1386593558199
 30
0.0
 11
102.8179737305135
 21
267.1386593558199
 31
0.0
  0
LINE
  5
628
  8
OUTER_LOOP
 62
     3
 10
102.8179737305135
 20
267.1386593558199
 30
0.0
 11
96.81797373051347
 21
267.1386593558199
 31
0.0
  0
LINE
  5
629
  8
OUTER_LOOP
 62
     3
 10
96.81797373051347
 20
267.1386593558199
 30
0.0
 11
96.81797373051347
 21
231.1386593558198
 31
0.0
  0
LINE
  5
62A
  8
OUTER_LOOP
 62
     3
 10
96.81797373051347
 20
231.1386593558198
 30
0.0
 11
102.8179737305135
 21
231.1386593558198
 31
0.0
  0
LINE
  5
62B
  8
OUTER_LOOP
 62
     3
 10
102.8179737305135
 20
231.1386593558198
 30
0.0
 11
102.8179737305135
 21
234.1386593558198
 31
0.0
  0
LINE
  5
62C
  8
OUTER_LOOP
 62
     3
 10
102.8179737305135
 20
234.1386593558198
 30
0.0
 11
118.7617272677135
 21
234.1386593558198
 31
0.0
  0
LINE
  5
62D
  8
OUTER_LOOP
 62
     3
 10
118.7617272677135
 20
234.1386593558198
 30
0.0
 11
118.7617272677135
 21
231.1386593558198
 31
0.0
  0
LINE
  5
62E
  8
OUTER_LOOP
 62
     3
 10
118.7617272677135
 20
231.1386593558198
 30
0.0
 11
124.7617272677135
 21
231.1386593558198
 31
0.0
  0
ARC
  5
62F
  8
INTERIOR_LOOPS
 62
     3
 10
116.81797393699
 20
249.138659355764
 30
0.0
 40
2.000000000000003
 50
89.98451493311731
 51
269.9845031028824
  0
LINE
  5
630
  8
INTERIOR_LOOPS
 62
     3
 10
116.8174329932395
 20
247.138659428919
 30
0.0
 11
119.7611861229135
 21
247.1378635303198
 31
0.0
  0
ARC
  5
631
  8
INTERIOR_LOOPS
 62
     3
 10
119.7617270486869
 20
249.1378634572193
 30
0.0
 40
2.000000000049604
 50
269.9845036178888
 51
89.98451441736545
  0
LINE
  5
632
  8
INTERIOR_LOOPS
 62
     3
 10
119.7622675974874
 20
251.1378633842207
 30
0.0
 11
116.8185144677874
 21
251.1386592827207
 31
0.0
  0
ARC
  5
633
  8
INTERIOR_LOOPS
 62
     3
 10
101.8179738247567
 20
249.1386593558198
 30
0.0
 40
2.000000000000002
 50
90.00000269986937
 51
269.9999973001306
  0
LINE
  5
634
  8
INTERIOR_LOOPS
 62
     3
 10
101.8179737305135
 20
247.1386593558198
 30
0.0
 11
104.8179737305135
 21
247.1386593558198
 31
0.0
  0
ARC
  5
635
  8
INTERIOR_LOOPS
 62
     3
 10
104.8179736462198
 20
249.1386593558198
 30
0.0
 40
1.999999999999998
 50
270.0000024148367
 51
89.9999975851633
  0
LINE
  5
636
  8
INTERIOR_LOOPS
 62
     3
 10
104.8179737305135
 20
251.1386593558198
 30
0.0
 11
101.8179737305135
 21
251.1386593558198
 31
0.0
  0
LINE
  5
637
  8
OUTER_LOOP
 62
     3
 10
104.4985647513638
 20
415.3027805988773
 30
0.0
 11
109.9985647513638
 21
415.3027805988773
 31
0.0
  0
LINE
  5
638
  8
OUTER_LOOP
 62
     3
 10
109.9985647513638
 20
415.3027805988773
 30
0.0
 11
109.9985647513638
 21
431.3027805988773
 31
0.0
  0
LINE
  5
639
  8
OUTER_LOOP
 62
     3
 10
109.9985647513638
 20
431.3027805988773
 30
0.0
 11
104.4985647513638
 21
431.3027805988773
 31
0.0
  0
LINE
  5
63A
  8
OUTER_LOOP
 62
     3
 10
104.4985647513638
 20
431.3027805988773
 30
0.0
 11
104.4985647513638
 21
433.3027805988773
 31
0.0
  0
LINE
  5
63B
  8
OUTER_LOOP
 62
     3
 10
104.4985647513638
 20
433.3027805988773
 30
0.0
 11
82.49856475136377
 21
433.3027805988773
 31
0.0
  0
LINE
  5
63C
  8
OUTER_LOOP
 62
     3
 10
82.49856475136377
 20
433.3027805988773
 30
0.0
 11
82.49856475136377
 21
431.3027805988773
 31
0.0
  0
LINE
  5
63D
  8
OUTER_LOOP
 62
     3
 10
82.49856475136377
 20
431.3027805988773
 30
0.0
 11
76.99856475136377
 21
431.3027805988773
 31
0.0
  0
LINE
  5
63E
  8
OUTER_LOOP
 62
     3
 10
76.99856475136377
 20
431.3027805988773
 30
0.0
 11
76.99856475136377
 21
415.3027805988773
 31
0.0
  0
LINE
  5
63F
  8
OUTER_LOOP
 62
     3
 10
76.99856475136377
 20
415.3027805988773
 30
0.0
 11
82.49856475136377
 21
415.3027805988773
 31
0.0
  0
LINE
  5
640
  8
OUTER_LOOP
 62
     3
 10
82.49856475136377
 20
415.3027805988773
 30
0.0
 11
82.49856475136377
 21
413.3027805988773
 31
0.0
  0
LINE
  5
641
  8
OUTER_LOOP
 62
     3
 10
82.49856475136377
 20
413.3027805988773
 30
0.0
 11
104.4985647513638
 21
413.3027805988773
 31
0.0
  0
LINE
  5
642
  8
OUTER_LOOP
 62
     3
 10
104.4985647513638
 20
413.3027805988773
 30
0.0
 11
104.4985647513638
 21
415.3027805988773
 31
0.0
  0
CIRCLE
  5
643
  8
INTERIOR_LOOPS
 62
     3
 10
93.49856475136377
 20
423.3027805988773
 30
0.0
 40
5.000000000000004
  0
LINE
  5
644
  8
OUTER_LOOP
 62
     3
 10
81.81797326771347
 20
257.0998653558199
 30
0.0
 11
85.81797326771347
 21
257.0998653558199
 31
0.0
  0
LINE
  5
645
  8
OUTER_LOOP
 62
     3
 10
85.81797326771347
 20
257.0998653558199
 30
0.0
 11
85.81797326771347
 21
241.1774538886199
 31
0.0
  0
LINE
  5
646
  8
OUTER_LOOP
 62
     3
 10
85.81797326771347
 20
241.1774538886199
 30
0.0
 11
81.81797326771347
 21
241.1774538886199
 31
0.0
  0
LINE
  5
647
  8
OUTER_LOOP
 62
     3
 10
81.81797326771347
 20
241.1774538886199
 30
0.0
 11
81.81797326771347
 21
234.1386596222199
 31
0.0
  0
LINE
  5
648
  8
OUTER_LOOP
 62
     3
 10
81.81797326771347
 20
234.1386596222199
 30
0.0
 11
85.81797326771347
 21
234.1386596222199
 31
0.0
  0
LINE
  5
649
  8
OUTER_LOOP
 62
     3
 10
85.81797326771347
 20
234.1386596222199
 30
0.0
 11
85.81797326771347
 21
231.1386596222199
 31
0.0
  0
LINE
  5
64A
  8
OUTER_LOOP
 62
     3
 10
85.81797326771347
 20
231.1386596222199
 30
0.0
 11
91.81797326771347
 21
231.1386596222199
 31
0.0
  0
LINE
  5
64B
  8
OUTER_LOOP
 62
     3
 10
91.81797326771347
 20
231.1386596222199
 30
0.0
 11
91.81797326771347
 21
267.1386596222198
 31
0.0
  0
LINE
  5
64C
  8
OUTER_LOOP
 62
     3
 10
91.81797326771347
 20
267.1386596222198
 30
0.0
 11
85.81797326771347
 21
267.1386596222198
 31
0.0
  0
LINE
  5
64D
  8
OUTER_LOOP
 62
     3
 10
85.81797326771347
 20
267.1386596222198
 30
0.0
 11
85.81797326771347
 21
264.1386596222198
 31
0.0
  0
LINE
  5
64E
  8
OUTER_LOOP
 62
     3
 10
85.81797326771347
 20
264.1386596222198
 30
0.0
 11
81.81797326771347
 21
264.1386596222198
 31
0.0
  0
LINE
  5
64F
  8
OUTER_LOOP
 62
     3
 10
81.81797326771347
 20
264.1386596222198
 30
0.0
 11
81.81797326771347
 21
257.0998653558199
 31
0.0
  0
LINE
  5
650
  8
OUTER_LOOP
 62
     3
 10
74.75310910000002
 20
181.3938839160172
 30
0.0
 11
74.75310910000002
 21
217.3938839160172
 31
0.0
  0
LINE
  5
651
  8
OUTER_LOOP
 62
     3
 10
74.75310910000002
 20
217.3938839160172
 30
0.0
 11
68.75310910000002
 21
217.3938839160172
 31
0.0
  0
LINE
  5
652
  8
OUTER_LOOP
 62
     3
 10
68.75310910000002
 20
217.3938839160172
 30
0.0
 11
68.75310910000002
 21
214.3938839160172
 31
0.0
  0
LINE
  5
653
  8
OUTER_LOOP
 62
     3
 10
68.75310910000002
 20
214.3938839160172
 30
0.0
 11
64.75310910000002
 21
214.3938839160172
 31
0.0
  0
LINE
  5
654
  8
OUTER_LOOP
 62
     3
 10
64.75310910000002
 20
214.3938839160172
 30
0.0
 11
64.75310910000002
 21
184.3938839160172
 31
0.0
  0
LINE
  5
655
  8
OUTER_LOOP
 62
     3
 10
64.75310910000002
 20
184.3938839160172
 30
0.0
 11
68.75310910000002
 21
184.3938839160172
 31
0.0
  0
LINE
  5
656
  8
OUTER_LOOP
 62
     3
 10
68.75310910000002
 20
184.3938839160172
 30
0.0
 11
68.75310910000002
 21
181.3938839160172
 31
0.0
  0
LINE
  5
657
  8
OUTER_LOOP
 62
     3
 10
68.75310910000002
 20
181.3938839160172
 30
0.0
 11
74.75310910000002
 21
181.3938839160172
 31
0.0
  0
LINE
  5
658
  8
OUTER_LOOP
 62
     3
 10
64.45767754447094
 20
178.5185081
 30
0.0
 11
44.45767754447094
 21
178.5185081
 31
0.0
  0
LINE
  5
659
  8
OUTER_LOOP
 62
     3
 10
44.45767754447094
 20
178.5185081
 30
0.0
 11
44.45767754447094
 21
176.5185081
 31
0.0
  0
LINE
  5
65A
  8
OUTER_LOOP
 62
     3
 10
44.45767754447094
 20
176.5185081
 30
0.0
 11
41.45767754447094
 21
176.5185081
 31
0.0
  0
LINE
  5
65B
  8
OUTER_LOOP
 62
     3
 10
41.45767754447094
 20
176.5185081
 30
0.0
 11
41.45767754447094
 21
166.5185081
 31
0.0
  0
LINE
  5
65C
  8
OUTER_LOOP
 62
     3
 10
41.45767754447094
 20
166.5185081
 30
0.0
 11
44.45767754447094
 21
166.5185081
 31
0.0
  0
LINE
  5
65D
  8
OUTER_LOOP
 62
     3
 10
44.45767754447094
 20
166.5185081
 30
0.0
 11
44.45767754447094
 21
164.5185081
 31
0.0
  0
LINE
  5
65E
  8
OUTER_LOOP
 62
     3
 10
44.45767754447094
 20
164.5185081
 30
0.0
 11
64.45767754447094
 21
164.5185081
 31
0.0
  0
LINE
  5
65F
  8
OUTER_LOOP
 62
     3
 10
64.45767754447094
 20
164.5185081
 30
0.0
 11
64.45767754447094
 21
166.5185081
 31
0.0
  0
LINE
  5
660
  8
OUTER_LOOP
 62
     3
 10
64.45767754447094
 20
166.5185081
 30
0.0
 11
67.45767754447094
 21
166.5185081
 31
0.0
  0
LINE
  5
661
  8
OUTER_LOOP
 62
     3
 10
67.45767754447094
 20
166.5185081
 30
0.0
 11
67.45767754447094
 21
176.5185081
 31
0.0
  0
LINE
  5
662
  8
OUTER_LOOP
 62
     3
 10
67.45767754447094
 20
176.5185081
 30
0.0
 11
64.45767754447094
 21
176.5185081
 31
0.0
  0
LINE
  5
663
  8
OUTER_LOOP
 62
     3
 10
64.45767754447094
 20
176.5185081
 30
0.0
 11
64.45767754447094
 21
178.5185081
 31
0.0
  0
CIRCLE
  5
664
  8
INTERIOR_LOOPS
 62
     3
 10
54.45767754447094
 20
171.5185081
 30
0.0
 40
2.000000000000002
  0
LINE
  5
665
  8
OUTER_LOOP
 62
     3
 10
8.546806100000024
 20
379.0075320192368
 30
0.0
 11
7.945832880000024
 21
373.0377052890368
 31
0.0
  0
LINE
  5
666
  8
OUTER_LOOP
 62
     3
 10
7.945832880000024
 20
373.0377052890368
 30
0.0
 11
10.43326068430003
 21
372.7872997807368
 31
0.0
  0
LINE
  5
667
  8
OUTER_LOOP
 62
     3
 10
10.43326068430003
 20
372.7872997807368
 30
0.0
 11
5.081100763200022
 21
319.6210915411368
 31
0.0
  0
LINE
  5
668
  8
OUTER_LOOP
 62
     3
 10
5.081100763200022
 20
319.6210915411368
 30
0.0
 11
5.081100763155312
 21
172.3653108402257
 31
0.0
  0
ARC
  5
669
  8
OUTER_LOOP
 62
     3
 10
17.53600250830002
 20
171.1114951526368
 30
0.0
 40
12.51785250191312
 50
174.2514890605001
 51
274.0266653744
  0
LINE
  5
66A
  8
OUTER_LOOP
 62
     3
 10
18.41501526234685
 20
158.6245432492348
 30
0.0
 11
34.26149980270001
 21
159.7400486284368
 31
0.0
  0
LINE
  5
66B
  8
OUTER_LOOP
 62
     3
 10
34.26149980270001
 20
159.7400486284368
 30
0.0
 11
35.96325822650001
 21
164.4415396968368
 31
0.0
  0
LINE
  5
66C
  8
OUTER_LOOP
 62
     3
 10
35.96325822650001
 20
164.4415396968368
 30
0.0
 11
29.30651696710001
 21
166.8510232731368
 31
0.0
  0
ARC
  5
66D
  8
OUTER_LOOP
 62
     3
 10
17.53600250832857
 20
171.1114951525776
 30
0.0
 40
12.51785250191314
 50
340.1016994571186
 51
25.74928350480084
  0
LINE
  5
66E
  8
OUTER_LOOP
 62
     3
 10
28.81087822332157
 20
176.5496758107678
 30
0.0
 11
57.46347016120001
 21
190.3696038720368
 31
0.0
  0
LINE
  5
66F
  8
OUTER_LOOP
 62
     3
 10
57.46347016120001
 20
190.3696038720368
 30
0.0
 11
49.68333223390001
 21
203.5007292203368
 31
0.0
  0
LINE
  5
670
  8
OUTER_LOOP
 62
     3
 10
49.68333223390001
 20
203.5007292203368
 30
0.0
 11
59.74721943140002
 21
213.0872747851368
 31
0.0
  0
LINE
  5
671
  8
OUTER_LOOP
 62
     3
 10
59.74721943140002
 20
213.0872747851368
 30
0.0
 11
47.33177655620002
 21
223.7561760891368
 31
0.0
  0
ARC
  5
672
  8
OUTER_LOOP
 62
     3
 10
65.13819182401178
 20
244.4775723480678
 30
0.0
 40
27.3211399397865
 50
189.6656130003531
 51
229.3267060317453
  0
LINE
  5
673
  8
OUTER_LOOP
 62
     3
 10
38.20489149727783
 20
239.8904140644078
 30
0.0
 11
34.78184178680002
 21
284.8958480969368
 31
0.0
  0
LINE
  5
674
  8
OUTER_LOOP
 62
     3
 10
34.78184178680002
 20
284.8958480969368
 30
0.0
 11
32.91571718610003
 21
393.5116958131368
 31
0.0
  0
LINE
  5
675
  8
OUTER_LOOP
 62
     3
 10
32.91571718610003
 20
393.5116958131368
 30
0.0
 11
34.97230879930003
 21
413.9410513601368
 31
0.0
  0
LINE
  5
676
  8
OUTER_LOOP
 62
     3
 10
34.97230879930003
 20
413.9410513601368
 30
0.0
 11
23.08508208170003
 21
438.0386757239368
 31
0.0
  0
ARC
  5
677
  8
OUTER_LOOP
 62
     3
 10
196.8965375174651
 20
373.30900144729
 30
0.0
 40
185.4733209188312
 50
159.5740068284169
 51
174.2514890602923
  0
LINE
  5
678
  8
OUTER_LOOP
 62
     3
 10
12.35593935689059
 20
391.8864179306739
 30
0.0
 11
11.63520712430002
 21
384.7269532411368
 31
0.0
  0
LINE
  5
679
  8
OUTER_LOOP
 62
     3
 10
11.63520712430002
 20
384.7269532411368
 30
0.0
 11
9.998977744200024
 21
384.8916699211368
 31
0.0
  0
ARC
  5
67A
  8
OUTER_LOOP
 62
     3
 10
29.90690787622643
 20
376.857243623348
 30
0.0
 40
21.46806204752176
 50
158.0220224208683
 51
174.251489060715
  0
CIRCLE
  5
67B
  8
INTERIOR_LOOPS
 62
     3
 10
13.02264700300001
 20
190.2760152588368
 30
0.0
 40
2.999999999999999
  0
CIRCLE
  5
67C
  8
INTERIOR_LOOPS
 62
     3
 10
17.53600133320001
 20
171.1114950082368
 30
0.0
 40
7.0
  0
CIRCLE
  5
67D
  8
INTERIOR_LOOPS
 62
     3
 10
39.40080527470001
 20
211.0161595422368
 30
0.0
 40
3.000000000000003
  0
CIRCLE
  5
67E
  8
INTERIOR_LOOPS
 62
     3
 10
23.00778840980002
 20
224.8886555634368
 30
0.0
 40
11.0
  0
CIRCLE
  5
67F
  8
INTERIOR_LOOPS
 62
     3
 10
19.97028687050002
 20
260.1183934990368
 30
0.0
 40
10.0
  0
CIRCLE
  5
680
  8
INTERIOR_LOOPS
 62
     3
 10
18.32120705530002
 20
294.9220992223368
 30
0.0
 40
9.000000000000002
  0
CIRCLE
  5
681
  8
INTERIOR_LOOPS
 62
     3
 10
19.07999534810002
 20
328.0520988611368
 30
0.0
 40
8.0
  0
CIRCLE
  5
682
  8
INTERIOR_LOOPS
 62
     3
 10
26.23896548630002
 20
311.0144855186368
 30
0.0
 40
2.999999999999999
  0
CIRCLE
  5
683
  8
INTERIOR_LOOPS
 62
     3
 10
25.79097469850003
 20
413.4841081708368
 30
0.0
 40
2.999999999999999
  0
CIRCLE
  5
684
  8
INTERIOR_LOOPS
 62
     3
 10
20.21745310580002
 20
355.0230778946368
 30
0.0
 40
5.999999999999998
  0
LINE
  5
685
  8
INTERIOR_LOOPS
 62
     3
 10
16.69289271300003
 20
374.0667554716368
 30
0.0
 11
17.51422278030002
 21
382.2255186695368
 31
0.0
  0
LINE
  5
686
  8
INTERIOR_LOOPS
 62
     3
 10
17.51422278030002
 20
382.2255186695368
 30
0.0
 11
14.33031519090003
 21
382.5460377202368
 31
0.0
  0
LINE
  5
687
  8
INTERIOR_LOOPS
 62
     3
 10
14.33031519090003
 20
382.5460377202368
 30
0.0
 11
13.50898512350002
 21
374.3872745222368
 31
0.0
  0
LINE
  5
688
  8
INTERIOR_LOOPS
 62
     3
 10
13.50898512350002
 20
374.3872745222368
 30
0.0
 11
16.69289271300003
 21
374.0667554716368
 31
0.0
  0
LINE
  5
689
  8
INTERIOR_LOOPS
 62
     3
 10
41.93187097840001
 20
187.2933866131368
 30
0.0
 11
50.76044525390001
 21
192.4018380675368
 31
0.0
  0
LINE
  5
68A
  8
INTERIOR_LOOPS
 62
     3
 10
50.76044525390001
 20
192.4018380675368
 30
0.0
 11
49.15779381730001
 21
195.1715868598368
 31
0.0
  0
LINE
  5
68B
  8
INTERIOR_LOOPS
 62
     3
 10
49.15779381730001
 20
195.1715868598368
 30
0.0
 11
40.32921954170001
 21
190.0631354055368
 31
0.0
  0
LINE
  5
68C
  8
INTERIOR_LOOPS
 62
     3
 10
40.32921954170001
 20
190.0631354055368
 30
0.0
 11
41.93187097840001
 21
187.2933866131368
 31
0.0
  0
POLYLINE
  5
68D
  8
STATS
 62
   151
 66
     1
 10
0.0
 20
0.0
 30
0.0
 70
     1
  0
VERTEX
  5
68F
  8
STATS
 62
   151
 10
0.0
 20
-25.0
 30
0.0
  0
VERTEX
  5
690
  8
STATS
 62
   151
 10
250.0
 20
-25.0
 30
0.0
  0
VERTEX
  5
691
  8
STATS
 62
   151
 10
250.0
 20
-105.0
 30
0.0
  0
VERTEX
  5
692
  8
STATS
 62
   151
 10
0.0
 20
-105.0
 30
0.0
  0
VERTEX
  5
693
  8
STATS
 62
   151
 10
0.0
 20
-25.0
 30
0.0
  0
SEQEND
  5
68E
  8
0
  0
TEXT
  5
694
  8
STATS
 62
    60
 10
2.0
 20
-37.0
 30
0.0
 40
10.0
  1
Production Qty: 1
  0
TEXT
  5
695
  8
STATS
 62
    60
 10
2.0
 20
-49.0
 30
0.0
 40
10.0
  1
Sheet 1 (500,00 x 480,00)
  0
TEXT
  5
696
  8
STATS
 62
    60
 10
2.0
 20
-61.0
 30
0.0
 40
10.0
  1
Parts Nested: 47
  0
TEXT
  5
697
  8
STATS
 62
    60
 10
2.0
 20
-73.0
 30
0.0
 40
10.0
  1
Util (Nest): 67,01%
  0
TEXT
  5
698
  8
STATS
 62
    60
 10
2.0
 20
-85.0
 30
0.0
 40
10.0
  1
Util (Sheet): 62,22%
  0
TEXT
  5
699
  8
STATS
 62
    60
 10
2.0
 20
-97.0
 30
0.0
 40
10.0
  1
Cut Distance: 19670,51mm
  0
ENDSEC
  0
EOF
