ISO-10303-21;
HEADER;
FILE_DESCRIPTION(('CATIA V5 STEP Exchange'),'2;1');

FILE_NAME('C:\\Users\\yanni\\Documents\\Budget\\Habitation\\Cloture\\MaquetteNum\\CaleInclinee.stp','2020-07-12T18:18:42+00:00',('none'),('none'),'Version 5-6 Release 2013','CATIA V5 STEP AP203','none');

FILE_SCHEMA(('CONFIG_CONTROL_DESIGN'));

ENDSEC;
DATA;
#5=PRODUCT('CaleInclinee','','',(#2)) ;
#1=APPLICATION_CONTEXT('configuration controlled 3D design of mechanical parts and assemblies') ;
#14=PRODUCT_DEFINITION('',' ',#6,#3) ;
#16=SECURITY_CLASSIFICATION(' ',' ',#15) ;
#15=SECURITY_CLASSIFICATION_LEVEL('unclassified') ;
#46=CARTESIAN_POINT(' ',(0.,0.,0.)) ;
#51=CARTESIAN_POINT('Axis2P3D Location',(-20.,0.,0.)) ;
#56=CARTESIAN_POINT('Line Origine',(-20.,1.84960703266,0.)) ;
#60=CARTESIAN_POINT('Vertex',(-20.,1.84960703266,-10.)) ;
#62=CARTESIAN_POINT('Vertex',(-20.,1.84960703266,10.)) ;
#65=CARTESIAN_POINT('Line Origine',(-20.,0.924803516331,-10.)) ;
#69=CARTESIAN_POINT('Vertex',(-20.,0.,-10.)) ;
#72=CARTESIAN_POINT('Line Origine',(-20.,0.,0.)) ;
#76=CARTESIAN_POINT('Vertex',(-20.,0.,10.)) ;
#79=CARTESIAN_POINT('Line Origine',(-20.,0.924803516331,10.)) ;
#91=CARTESIAN_POINT('Axis2P3D Location',(0.,0.,-10.)) ;
#96=CARTESIAN_POINT('Line Origine',(0.,0.,-10.)) ;
#100=CARTESIAN_POINT('Vertex',(20.,0.,-10.)) ;
#103=CARTESIAN_POINT('Line Origine',(0.,10.1748035163,-10.)) ;
#107=CARTESIAN_POINT('Vertex',(20.,18.5,-10.)) ;
#110=CARTESIAN_POINT('Line Origine',(20.,9.25,-10.)) ;
#122=CARTESIAN_POINT('Axis2P3D Location',(20.,18.5,0.)) ;
#127=CARTESIAN_POINT('Line Origine',(20.,0.,0.)) ;
#131=CARTESIAN_POINT('Vertex',(20.,0.,10.)) ;
#134=CARTESIAN_POINT('Line Origine',(20.,18.5,0.)) ;
#138=CARTESIAN_POINT('Vertex',(20.,18.5,10.)) ;
#141=CARTESIAN_POINT('Line Origine',(20.,9.25,10.)) ;
#153=CARTESIAN_POINT('Axis2P3D Location',(0.,0.,10.)) ;
#158=CARTESIAN_POINT('Line Origine',(0.,10.1748035163,10.)) ;
#163=CARTESIAN_POINT('Line Origine',(0.,0.,10.)) ;
#175=CARTESIAN_POINT('Axis2P3D Location',(20.,0.,0.)) ;
#186=CARTESIAN_POINT('Axis2P3D Location',(0.,0.,-4.4408920985E-016)) ;
#190=CARTESIAN_POINT('Vertex',(-3.07153896662,0.,1.67798938511)) ;
#192=CARTESIAN_POINT('Vertex',(3.07153896662,0.,-1.67798938511)) ;
#195=CARTESIAN_POINT('Axis2P3D Location',(0.,0.,8.881784197E-016)) ;
#205=CARTESIAN_POINT('Axis2P3D Location',(-20.,1.84960703266,0.)) ;
#217=CARTESIAN_POINT('Control Point',(5.70428665229,12.5492688753,-3.11626600093)) ;
#218=CARTESIAN_POINT('Control Point',(5.47504546888,12.4538449806,-3.53588917247)) ;
#219=CARTESIAN_POINT('Control Point',(5.20869650381,12.3429746072,-3.93172738135)) ;
#220=CARTESIAN_POINT('Control Point',(4.90898868499,12.2182182833,-4.29927665479)) ;
#221=CARTESIAN_POINT('Control Point',(4.23532247714,11.937798106,-4.98819917463)) ;
#222=CARTESIAN_POINT('Control Point',(3.45836291358,11.6143810547,-5.5355627757)) ;
#223=CARTESIAN_POINT('Control Point',(3.03823868409,11.4395002168,-5.77630356016)) ;
#224=CARTESIAN_POINT('Control Point',(1.98866481092,11.0026047809,-6.25554537119)) ;
#225=CARTESIAN_POINT('Control Point',(0.866915502648,10.535665611,-6.49333558553)) ;
#226=CARTESIAN_POINT('Control Point',(0.200442118858,10.2582395175,-6.54765156283)) ;
#227=CARTESIAN_POINT('Control Point',(-1.12775792758,9.70536319968,-6.48686002756)) ;
#228=CARTESIAN_POINT('Control Point',(-2.40633234096,9.17314403915,-6.09299838394)) ;
#229=CARTESIAN_POINT('Control Point',(-3.01954454658,8.91788843426,-5.81484059858)) ;
#230=CARTESIAN_POINT('Control Point',(-4.00440134252,8.50793211753,-5.20358741347)) ;
#231=CARTESIAN_POINT('Control Point',(-4.84042425869,8.15992936544,-4.37925437302)) ;
#232=CARTESIAN_POINT('Control Point',(-5.15726713332,8.02804040615,-4.00226563199)) ;
#233=CARTESIAN_POINT('Control Point',(-5.79213668606,7.76376971775,-3.08140764346)) ;
#234=CARTESIAN_POINT('Control Point',(-6.22416396912,7.58393411686,-2.02813483386)) ;
#235=CARTESIAN_POINT('Control Point',(-6.39332003265,7.51352124359,-1.4104529521)) ;
#236=CARTESIAN_POINT('Control Point',(-6.57478992944,7.43798261626,-0.152702311169)) ;
#237=CARTESIAN_POINT('Control Point',(-6.45012005289,7.48987767715,1.1127175458)) ;
#238=CARTESIAN_POINT('Control Point',(-6.3128239051,7.54702854749,1.72690840525)) ;
#239=CARTESIAN_POINT('Control Point',(-6.08575611041,7.64154774779,2.36885389495)) ;
#240=CARTESIAN_POINT('Control Point',(-5.78350800169,7.76736149239,2.96745402177)) ;
#241=CARTESIAN_POINT('Control Point',(-5.75761254819,7.7781407293,3.01738902876)) ;
#242=CARTESIAN_POINT('Control Point',(-5.7312054377,7.78913294847,3.06699149474)) ;
#243=CARTESIAN_POINT('Control Point',(-5.70428665229,7.80033815736,3.11626600093)) ;
#244=CARTESIAN_POINT('Vertex',(5.70428665229,12.5492688753,-3.11626600093)) ;
#246=CARTESIAN_POINT('Vertex',(-5.70428665229,7.80033815736,3.11626600093)) ;
#250=CARTESIAN_POINT('Control Point',(5.70428665229,12.5492688753,-3.11626600093)) ;
#251=CARTESIAN_POINT('Control Point',(5.93908036379,12.6470040644,-2.68647899488)) ;
#252=CARTESIAN_POINT('Control Point',(6.13494660907,12.7285353132,-2.2317412962)) ;
#253=CARTESIAN_POINT('Control Point',(6.28782452952,12.7921722495,-1.75692505389)) ;
#254=CARTESIAN_POINT('Control Point',(6.51076171001,12.884972041,-0.736201024827)) ;
#255=CARTESIAN_POINT('Control Point',(6.5268735142,12.8916787378,0.313589683595)) ;
#256=CARTESIAN_POINT('Control Point',(6.47745086696,12.8711060754,0.859536866134)) ;
#257=CARTESIAN_POINT('Control Point',(6.27891176455,12.7884622235,1.86259002961)) ;
#258=CARTESIAN_POINT('Control Point',(5.89487833917,12.6286045374,2.79871180882)) ;
#259=CARTESIAN_POINT('Control Point',(5.67777571104,12.5382334356,3.21547357095)) ;
#260=CARTESIAN_POINT('Control Point',(5.16384551455,12.3243049423,4.01771142898)) ;
#261=CARTESIAN_POINT('Control Point',(4.52293139081,12.0575181419,4.70489825343)) ;
#262=CARTESIAN_POINT('Control Point',(4.16679443662,11.9092726359,5.02232603071)) ;
#263=CARTESIAN_POINT('Control Point',(3.3862036087,11.5843440351,5.60034039636)) ;
#264=CARTESIAN_POINT('Control Point',(2.52335052991,11.2251729643,6.02027305329)) ;
#265=CARTESIAN_POINT('Control Point',(2.06414194179,11.0340228781,6.19237817412)) ;
#266=CARTESIAN_POINT('Control Point',(0.864216200038,10.5345419998,6.5183687368)) ;
#267=CARTESIAN_POINT('Control Point',(-0.378844650631,10.0171057087,6.55404874827)) ;
#268=CARTESIAN_POINT('Control Point',(-1.13291945546,9.70321466299,6.4669924153)) ;
#269=CARTESIAN_POINT('Control Point',(-2.34379090877,9.19917752472,6.14542705277)) ;
#270=CARTESIAN_POINT('Control Point',(-3.45134961342,8.73814533305,5.54147019779)) ;
#271=CARTESIAN_POINT('Control Point',(-3.8660564384,8.565519543,5.2612501612)) ;
#272=CARTESIAN_POINT('Control Point',(-4.53305801425,8.2878735843,4.7097733165)) ;
#273=CARTESIAN_POINT('Control Point',(-5.10542798238,8.04961896201,4.0479434212)) ;
#274=CARTESIAN_POINT('Control Point',(-5.32621730346,7.95771323803,3.75310766071)) ;
#275=CARTESIAN_POINT('Control Point',(-5.5264214282,7.87437630427,3.44184610974)) ;
#276=CARTESIAN_POINT('Control Point',(-5.70428665229,7.80033815736,3.11626600093)) ;
#283=CARTESIAN_POINT('Axis2P3D Location',(0.,0.,2.22044604925E-016)) ;
#288=CARTESIAN_POINT('Axis2P3D Location',(0.,6.5,2.22044604925E-016)) ;
#292=CARTESIAN_POINT('Vertex',(3.07153896662,6.5,-1.67798938511)) ;
#294=CARTESIAN_POINT('Vertex',(-3.07153896662,6.5,1.67798938511)) ;
#297=CARTESIAN_POINT('Line Origine',(-3.07153896662,9.25,1.67798938511)) ;
#302=CARTESIAN_POINT('Line Origine',(3.07153896662,9.25,-1.67798938511)) ;
#314=CARTESIAN_POINT('Axis2P3D Location',(0.,6.5,2.22044604925E-016)) ;
#326=CARTESIAN_POINT('Axis2P3D Location',(0.,6.5,0.)) ;
#331=CARTESIAN_POINT('Axis2P3D Location',(0.,6.5,0.)) ;
#335=CARTESIAN_POINT('Vertex',(5.70428665229,6.5,-3.11626600093)) ;
#337=CARTESIAN_POINT('Vertex',(-5.70428665229,6.5,3.11626600093)) ;
#340=CARTESIAN_POINT('Axis2P3D Location',(0.,6.5,0.)) ;
#354=CARTESIAN_POINT('Axis2P3D Location',(0.,9.69024618676,0.)) ;
#359=CARTESIAN_POINT('Line Origine',(-5.70428665229,9.69024618676,3.11626600093)) ;
#364=CARTESIAN_POINT('Line Origine',(5.70428665229,9.69024618676,-3.11626600093)) ;
#52=DIRECTION('Axis2P3D Direction',(1.,0.,0.)) ;
#53=DIRECTION('Axis2P3D XDirection',(0.,1.,0.)) ;
#57=DIRECTION('Vector Direction',(0.,0.,1.)) ;
#66=DIRECTION('Vector Direction',(0.,1.,0.)) ;
#73=DIRECTION('Vector Direction',(0.,0.,1.)) ;
#80=DIRECTION('Vector Direction',(0.,1.,0.)) ;
#92=DIRECTION('Axis2P3D Direction',(0.,0.,1.)) ;
#93=DIRECTION('Axis2P3D XDirection',(1.,0.,0.)) ;
#97=DIRECTION('Vector Direction',(-1.,0.,0.)) ;
#104=DIRECTION('Vector Direction',(0.923210217113,0.38429532266,0.)) ;
#111=DIRECTION('Vector Direction',(0.,-1.,0.)) ;
#123=DIRECTION('Axis2P3D Direction',(-1.,0.,0.)) ;
#124=DIRECTION('Axis2P3D XDirection',(0.,-1.,0.)) ;
#128=DIRECTION('Vector Direction',(0.,0.,1.)) ;
#135=DIRECTION('Vector Direction',(0.,0.,1.)) ;
#142=DIRECTION('Vector Direction',(0.,-1.,0.)) ;
#154=DIRECTION('Axis2P3D Direction',(0.,0.,1.)) ;
#155=DIRECTION('Axis2P3D XDirection',(1.,0.,0.)) ;
#159=DIRECTION('Vector Direction',(0.923210217113,0.38429532266,0.)) ;
#164=DIRECTION('Vector Direction',(-1.,0.,0.)) ;
#176=DIRECTION('Axis2P3D Direction',(0.,1.,-0.)) ;
#177=DIRECTION('Axis2P3D XDirection',(-1.,0.,0.)) ;
#187=DIRECTION('Axis2P3D Direction',(0.,1.,-0.)) ;
#196=DIRECTION('Axis2P3D Direction',(0.,1.,-0.)) ;
#206=DIRECTION('Axis2P3D Direction',(0.38429532266,-0.923210217113,0.)) ;
#207=DIRECTION('Axis2P3D XDirection',(0.923210217113,0.38429532266,0.)) ;
#284=DIRECTION('Axis2P3D Direction',(-0.,1.,0.)) ;
#285=DIRECTION('Axis2P3D XDirection',(0.87758256189,0.,-0.479425538604)) ;
#289=DIRECTION('Axis2P3D Direction',(-0.,1.,0.)) ;
#298=DIRECTION('Vector Direction',(0.,1.,0.)) ;
#303=DIRECTION('Vector Direction',(0.,1.,0.)) ;
#315=DIRECTION('Axis2P3D Direction',(-0.,1.,0.)) ;
#327=DIRECTION('Axis2P3D Direction',(-0.,1.,0.)) ;
#328=DIRECTION('Axis2P3D XDirection',(1.,0.,0.)) ;
#332=DIRECTION('Axis2P3D Direction',(-0.,1.,0.)) ;
#341=DIRECTION('Axis2P3D Direction',(-0.,1.,0.)) ;
#355=DIRECTION('Axis2P3D Direction',(0.,1.,0.)) ;
#356=DIRECTION('Axis2P3D XDirection',(-0.87758256189,0.,0.479425538604)) ;
#360=DIRECTION('Vector Direction',(0.,1.,0.)) ;
#365=DIRECTION('Vector Direction',(0.,1.,0.)) ;
#47=AXIS2_PLACEMENT_3D(' ',#46,$,$) ;
#54=AXIS2_PLACEMENT_3D('Plane Axis2P3D',#51,#52,#53) ;
#94=AXIS2_PLACEMENT_3D('Plane Axis2P3D',#91,#92,#93) ;
#125=AXIS2_PLACEMENT_3D('Plane Axis2P3D',#122,#123,#124) ;
#156=AXIS2_PLACEMENT_3D('Plane Axis2P3D',#153,#154,#155) ;
#178=AXIS2_PLACEMENT_3D('Plane Axis2P3D',#175,#176,#177) ;
#188=AXIS2_PLACEMENT_3D('Circle Axis2P3D',#186,#187,$) ;
#197=AXIS2_PLACEMENT_3D('Circle Axis2P3D',#195,#196,$) ;
#208=AXIS2_PLACEMENT_3D('Plane Axis2P3D',#205,#206,#207) ;
#286=AXIS2_PLACEMENT_3D('Cylinder Axis2P3D',#283,#284,#285) ;
#290=AXIS2_PLACEMENT_3D('Circle Axis2P3D',#288,#289,$) ;
#316=AXIS2_PLACEMENT_3D('Circle Axis2P3D',#314,#315,$) ;
#329=AXIS2_PLACEMENT_3D('Plane Axis2P3D',#326,#327,#328) ;
#333=AXIS2_PLACEMENT_3D('Circle Axis2P3D',#331,#332,$) ;
#342=AXIS2_PLACEMENT_3D('Circle Axis2P3D',#340,#341,$) ;
#357=AXIS2_PLACEMENT_3D('Cylinder Axis2P3D',#354,#355,#356) ;
#40=PRODUCT_DEFINITION_SHAPE(' ',' ',#14) ;
#31=APPROVAL_PERSON_ORGANIZATION(#25,#21,#19) ;
#25=PERSON_AND_ORGANIZATION(#22,#23) ;
#22=PERSON(' ',' ',' ',$,$,$) ;
#23=ORGANIZATION(' ',' ',' ') ;
#21=APPROVAL(#20,' ') ;
#20=APPROVAL_STATUS('not_yet_approved') ;
#19=APPROVAL_ROLE('APPROVER') ;
#13=DATE_AND_TIME(#11,#12) ;
#12=LOCAL_TIME(20,18,42.,#10) ;
#10=COORDINATED_UNIVERSAL_TIME_OFFSET(0,0,.AHEAD.) ;
#85=ORIENTED_EDGE('',*,*,#64,.F.) ;
#86=ORIENTED_EDGE('',*,*,#71,.T.) ;
#87=ORIENTED_EDGE('',*,*,#78,.T.) ;
#88=ORIENTED_EDGE('',*,*,#83,.F.) ;
#116=ORIENTED_EDGE('',*,*,#102,.F.) ;
#117=ORIENTED_EDGE('',*,*,#71,.F.) ;
#118=ORIENTED_EDGE('',*,*,#109,.F.) ;
#119=ORIENTED_EDGE('',*,*,#114,.F.) ;
#147=ORIENTED_EDGE('',*,*,#133,.F.) ;
#148=ORIENTED_EDGE('',*,*,#114,.T.) ;
#149=ORIENTED_EDGE('',*,*,#140,.T.) ;
#150=ORIENTED_EDGE('',*,*,#145,.F.) ;
#169=ORIENTED_EDGE('',*,*,#145,.T.) ;
#170=ORIENTED_EDGE('',*,*,#162,.T.) ;
#171=ORIENTED_EDGE('',*,*,#83,.T.) ;
#172=ORIENTED_EDGE('',*,*,#167,.T.) ;
#181=ORIENTED_EDGE('',*,*,#78,.F.) ;
#182=ORIENTED_EDGE('',*,*,#102,.T.) ;
#183=ORIENTED_EDGE('',*,*,#133,.T.) ;
#184=ORIENTED_EDGE('',*,*,#167,.F.) ;
#201=ORIENTED_EDGE('',*,*,#194,.T.) ;
#202=ORIENTED_EDGE('',*,*,#199,.T.) ;
#211=ORIENTED_EDGE('',*,*,#140,.F.) ;
#212=ORIENTED_EDGE('',*,*,#109,.T.) ;
#213=ORIENTED_EDGE('',*,*,#64,.T.) ;
#214=ORIENTED_EDGE('',*,*,#162,.F.) ;
#279=ORIENTED_EDGE('',*,*,#248,.F.) ;
#280=ORIENTED_EDGE('',*,*,#277,.T.) ;
#308=ORIENTED_EDGE('',*,*,#296,.T.) ;
#309=ORIENTED_EDGE('',*,*,#301,.T.) ;
#310=ORIENTED_EDGE('',*,*,#199,.F.) ;
#311=ORIENTED_EDGE('',*,*,#306,.F.) ;
#320=ORIENTED_EDGE('',*,*,#318,.T.) ;
#321=ORIENTED_EDGE('',*,*,#306,.T.) ;
#322=ORIENTED_EDGE('',*,*,#194,.F.) ;
#323=ORIENTED_EDGE('',*,*,#301,.F.) ;
#346=ORIENTED_EDGE('',*,*,#339,.T.) ;
#347=ORIENTED_EDGE('',*,*,#344,.T.) ;
#350=ORIENTED_EDGE('',*,*,#318,.F.) ;
#351=ORIENTED_EDGE('',*,*,#296,.F.) ;
#370=ORIENTED_EDGE('',*,*,#248,.T.) ;
#371=ORIENTED_EDGE('',*,*,#363,.T.) ;
#372=ORIENTED_EDGE('',*,*,#339,.F.) ;
#373=ORIENTED_EDGE('',*,*,#368,.F.) ;
#377=ORIENTED_EDGE('',*,*,#277,.F.) ;
#378=ORIENTED_EDGE('',*,*,#368,.T.) ;
#379=ORIENTED_EDGE('',*,*,#344,.F.) ;
#380=ORIENTED_EDGE('',*,*,#363,.F.) ;
#203=FACE_BOUND('',#200,.T.) ;
#281=FACE_BOUND('',#278,.T.) ;
#352=FACE_BOUND('',#349,.T.) ;
#50=CLOSED_SHELL('Closed Shell',(#90,#121,#152,#174,#204,#282,#313,#325,#353,#375,#382)) ;
#58=VECTOR('Line Direction',#57,1.) ;
#67=VECTOR('Line Direction',#66,1.) ;
#74=VECTOR('Line Direction',#73,1.) ;
#81=VECTOR('Line Direction',#80,1.) ;
#98=VECTOR('Line Direction',#97,1.) ;
#105=VECTOR('Line Direction',#104,1.) ;
#112=VECTOR('Line Direction',#111,1.) ;
#129=VECTOR('Line Direction',#128,1.) ;
#136=VECTOR('Line Direction',#135,1.) ;
#143=VECTOR('Line Direction',#142,1.) ;
#160=VECTOR('Line Direction',#159,1.) ;
#165=VECTOR('Line Direction',#164,1.) ;
#299=VECTOR('Line Direction',#298,1.) ;
#304=VECTOR('Line Direction',#303,1.) ;
#361=VECTOR('Line Direction',#360,1.) ;
#366=VECTOR('Line Direction',#365,1.) ;
#384=ADVANCED_BREP_SHAPE_REPRESENTATION('NONE',(#383),#45) ;
#48=SHAPE_REPRESENTATION(' ',(#47),#45) ;
#90=ADVANCED_FACE('Corps principal',(#89),#55,.F.) ;
#121=ADVANCED_FACE('Corps principal',(#120),#95,.F.) ;
#152=ADVANCED_FACE('Corps principal',(#151),#126,.F.) ;
#174=ADVANCED_FACE('Corps principal',(#173),#157,.T.) ;
#204=ADVANCED_FACE('Corps principal',(#185,#203),#179,.F.) ;
#282=ADVANCED_FACE('Corps principal',(#215,#281),#209,.F.) ;
#313=ADVANCED_FACE('Corps principal',(#312),#287,.F.) ;
#325=ADVANCED_FACE('Corps principal',(#324),#287,.F.) ;
#353=ADVANCED_FACE('Corps principal',(#348,#352),#330,.T.) ;
#375=ADVANCED_FACE('Corps principal',(#374),#358,.F.) ;
#382=ADVANCED_FACE('Corps principal',(#381),#358,.F.) ;
#4=APPLICATION_PROTOCOL_DEFINITION('international standard','config_control_design',1994,#1) ;
#32=APPROVAL_DATE_TIME(#13,#21) ;
#216=B_SPLINE_CURVE_WITH_KNOTS('',5,(#217,#218,#219,#220,#221,#222,#223,#224,#225,#226,#227,#228,#229,#230,#231,#232,#233,#234,#235,#236,#237,#238,#239,#240,#241,#242,#243),.UNSPECIFIED.,.F.,.U.,(6,3,3,3,3,3,3,3,6),(0.,3.44775902543,7.06869723567,12.1396408136,17.1802090788,20.7629894096,25.2671106901,29.6863888335,30.0912440344),.UNSPECIFIED.) ;
#249=B_SPLINE_CURVE_WITH_KNOTS('',5,(#250,#251,#252,#253,#254,#255,#256,#257,#258,#259,#260,#261,#262,#263,#264,#265,#266,#267,#268,#269,#270,#271,#272,#273,#274,#275,#276),.UNSPECIFIED.,.F.,.U.,(6,3,3,3,3,3,3,3,6),(0.,3.53126836074,7.37731705969,10.7409806422,14.2540199316,17.9562214191,23.6940217729,27.4159232747,30.0909942307),.UNSPECIFIED.) ;
#383=MANIFOLD_SOLID_BREP('Corps principal',#50) ;
#11=CALENDAR_DATE(2020,12,7) ;
#30=CC_DESIGN_APPROVAL(#21,(#16,#6,#14)) ;
#18=CC_DESIGN_DATE_AND_TIME_ASSIGNMENT(#13,#17,(#16)) ;
#29=CC_DESIGN_DATE_AND_TIME_ASSIGNMENT(#13,#28,(#14)) ;
#17=DATE_TIME_ROLE('classification_date') ;
#28=DATE_TIME_ROLE('creation_date') ;
#27=CC_DESIGN_PERSON_AND_ORGANIZATION_ASSIGNMENT(#25,#26,(#16)) ;
#33=CC_DESIGN_PERSON_AND_ORGANIZATION_ASSIGNMENT(#25,#34,(#6)) ;
#35=CC_DESIGN_PERSON_AND_ORGANIZATION_ASSIGNMENT(#25,#36,(#6,#14)) ;
#37=CC_DESIGN_PERSON_AND_ORGANIZATION_ASSIGNMENT(#25,#38,(#5)) ;
#26=PERSON_AND_ORGANIZATION_ROLE('classification_officer') ;
#34=PERSON_AND_ORGANIZATION_ROLE('design_supplier') ;
#36=PERSON_AND_ORGANIZATION_ROLE('creator') ;
#38=PERSON_AND_ORGANIZATION_ROLE('design_owner') ;
#39=CC_DESIGN_SECURITY_CLASSIFICATION(#16,(#6)) ;
#189=CIRCLE('generated circle',#188,3.5) ;
#198=CIRCLE('generated circle',#197,3.5) ;
#291=CIRCLE('generated circle',#290,3.5) ;
#317=CIRCLE('generated circle',#316,3.5) ;
#334=CIRCLE('generated circle',#333,6.5) ;
#343=CIRCLE('generated circle',#342,6.5) ;
#385=SHAPE_REPRESENTATION_RELATIONSHIP(' ',' ',#48,#384) ;
#287=CYLINDRICAL_SURFACE('generated cylinder',#286,3.5) ;
#358=CYLINDRICAL_SURFACE('generated cylinder',#357,6.5) ;
#3=DESIGN_CONTEXT(' ',#1,'design') ;
#64=EDGE_CURVE('',#61,#63,#59,.T.) ;
#71=EDGE_CURVE('',#61,#70,#68,.F.) ;
#78=EDGE_CURVE('',#70,#77,#75,.T.) ;
#83=EDGE_CURVE('',#63,#77,#82,.F.) ;
#102=EDGE_CURVE('',#70,#101,#99,.F.) ;
#109=EDGE_CURVE('',#108,#61,#106,.F.) ;
#114=EDGE_CURVE('',#101,#108,#113,.F.) ;
#133=EDGE_CURVE('',#101,#132,#130,.T.) ;
#140=EDGE_CURVE('',#108,#139,#137,.T.) ;
#145=EDGE_CURVE('',#132,#139,#144,.F.) ;
#162=EDGE_CURVE('',#139,#63,#161,.F.) ;
#167=EDGE_CURVE('',#77,#132,#166,.F.) ;
#194=EDGE_CURVE('',#191,#193,#189,.T.) ;
#199=EDGE_CURVE('',#193,#191,#198,.T.) ;
#248=EDGE_CURVE('',#245,#247,#216,.T.) ;
#277=EDGE_CURVE('',#245,#247,#249,.T.) ;
#296=EDGE_CURVE('',#293,#295,#291,.T.) ;
#301=EDGE_CURVE('',#295,#191,#300,.F.) ;
#306=EDGE_CURVE('',#293,#193,#305,.F.) ;
#318=EDGE_CURVE('',#295,#293,#317,.T.) ;
#339=EDGE_CURVE('',#336,#338,#334,.T.) ;
#344=EDGE_CURVE('',#338,#336,#343,.T.) ;
#363=EDGE_CURVE('',#247,#338,#362,.F.) ;
#368=EDGE_CURVE('',#245,#336,#367,.F.) ;
#84=EDGE_LOOP('',(#85,#86,#87,#88)) ;
#115=EDGE_LOOP('',(#116,#117,#118,#119)) ;
#146=EDGE_LOOP('',(#147,#148,#149,#150)) ;
#168=EDGE_LOOP('',(#169,#170,#171,#172)) ;
#180=EDGE_LOOP('',(#181,#182,#183,#184)) ;
#200=EDGE_LOOP('',(#201,#202)) ;
#210=EDGE_LOOP('',(#211,#212,#213,#214)) ;
#278=EDGE_LOOP('',(#279,#280)) ;
#307=EDGE_LOOP('',(#308,#309,#310,#311)) ;
#319=EDGE_LOOP('',(#320,#321,#322,#323)) ;
#345=EDGE_LOOP('',(#346,#347)) ;
#349=EDGE_LOOP('',(#350,#351)) ;
#369=EDGE_LOOP('',(#370,#371,#372,#373)) ;
#376=EDGE_LOOP('',(#377,#378,#379,#380)) ;
#89=FACE_OUTER_BOUND('',#84,.T.) ;
#120=FACE_OUTER_BOUND('',#115,.T.) ;
#151=FACE_OUTER_BOUND('',#146,.T.) ;
#173=FACE_OUTER_BOUND('',#168,.T.) ;
#185=FACE_OUTER_BOUND('',#180,.T.) ;
#215=FACE_OUTER_BOUND('',#210,.T.) ;
#312=FACE_OUTER_BOUND('',#307,.T.) ;
#324=FACE_OUTER_BOUND('',#319,.T.) ;
#348=FACE_OUTER_BOUND('',#345,.T.) ;
#374=FACE_OUTER_BOUND('',#369,.T.) ;
#381=FACE_OUTER_BOUND('',#376,.T.) ;
#44=UNCERTAINTY_MEASURE_WITH_UNIT(LENGTH_MEASURE(0.005),#41,'distance_accuracy_value','CONFUSED CURVE UNCERTAINTY') ;
#59=LINE('Line',#56,#58) ;
#68=LINE('Line',#65,#67) ;
#75=LINE('Line',#72,#74) ;
#82=LINE('Line',#79,#81) ;
#99=LINE('Line',#96,#98) ;
#106=LINE('Line',#103,#105) ;
#113=LINE('Line',#110,#112) ;
#130=LINE('Line',#127,#129) ;
#137=LINE('Line',#134,#136) ;
#144=LINE('Line',#141,#143) ;
#161=LINE('Line',#158,#160) ;
#166=LINE('Line',#163,#165) ;
#300=LINE('Line',#297,#299) ;
#305=LINE('Line',#302,#304) ;
#362=LINE('Line',#359,#361) ;
#367=LINE('Line',#364,#366) ;
#2=MECHANICAL_CONTEXT(' ',#1,'mechanical') ;
#24=PERSONAL_ADDRESS(' ',' ',' ',' ',' ',' ',' ',' ',' ',' ',' ',' ',(#22),' ') ;
#55=PLANE('',#54) ;
#95=PLANE('',#94) ;
#126=PLANE('',#125) ;
#157=PLANE('',#156) ;
#179=PLANE('',#178) ;
#209=PLANE('',#208) ;
#330=PLANE('',#329) ;
#7=PRODUCT_CATEGORY('part',$) ;
#9=PRODUCT_CATEGORY_RELATIONSHIP(' ',' ',#7,#8) ;
#6=PRODUCT_DEFINITION_FORMATION_WITH_SPECIFIED_SOURCE('',' ',#5,.NOT_KNOWN.) ;
#8=PRODUCT_RELATED_PRODUCT_CATEGORY('detail',$,(#5)) ;
#49=SHAPE_DEFINITION_REPRESENTATION(#40,#48) ;
#61=VERTEX_POINT('',#60) ;
#63=VERTEX_POINT('',#62) ;
#70=VERTEX_POINT('',#69) ;
#77=VERTEX_POINT('',#76) ;
#101=VERTEX_POINT('',#100) ;
#108=VERTEX_POINT('',#107) ;
#132=VERTEX_POINT('',#131) ;
#139=VERTEX_POINT('',#138) ;
#191=VERTEX_POINT('',#190) ;
#193=VERTEX_POINT('',#192) ;
#245=VERTEX_POINT('',#244) ;
#247=VERTEX_POINT('',#246) ;
#293=VERTEX_POINT('',#292) ;
#295=VERTEX_POINT('',#294) ;
#336=VERTEX_POINT('',#335) ;
#338=VERTEX_POINT('',#337) ;
#41=(LENGTH_UNIT()NAMED_UNIT(*)SI_UNIT(.MILLI.,.METRE.)) ;
#42=(NAMED_UNIT(*)PLANE_ANGLE_UNIT()SI_UNIT($,.RADIAN.)) ;
#43=(NAMED_UNIT(*)SI_UNIT($,.STERADIAN.)SOLID_ANGLE_UNIT()) ;
#45=(GEOMETRIC_REPRESENTATION_CONTEXT(3)GLOBAL_UNCERTAINTY_ASSIGNED_CONTEXT((#44))GLOBAL_UNIT_ASSIGNED_CONTEXT((#41,#42,#43))REPRESENTATION_CONTEXT(' ',' ')) ;
ENDSEC;
END-ISO-10303-21;
