0
SECTION
2
HEADER
9
$INSUNITS
70
4
9
$ACADVER
1
AC1014
9
$HANDSEED
5
FFFF
0
ENDSEC
0
SECTION
2
TABLES
0
TABLE
2
VPORT
5
8
100
AcDbSymbolTable
0
ENDTAB
0
TABLE
2
LTYPE
5
5
100
AcDbSymbolTable
0
LTYPE
5
14
100
AcDbSymbolTableRecord
100
AcDbLinetypeTableRecord
2
BYBLOCK
70
0
0
LTYPE
5
15
100
AcDbSymbolTableRecord
100
AcDbLinetypeTableRecord
2
BYLAYER
70
0
0
ENDTAB
0
TABLE
2
LAYER
5
2
100
AcDbSymbolTable
70
2
0
LAYER
5
50
100
AcDbSymbolTableRecord
100
AcDbLayerTableRecord
2
0
70
0
6
CONTINUOUS
0
ENDTAB
0
TABLE
2
STYLE
5
3
100
AcDbSymbolTable
70
1
0
STYLE
5
11
100
AcDbSymbolTableRecord
100
AcDbTextStyleTableRecord
2
STANDARD
70
0
0
ENDTAB
0
TABLE
2
VIEW
5
6
100
AcDbSymbolTable
70
0
0
ENDTAB
0
TABLE
2
UCS
5
7
100
AcDbSymbolTable
70
0
0
ENDTAB
0
TABLE
2
APPID
5
9
100
AcDbSymbolTable
70
2
0
APPID
5
12
100
AcDbSymbolTableRecord
100
AcDbRegAppTableRecord
2
ACAD
70
0
0
ENDTAB
0
TABLE
2
DIMSTYLE
5
A
100
AcDbSymbolTable
70
1
0
ENDTAB
0
TABLE
2
BLOCK_RECORD
5
1
100
AcDbSymbolTable
70
1
0
BLOCK_RECORD
5
1F
100
AcDbSymbolTableRecord
100
AcDbBlockTableRecord
2
*MODEL_SPACE
0
BLOCK_RECORD
5
1B
100
AcDbSymbolTableRecord
100
AcDbBlockTableRecord
2
*PAPER_SPACE
0
ENDTAB
0
ENDSEC
0
SECTION
2
BLOCKS
0
BLOCK
5
20
100
AcDbEntity
100
AcDbBlockBegin
2
*MODEL_SPACE
0
ENDBLK
5
21
100
AcDbEntity
100
AcDbBlockEnd
0
BLOCK
5
1C
100
AcDbEntity
100
AcDbBlockBegin
2
*PAPER_SPACE
0
ENDBLK
5
1D
100
AcDbEntity
100
AcDbBlockEnd
0
ENDSEC
0
SECTION
2
ENTITIES
0
LINE
5
100
100
AcDbEntity
8
0
100
AcDbLine
10
70.738160062527697
20
716.04536363594252
30
0
11
55.404826729194454
21
256.04536363594269
31
0
0
ARC
5
101
100
AcDbEntity
8
0
100
AcDbCircle
10
303.93701922451271
20
127.62762388609879
30
0
40
279.7487561884567
210
0
220
0
230
1
100
AcDbArc
50
152.67439094374177
51
202.14501038033097
0
LINE
5
102
100
AcDbEntity
8
0
100
AcDbLine
10
110.7381600625277
20
716.04536363594252
30
0
11
126.07149339586101
21
256.04536363594286
31
0
0
ARC
5
103
100
AcDbEntity
8
0
100
AcDbCircle
10
90.738160062527697
20
191.04536363594286
30
0
40
175.00000000000014
210
0
220
0
230
1
100
AcDbArc
50
254.78964993897247
51
285.21035006102755
0
LINE
5
104
100
AcDbEntity
8
0
100
AcDbLine
10
70.738160062527697
20
716.04536363594252
30
0
11
110.7381600625277
21
716.04536363594252
31
0
0
ARC
5
105
100
AcDbEntity
8
0
100
AcDbCircle
10
-122.46069909945646
20
127.62762388609886
30
0
40
279.74875618845613
210
-0
220
0
230
1
100
AcDbArc
50
-22.145010380331044
51
27.325609056258315
0
LWPOLYLINE
5
106
100
AcDbEntity
8
0
100
AcDbPolyline
90
6
70
1
43
0.0
10
270.78753806163394
20
138.23516801380032
42
-0.033796157047155155
10
258.94304816355685
20
174.10475711217066
42
-0.29871202737399877
10
171.70115012271478
20
307.10476569837459
42
-0.22319184448482576
10
287.41128283810332
20
553.40874480719049
10
288.70510287605248
20
592.22334594566587
42
0.24261953852316465
10
141.70115012271475
20
307.10476569837471
42
0.3384309955764232
0
ARC
5
107
100
AcDbEntity
8
0
100
AcDbCircle
10
316.70115012271481
20
307.10476334553715
30
0
40
145.00000000000017
210
0
220
0
230
1
100
AcDbArc
50
-66.526071308775983
51
8.5377364625159387e-07
0
ARC
5
108
100
AcDbEntity
8
0
100
AcDbCircle
10
417.65667577541888
20
504.6053365369238
30
0
40
70.000000000000128
210
0
220
0
230
1
100
AcDbArc
50
215.2322893186479
51
291.99623346818117
0
ARC
5
109
100
AcDbEntity
8
0
100
AcDbCircle
10
103.50229096073065
20
243.68702359569315
30
0
40
279.74875618845613
210
-0
220
0
230
1
100
AcDbArc
50
337.85498961966891
51
345.59755136690842
0
ARC
5
110
100
AcDbEntity
8
0
100
AcDbCircle
10
141.70115012271475
20
307.10476569837471
30
0
40
320.00000000000034
210
0
220
-0
230
1
100
AcDbArc
50
0
51
15.125376435405808
0
ARC
5
111
100
AcDbEntity
8
0
100
AcDbCircle
10
141.70115012271475
20
307.10476569837471
30
0
40
350.00000000000034
210
0
220
-0
230
1
100
AcDbArc
50
0
51
20.219130823716863
0
ARC
5
112
100
AcDbEntity
8
0
100
AcDbCircle
10
451.36578346905992
20
421.1565734634155
30
0
40
20.000000000000039
210
0
220
-0
230
1
100
AcDbArc
50
20.219130823716863
51
111.99623346818122
0
ARC
5
113
100
AcDbEntity
8
0
100
AcDbCircle
10
431.30829756144851
20
385.38439365098941
30
0
40
20.000000000000068
210
0
220
-0
230
1
100
AcDbArc
50
15.125376435405441
51
96.532311626073991
0
ARC
5
114
100
AcDbEntity
8
0
100
AcDbCircle
10
417.65667577541888
20
504.6053365369238
30
0
40
100.00000000000007
210
0
220
0
230
1
100
AcDbArc
50
227.48214360282947
51
276.53231162607392
0
LINE
5
115
100
AcDbEntity
8
0
100
AcDbLine
10
350.07468083142527
20
430.89866140237416
30
0
11
348.96387751039299
21
464.22284539209357
31
0
0
ARC
5
116
100
AcDbEntity
8
0
100
AcDbCircle
10
316.70115012271481
20
307.10476334553715
30
0
40
175.00000000000006
210
0
220
0
230
1
100
AcDbArc
50
-74.78964993897246
51
8.5377364625159387e-07
0
LINE
5
117
100
AcDbEntity
8
0
100
AcDbLine
10
360.47928156286559
20
464.22284539209357
30
0
11
348.96387751039299
21
464.22284539209357
31
0
0
ARC
5
118
100
AcDbEntity
8
0
100
AcDbCircle
10
356.71804236634671
20
456.72284539209357
30
0
40
7.5000000000000613
210
0
220
-0
230
1
100
AcDbArc
50
38.158468486534225
51
90
0
ENDSEC
0
SECTION
2
OBJECTS
0
DICTIONARY
5
C
100
AcDbDictionary
3
ACAD_GROUP
350
D
3
ACAD_MLINESTYLE
350
17
0
DICTIONARY
5
D
100
AcDbDictionary
0
DICTIONARY
5
1A
330
C
100
AcDbDictionary
0
DICTIONARY
5
17
100
AcDbDictionary
0
ENDSEC
0
EOF
