ISO-10303-21;
HEADER;
/* Generated by software containing ST-Developer
 * from STEP Tools, Inc. (www.steptools.com) 
 */

FILE_DESCRIPTION(
/* description */ ('Vis tourelle Porte Outils'),
/* implementation_level */ '2;1');

FILE_NAME(
/* name */ 'C:\\_PERSONNEL\\Tour\\Vis tourelle Porte Outils.stp',
/* time_stamp */ '2020-06-25T14:39:16+02:00',
/* author */ ('Pierre-Gerard Delest'),
/* organization */ (''),
/* preprocessor_version */ 'ST-DEVELOPER v17.2',
/* originating_system */ 'Autodesk Inventor 2019',
/* authorisation */ '');

FILE_SCHEMA (('AUTOMOTIVE_DESIGN { 1 0 10303 214 3 1 1 }'));
ENDSEC;

DATA;
#10=MECHANICAL_DESIGN_GEOMETRIC_PRESENTATION_REPRESENTATION('',(#13),#238);
#11=SHAPE_REPRESENTATION_RELATIONSHIP('SRR','None',#245,#12);
#12=ADVANCED_BREP_SHAPE_REPRESENTATION('',(#14),#237);
#13=STYLED_ITEM('',(#254),#14);
#14=MANIFOLD_SOLID_BREP('Solid1',#128);
#15=FACE_BOUND('',#37,.T.);
#16=PLANE('',#151);
#17=PLANE('',#155);
#18=PLANE('',#159);
#19=PLANE('',#160);
#20=PLANE('',#161);
#21=FACE_OUTER_BOUND('',#29,.T.);
#22=FACE_OUTER_BOUND('',#30,.T.);
#23=FACE_OUTER_BOUND('',#31,.T.);
#24=FACE_OUTER_BOUND('',#32,.T.);
#25=FACE_OUTER_BOUND('',#33,.T.);
#26=FACE_OUTER_BOUND('',#34,.T.);
#27=FACE_OUTER_BOUND('',#35,.T.);
#28=FACE_OUTER_BOUND('',#36,.T.);
#29=EDGE_LOOP('',(#87,#88,#89,#90));
#30=EDGE_LOOP('',(#91));
#31=EDGE_LOOP('',(#92,#93,#94,#95));
#32=EDGE_LOOP('',(#96,#97,#98,#99));
#33=EDGE_LOOP('',(#100,#101,#102,#103));
#34=EDGE_LOOP('',(#104,#105,#106,#107));
#35=EDGE_LOOP('',(#108,#109,#110,#111));
#36=EDGE_LOOP('',(#112,#113,#114,#115));
#37=EDGE_LOOP('',(#116));
#38=LINE('',#206,#47);
#39=LINE('',#214,#48);
#40=LINE('',#217,#49);
#41=LINE('',#220,#50);
#42=LINE('',#222,#51);
#43=LINE('',#223,#52);
#44=LINE('',#229,#53);
#45=LINE('',#231,#54);
#46=LINE('',#232,#55);
#47=VECTOR('',#168,3.);
#48=VECTOR('',#177,10.);
#49=VECTOR('',#180,10.);
#50=VECTOR('',#183,10.);
#51=VECTOR('',#184,10.);
#52=VECTOR('',#185,10.);
#53=VECTOR('',#192,10.);
#54=VECTOR('',#195,10.);
#55=VECTOR('',#196,10.);
#56=CIRCLE('',#149,3.);
#57=CIRCLE('',#150,3.);
#58=CIRCLE('',#153,8.);
#59=CIRCLE('',#154,8.);
#60=CIRCLE('',#157,8.);
#61=CIRCLE('',#158,8.);
#62=VERTEX_POINT('',#203);
#63=VERTEX_POINT('',#205);
#64=VERTEX_POINT('',#210);
#65=VERTEX_POINT('',#211);
#66=VERTEX_POINT('',#213);
#67=VERTEX_POINT('',#215);
#68=VERTEX_POINT('',#219);
#69=VERTEX_POINT('',#221);
#70=VERTEX_POINT('',#225);
#71=VERTEX_POINT('',#227);
#72=EDGE_CURVE('',#62,#62,#56,.T.);
#73=EDGE_CURVE('',#62,#63,#38,.T.);
#74=EDGE_CURVE('',#63,#63,#57,.T.);
#75=EDGE_CURVE('',#64,#65,#58,.T.);
#76=EDGE_CURVE('',#64,#66,#39,.T.);
#77=EDGE_CURVE('',#67,#66,#59,.T.);
#78=EDGE_CURVE('',#65,#67,#40,.T.);
#79=EDGE_CURVE('',#65,#68,#41,.T.);
#80=EDGE_CURVE('',#69,#67,#42,.T.);
#81=EDGE_CURVE('',#68,#69,#43,.T.);
#82=EDGE_CURVE('',#68,#70,#60,.T.);
#83=EDGE_CURVE('',#71,#69,#61,.T.);
#84=EDGE_CURVE('',#70,#71,#44,.T.);
#85=EDGE_CURVE('',#70,#64,#45,.T.);
#86=EDGE_CURVE('',#66,#71,#46,.T.);
#87=ORIENTED_EDGE('',*,*,#72,.F.);
#88=ORIENTED_EDGE('',*,*,#73,.T.);
#89=ORIENTED_EDGE('',*,*,#74,.F.);
#90=ORIENTED_EDGE('',*,*,#73,.F.);
#91=ORIENTED_EDGE('',*,*,#72,.T.);
#92=ORIENTED_EDGE('',*,*,#75,.F.);
#93=ORIENTED_EDGE('',*,*,#76,.T.);
#94=ORIENTED_EDGE('',*,*,#77,.F.);
#95=ORIENTED_EDGE('',*,*,#78,.F.);
#96=ORIENTED_EDGE('',*,*,#79,.F.);
#97=ORIENTED_EDGE('',*,*,#78,.T.);
#98=ORIENTED_EDGE('',*,*,#80,.F.);
#99=ORIENTED_EDGE('',*,*,#81,.F.);
#100=ORIENTED_EDGE('',*,*,#82,.F.);
#101=ORIENTED_EDGE('',*,*,#81,.T.);
#102=ORIENTED_EDGE('',*,*,#83,.F.);
#103=ORIENTED_EDGE('',*,*,#84,.F.);
#104=ORIENTED_EDGE('',*,*,#85,.F.);
#105=ORIENTED_EDGE('',*,*,#84,.T.);
#106=ORIENTED_EDGE('',*,*,#86,.F.);
#107=ORIENTED_EDGE('',*,*,#76,.F.);
#108=ORIENTED_EDGE('',*,*,#85,.T.);
#109=ORIENTED_EDGE('',*,*,#75,.T.);
#110=ORIENTED_EDGE('',*,*,#79,.T.);
#111=ORIENTED_EDGE('',*,*,#82,.T.);
#112=ORIENTED_EDGE('',*,*,#86,.T.);
#113=ORIENTED_EDGE('',*,*,#83,.T.);
#114=ORIENTED_EDGE('',*,*,#80,.T.);
#115=ORIENTED_EDGE('',*,*,#77,.T.);
#116=ORIENTED_EDGE('',*,*,#74,.T.);
#117=CYLINDRICAL_SURFACE('',#148,3.);
#118=CYLINDRICAL_SURFACE('',#152,8.);
#119=CYLINDRICAL_SURFACE('',#156,8.);
#120=ADVANCED_FACE('',(#21),#117,.T.);
#121=ADVANCED_FACE('',(#22),#16,.T.);
#122=ADVANCED_FACE('',(#23),#118,.T.);
#123=ADVANCED_FACE('',(#24),#17,.T.);
#124=ADVANCED_FACE('',(#25),#119,.T.);
#125=ADVANCED_FACE('',(#26),#18,.T.);
#126=ADVANCED_FACE('',(#27),#19,.F.);
#127=ADVANCED_FACE('',(#28,#15),#20,.T.);
#128=CLOSED_SHELL('',(#120,#121,#122,#123,#124,#125,#126,#127));
#129=DERIVED_UNIT_ELEMENT(#131,1.);
#130=DERIVED_UNIT_ELEMENT(#240,3.);
#131=(
MASS_UNIT()
NAMED_UNIT(*)
SI_UNIT($,.GRAM.)
);
#132=DERIVED_UNIT((#129,#130));
#133=MEASURE_REPRESENTATION_ITEM('density measure',
POSITIVE_RATIO_MEASURE(7.73),#132);
#134=PROPERTY_DEFINITION_REPRESENTATION(#139,#136);
#135=PROPERTY_DEFINITION_REPRESENTATION(#140,#137);
#136=REPRESENTATION('material name',(#138),#237);
#137=REPRESENTATION('density',(#133),#237);
#138=DESCRIPTIVE_REPRESENTATION_ITEM('34CD4 (34CrMo4 ou 1.7220)',
'34CD4 (34CrMo4 ou 1.7220)');
#139=PROPERTY_DEFINITION('material property','material name',#247);
#140=PROPERTY_DEFINITION('material property','density of part',#247);
#141=DATE_TIME_ROLE('creation_date');
#142=APPLIED_DATE_AND_TIME_ASSIGNMENT(#143,#141,(#247));
#143=DATE_AND_TIME(#144,#145);
#144=CALENDAR_DATE(2020,25,6);
#145=LOCAL_TIME(11,51,46.,#146);
#146=COORDINATED_UNIVERSAL_TIME_OFFSET(0,0,.BEHIND.);
#147=AXIS2_PLACEMENT_3D('placement',#201,#162,#163);
#148=AXIS2_PLACEMENT_3D('',#202,#164,#165);
#149=AXIS2_PLACEMENT_3D('',#204,#166,#167);
#150=AXIS2_PLACEMENT_3D('',#207,#169,#170);
#151=AXIS2_PLACEMENT_3D('',#208,#171,#172);
#152=AXIS2_PLACEMENT_3D('',#209,#173,#174);
#153=AXIS2_PLACEMENT_3D('',#212,#175,#176);
#154=AXIS2_PLACEMENT_3D('',#216,#178,#179);
#155=AXIS2_PLACEMENT_3D('',#218,#181,#182);
#156=AXIS2_PLACEMENT_3D('',#224,#186,#187);
#157=AXIS2_PLACEMENT_3D('',#226,#188,#189);
#158=AXIS2_PLACEMENT_3D('',#228,#190,#191);
#159=AXIS2_PLACEMENT_3D('',#230,#193,#194);
#160=AXIS2_PLACEMENT_3D('',#233,#197,#198);
#161=AXIS2_PLACEMENT_3D('',#234,#199,#200);
#162=DIRECTION('axis',(0.,0.,1.));
#163=DIRECTION('refdir',(1.,0.,0.));
#164=DIRECTION('center_axis',(0.,1.,0.));
#165=DIRECTION('ref_axis',(-1.,0.,0.));
#166=DIRECTION('center_axis',(0.,1.,0.));
#167=DIRECTION('ref_axis',(-1.,0.,0.));
#168=DIRECTION('',(0.,-1.,0.));
#169=DIRECTION('center_axis',(0.,-1.,0.));
#170=DIRECTION('ref_axis',(-1.,0.,0.));
#171=DIRECTION('center_axis',(0.,1.,0.));
#172=DIRECTION('ref_axis',(0.,0.,1.));
#173=DIRECTION('center_axis',(0.,1.,0.));
#174=DIRECTION('ref_axis',(-0.661437827766148,0.,-0.75));
#175=DIRECTION('center_axis',(0.,-1.,0.));
#176=DIRECTION('ref_axis',(-0.661437827766148,0.,-0.75));
#177=DIRECTION('',(0.,1.,0.));
#178=DIRECTION('center_axis',(0.,1.,0.));
#179=DIRECTION('ref_axis',(-0.661437827766148,0.,-0.75));
#180=DIRECTION('',(0.,1.,0.));
#181=DIRECTION('center_axis',(0.,0.,1.));
#182=DIRECTION('ref_axis',(1.,0.,0.));
#183=DIRECTION('',(-1.,0.,0.));
#184=DIRECTION('',(1.,0.,0.));
#185=DIRECTION('',(0.,1.,0.));
#186=DIRECTION('center_axis',(0.,1.,0.));
#187=DIRECTION('ref_axis',(0.661437827766148,0.,0.75));
#188=DIRECTION('center_axis',(0.,-1.,0.));
#189=DIRECTION('ref_axis',(0.661437827766148,0.,0.75));
#190=DIRECTION('center_axis',(0.,1.,0.));
#191=DIRECTION('ref_axis',(0.661437827766148,0.,0.75));
#192=DIRECTION('',(0.,1.,0.));
#193=DIRECTION('center_axis',(0.,0.,-1.));
#194=DIRECTION('ref_axis',(-1.,0.,0.));
#195=DIRECTION('',(1.,0.,0.));
#196=DIRECTION('',(-1.,0.,0.));
#197=DIRECTION('center_axis',(0.,1.,0.));
#198=DIRECTION('ref_axis',(0.,0.,1.));
#199=DIRECTION('center_axis',(0.,1.,0.));
#200=DIRECTION('ref_axis',(0.,0.,1.));
#201=CARTESIAN_POINT('',(0.,0.,0.));
#202=CARTESIAN_POINT('Origin',(0.,4.,0.));
#203=CARTESIAN_POINT('',(3.,28.5,-3.67394039744206E-16));
#204=CARTESIAN_POINT('Origin',(0.,28.5,0.));
#205=CARTESIAN_POINT('',(3.,4.,-3.67394039744206E-16));
#206=CARTESIAN_POINT('',(3.,4.,-3.67394039744206E-16));
#207=CARTESIAN_POINT('Origin',(0.,4.,0.));
#208=CARTESIAN_POINT('Origin',(-3.39011454596783E-16,28.5,-7.70988211545247E-17));
#209=CARTESIAN_POINT('Origin',(4.16333634234434E-16,0.,1.80682866842687E-17));
#210=CARTESIAN_POINT('',(5.29150262212918,0.,-6.));
#211=CARTESIAN_POINT('',(5.29150262212918,0.,6.));
#212=CARTESIAN_POINT('Origin',(4.16333634234434E-16,0.,1.80682866842687E-17));
#213=CARTESIAN_POINT('',(5.29150262212918,4.,-6.));
#214=CARTESIAN_POINT('',(5.29150262212918,0.,-6.));
#215=CARTESIAN_POINT('',(5.29150262212918,4.,6.));
#216=CARTESIAN_POINT('Origin',(4.16333634234434E-16,4.,1.80682866842687E-17));
#217=CARTESIAN_POINT('',(5.29150262212918,0.,6.));
#218=CARTESIAN_POINT('Origin',(-5.29150262212918,0.,6.));
#219=CARTESIAN_POINT('',(-5.29150262212918,0.,6.));
#220=CARTESIAN_POINT('',(5.29150262212918,0.,6.));
#221=CARTESIAN_POINT('',(-5.29150262212918,4.,6.));
#222=CARTESIAN_POINT('',(5.29150262212918,4.,6.));
#223=CARTESIAN_POINT('',(-5.29150262212918,0.,6.));
#224=CARTESIAN_POINT('Origin',(-4.16333634234434E-16,0.,1.80682866842687E-17));
#225=CARTESIAN_POINT('',(-5.29150262212918,0.,-6.));
#226=CARTESIAN_POINT('Origin',(-4.16333634234434E-16,0.,1.80682866842687E-17));
#227=CARTESIAN_POINT('',(-5.29150262212918,4.,-6.));
#228=CARTESIAN_POINT('Origin',(-4.16333634234434E-16,4.,1.80682866842687E-17));
#229=CARTESIAN_POINT('',(-5.29150262212918,0.,-6.));
#230=CARTESIAN_POINT('Origin',(5.29150262212918,0.,-6.));
#231=CARTESIAN_POINT('',(-5.29150262212918,0.,-6.));
#232=CARTESIAN_POINT('',(-5.29150262212918,4.,-6.));
#233=CARTESIAN_POINT('Origin',(0.,0.,-7.00660402959924E-17));
#234=CARTESIAN_POINT('Origin',(0.,4.,-7.00660402959924E-17));
#235=UNCERTAINTY_MEASURE_WITH_UNIT(LENGTH_MEASURE(0.01),#239,
'DISTANCE_ACCURACY_VALUE',
'Maximum model space distance between geometric entities at asserted c
onnectivities');
#236=UNCERTAINTY_MEASURE_WITH_UNIT(LENGTH_MEASURE(0.01),#239,
'DISTANCE_ACCURACY_VALUE',
'Maximum model space distance between geometric entities at asserted c
onnectivities');
#237=(
GEOMETRIC_REPRESENTATION_CONTEXT(3)
GLOBAL_UNCERTAINTY_ASSIGNED_CONTEXT((#235))
GLOBAL_UNIT_ASSIGNED_CONTEXT((#239,#241,#242))
REPRESENTATION_CONTEXT('','3D')
);
#238=(
GEOMETRIC_REPRESENTATION_CONTEXT(3)
GLOBAL_UNCERTAINTY_ASSIGNED_CONTEXT((#236))
GLOBAL_UNIT_ASSIGNED_CONTEXT((#239,#241,#242))
REPRESENTATION_CONTEXT('','3D')
);
#239=(
LENGTH_UNIT()
NAMED_UNIT(*)
SI_UNIT(.MILLI.,.METRE.)
);
#240=(
LENGTH_UNIT()
NAMED_UNIT(*)
SI_UNIT(.CENTI.,.METRE.)
);
#241=(
NAMED_UNIT(*)
PLANE_ANGLE_UNIT()
SI_UNIT($,.RADIAN.)
);
#242=(
NAMED_UNIT(*)
SI_UNIT($,.STERADIAN.)
SOLID_ANGLE_UNIT()
);
#243=SHAPE_DEFINITION_REPRESENTATION(#244,#245);
#244=PRODUCT_DEFINITION_SHAPE('',$,#247);
#245=SHAPE_REPRESENTATION('',(#147),#237);
#246=PRODUCT_DEFINITION_CONTEXT('part definition',#251,'design');
#247=PRODUCT_DEFINITION('T001','Vis tourelle Porte Outils',#248,#246);
#248=PRODUCT_DEFINITION_FORMATION('1',$,#253);
#249=PRODUCT_RELATED_PRODUCT_CATEGORY('Vis tourelle Porte Outils',
'Vis tourelle Porte Outils',(#253));
#250=APPLICATION_PROTOCOL_DEFINITION('international standard',
'automotive_design',2009,#251);
#251=APPLICATION_CONTEXT(
'Core Data for Automotive Mechanical Design Process');
#252=PRODUCT_CONTEXT('part definition',#251,'mechanical');
#253=PRODUCT('T001','Vis tourelle Porte Outils',
'Vis tourelle Porte Outils',(#252));
#254=PRESENTATION_STYLE_ASSIGNMENT((#255));
#255=SURFACE_STYLE_USAGE(.BOTH.,#258);
#256=SURFACE_STYLE_RENDERING_WITH_PROPERTIES($,#262,(#257));
#257=SURFACE_STYLE_TRANSPARENT(0.);
#258=SURFACE_SIDE_STYLE('',(#259,#256));
#259=SURFACE_STYLE_FILL_AREA(#260);
#260=FILL_AREA_STYLE('',(#261));
#261=FILL_AREA_STYLE_COLOUR('',#262);
#262=COLOUR_RGB('',0.745098039215686,0.737254901960784,0.729411764705882);
ENDSEC;
END-ISO-10303-21;
