ISO-10303-21;
HEADER;
/* Generated by software containing ST-Developer
 * from STEP Tools, Inc. (www.steptools.com) 
 */

FILE_DESCRIPTION(
/* description */ (''),
/* implementation_level */ '2;1');

FILE_NAME(
/* name */ 'C:/Users/guiem/Pictures/distributor plug v1.step',
/* time_stamp */ '2020-06-15T10:34:08+02:00',
/* author */ (''),
/* organization */ (''),
/* preprocessor_version */ 'ST-DEVELOPER v18.1',
/* originating_system */ 'Autodesk Translation Framework v9.3.0.1241',
/* authorisation */ '');

FILE_SCHEMA (('AUTOMOTIVE_DESIGN { 1 0 10303 214 3 1 1 }'));
ENDSEC;

DATA;
#10=MECHANICAL_DESIGN_GEOMETRIC_PRESENTATION_REPRESENTATION('',(#13),#294);
#11=SHAPE_REPRESENTATION_RELATIONSHIP('SRR','None',#301,#12);
#12=ADVANCED_BREP_SHAPE_REPRESENTATION('',(#14),#293);
#13=STYLED_ITEM('',(#310),#14);
#14=MANIFOLD_SOLID_BREP('Corps1',#174);
#15=FACE_BOUND('',#75,.T.);
#16=CYLINDRICAL_SURFACE('',#197,13.4);
#17=LINE('',#252,#36);
#18=LINE('',#254,#37);
#19=LINE('',#256,#38);
#20=LINE('',#257,#39);
#21=LINE('',#260,#40);
#22=LINE('',#262,#41);
#23=LINE('',#263,#42);
#24=LINE('',#266,#43);
#25=LINE('',#268,#44);
#26=LINE('',#269,#45);
#27=LINE('',#272,#46);
#28=LINE('',#274,#47);
#29=LINE('',#275,#48);
#30=LINE('',#278,#49);
#31=LINE('',#280,#50);
#32=LINE('',#281,#51);
#33=LINE('',#283,#52);
#34=LINE('',#284,#53);
#35=LINE('',#289,#54);
#36=VECTOR('',#208,10.);
#37=VECTOR('',#209,10.);
#38=VECTOR('',#210,10.);
#39=VECTOR('',#211,10.);
#40=VECTOR('',#214,10.);
#41=VECTOR('',#215,10.);
#42=VECTOR('',#216,10.);
#43=VECTOR('',#219,10.);
#44=VECTOR('',#220,10.);
#45=VECTOR('',#221,10.);
#46=VECTOR('',#224,10.);
#47=VECTOR('',#225,10.);
#48=VECTOR('',#226,10.);
#49=VECTOR('',#229,10.);
#50=VECTOR('',#230,10.);
#51=VECTOR('',#231,10.);
#52=VECTOR('',#234,10.);
#53=VECTOR('',#235,10.);
#54=VECTOR('',#242,13.4);
#55=FACE_OUTER_BOUND('',#65,.T.);
#56=FACE_OUTER_BOUND('',#66,.T.);
#57=FACE_OUTER_BOUND('',#67,.T.);
#58=FACE_OUTER_BOUND('',#68,.T.);
#59=FACE_OUTER_BOUND('',#69,.T.);
#60=FACE_OUTER_BOUND('',#70,.T.);
#61=FACE_OUTER_BOUND('',#71,.T.);
#62=FACE_OUTER_BOUND('',#72,.T.);
#63=FACE_OUTER_BOUND('',#73,.T.);
#64=FACE_OUTER_BOUND('',#74,.T.);
#65=EDGE_LOOP('',(#113));
#66=EDGE_LOOP('',(#114,#115,#116,#117));
#67=EDGE_LOOP('',(#118,#119,#120,#121));
#68=EDGE_LOOP('',(#122,#123,#124,#125));
#69=EDGE_LOOP('',(#126,#127,#128,#129));
#70=EDGE_LOOP('',(#130,#131,#132,#133));
#71=EDGE_LOOP('',(#134,#135,#136,#137));
#72=EDGE_LOOP('',(#138,#139,#140,#141,#142,#143));
#73=EDGE_LOOP('',(#144,#145,#146,#147));
#74=EDGE_LOOP('',(#148));
#75=EDGE_LOOP('',(#149,#150,#151,#152,#153,#154));
#76=CIRCLE('',#189,13.4);
#77=CIRCLE('',#198,13.4);
#78=VERTEX_POINT('',#247);
#79=VERTEX_POINT('',#250);
#80=VERTEX_POINT('',#251);
#81=VERTEX_POINT('',#253);
#82=VERTEX_POINT('',#255);
#83=VERTEX_POINT('',#259);
#84=VERTEX_POINT('',#261);
#85=VERTEX_POINT('',#265);
#86=VERTEX_POINT('',#267);
#87=VERTEX_POINT('',#271);
#88=VERTEX_POINT('',#273);
#89=VERTEX_POINT('',#277);
#90=VERTEX_POINT('',#279);
#91=VERTEX_POINT('',#287);
#92=EDGE_CURVE('',#78,#78,#76,.T.);
#93=EDGE_CURVE('',#79,#80,#17,.T.);
#94=EDGE_CURVE('',#79,#81,#18,.T.);
#95=EDGE_CURVE('',#82,#81,#19,.T.);
#96=EDGE_CURVE('',#80,#82,#20,.T.);
#97=EDGE_CURVE('',#80,#83,#21,.T.);
#98=EDGE_CURVE('',#84,#82,#22,.T.);
#99=EDGE_CURVE('',#83,#84,#23,.T.);
#100=EDGE_CURVE('',#83,#85,#24,.T.);
#101=EDGE_CURVE('',#86,#84,#25,.T.);
#102=EDGE_CURVE('',#85,#86,#26,.T.);
#103=EDGE_CURVE('',#85,#87,#27,.T.);
#104=EDGE_CURVE('',#88,#86,#28,.T.);
#105=EDGE_CURVE('',#87,#88,#29,.T.);
#106=EDGE_CURVE('',#87,#89,#30,.T.);
#107=EDGE_CURVE('',#90,#88,#31,.T.);
#108=EDGE_CURVE('',#89,#90,#32,.T.);
#109=EDGE_CURVE('',#89,#79,#33,.T.);
#110=EDGE_CURVE('',#81,#90,#34,.T.);
#111=EDGE_CURVE('',#91,#91,#77,.T.);
#112=EDGE_CURVE('',#91,#78,#35,.T.);
#113=ORIENTED_EDGE('',*,*,#92,.F.);
#114=ORIENTED_EDGE('',*,*,#93,.F.);
#115=ORIENTED_EDGE('',*,*,#94,.T.);
#116=ORIENTED_EDGE('',*,*,#95,.F.);
#117=ORIENTED_EDGE('',*,*,#96,.F.);
#118=ORIENTED_EDGE('',*,*,#97,.F.);
#119=ORIENTED_EDGE('',*,*,#96,.T.);
#120=ORIENTED_EDGE('',*,*,#98,.F.);
#121=ORIENTED_EDGE('',*,*,#99,.F.);
#122=ORIENTED_EDGE('',*,*,#100,.F.);
#123=ORIENTED_EDGE('',*,*,#99,.T.);
#124=ORIENTED_EDGE('',*,*,#101,.F.);
#125=ORIENTED_EDGE('',*,*,#102,.F.);
#126=ORIENTED_EDGE('',*,*,#103,.F.);
#127=ORIENTED_EDGE('',*,*,#102,.T.);
#128=ORIENTED_EDGE('',*,*,#104,.F.);
#129=ORIENTED_EDGE('',*,*,#105,.F.);
#130=ORIENTED_EDGE('',*,*,#106,.F.);
#131=ORIENTED_EDGE('',*,*,#105,.T.);
#132=ORIENTED_EDGE('',*,*,#107,.F.);
#133=ORIENTED_EDGE('',*,*,#108,.F.);
#134=ORIENTED_EDGE('',*,*,#109,.F.);
#135=ORIENTED_EDGE('',*,*,#108,.T.);
#136=ORIENTED_EDGE('',*,*,#110,.F.);
#137=ORIENTED_EDGE('',*,*,#94,.F.);
#138=ORIENTED_EDGE('',*,*,#110,.T.);
#139=ORIENTED_EDGE('',*,*,#107,.T.);
#140=ORIENTED_EDGE('',*,*,#104,.T.);
#141=ORIENTED_EDGE('',*,*,#101,.T.);
#142=ORIENTED_EDGE('',*,*,#98,.T.);
#143=ORIENTED_EDGE('',*,*,#95,.T.);
#144=ORIENTED_EDGE('',*,*,#111,.F.);
#145=ORIENTED_EDGE('',*,*,#112,.T.);
#146=ORIENTED_EDGE('',*,*,#92,.T.);
#147=ORIENTED_EDGE('',*,*,#112,.F.);
#148=ORIENTED_EDGE('',*,*,#111,.T.);
#149=ORIENTED_EDGE('',*,*,#93,.T.);
#150=ORIENTED_EDGE('',*,*,#97,.T.);
#151=ORIENTED_EDGE('',*,*,#100,.T.);
#152=ORIENTED_EDGE('',*,*,#103,.T.);
#153=ORIENTED_EDGE('',*,*,#106,.T.);
#154=ORIENTED_EDGE('',*,*,#109,.T.);
#155=PLANE('',#188);
#156=PLANE('',#190);
#157=PLANE('',#191);
#158=PLANE('',#192);
#159=PLANE('',#193);
#160=PLANE('',#194);
#161=PLANE('',#195);
#162=PLANE('',#196);
#163=PLANE('',#199);
#164=ADVANCED_FACE('',(#55),#155,.F.);
#165=ADVANCED_FACE('',(#56),#156,.T.);
#166=ADVANCED_FACE('',(#57),#157,.T.);
#167=ADVANCED_FACE('',(#58),#158,.T.);
#168=ADVANCED_FACE('',(#59),#159,.T.);
#169=ADVANCED_FACE('',(#60),#160,.T.);
#170=ADVANCED_FACE('',(#61),#161,.T.);
#171=ADVANCED_FACE('',(#62),#162,.T.);
#172=ADVANCED_FACE('',(#63),#16,.T.);
#173=ADVANCED_FACE('',(#64,#15),#163,.T.);
#174=CLOSED_SHELL('',(#164,#165,#166,#167,#168,#169,#170,#171,#172,#173));
#175=DERIVED_UNIT_ELEMENT(#177,1.);
#176=DERIVED_UNIT_ELEMENT(#296,3.);
#177=(
MASS_UNIT()
NAMED_UNIT(*)
SI_UNIT(.KILO.,.GRAM.)
);
#178=DERIVED_UNIT((#175,#176));
#179=MEASURE_REPRESENTATION_ITEM('density measure',
POSITIVE_RATIO_MEASURE(7850.),#178);
#180=PROPERTY_DEFINITION_REPRESENTATION(#185,#182);
#181=PROPERTY_DEFINITION_REPRESENTATION(#186,#183);
#182=REPRESENTATION('material name',(#184),#293);
#183=REPRESENTATION('density',(#179),#293);
#184=DESCRIPTIVE_REPRESENTATION_ITEM('Acier','Acier');
#185=PROPERTY_DEFINITION('material property','material name',#303);
#186=PROPERTY_DEFINITION('material property','density of part',#303);
#187=AXIS2_PLACEMENT_3D('placement',#245,#200,#201);
#188=AXIS2_PLACEMENT_3D('',#246,#202,#203);
#189=AXIS2_PLACEMENT_3D('',#248,#204,#205);
#190=AXIS2_PLACEMENT_3D('',#249,#206,#207);
#191=AXIS2_PLACEMENT_3D('',#258,#212,#213);
#192=AXIS2_PLACEMENT_3D('',#264,#217,#218);
#193=AXIS2_PLACEMENT_3D('',#270,#222,#223);
#194=AXIS2_PLACEMENT_3D('',#276,#227,#228);
#195=AXIS2_PLACEMENT_3D('',#282,#232,#233);
#196=AXIS2_PLACEMENT_3D('',#285,#236,#237);
#197=AXIS2_PLACEMENT_3D('',#286,#238,#239);
#198=AXIS2_PLACEMENT_3D('',#288,#240,#241);
#199=AXIS2_PLACEMENT_3D('',#290,#243,#244);
#200=DIRECTION('axis',(0.,0.,1.));
#201=DIRECTION('refdir',(1.,0.,0.));
#202=DIRECTION('center_axis',(0.,1.,0.));
#203=DIRECTION('ref_axis',(1.,0.,0.));
#204=DIRECTION('center_axis',(0.,1.,0.));
#205=DIRECTION('ref_axis',(1.,0.,0.));
#206=DIRECTION('center_axis',(0.523728335275752,0.,0.851885339015345));
#207=DIRECTION('ref_axis',(0.851885339015345,0.,-0.523728335275752));
#208=DIRECTION('',(-0.851885339015345,0.,0.523728335275752));
#209=DIRECTION('',(0.,1.,0.));
#210=DIRECTION('',(0.851885339015345,0.,-0.523728335275752));
#211=DIRECTION('',(0.,1.,0.));
#212=DIRECTION('center_axis',(-0.475890177060932,0.,0.879504712538208));
#213=DIRECTION('ref_axis',(0.879504712538208,0.,0.475890177060932));
#214=DIRECTION('',(-0.879504712538208,0.,-0.475890177060932));
#215=DIRECTION('',(0.879504712538208,0.,0.475890177060932));
#216=DIRECTION('',(0.,1.,0.));
#217=DIRECTION('center_axis',(-0.999618512336684,0.,0.0276193735228622));
#218=DIRECTION('ref_axis',(0.0276193735228622,0.,0.999618512336684));
#219=DIRECTION('',(-0.0276193735228622,0.,-0.999618512336684));
#220=DIRECTION('',(0.0276193735228622,0.,0.999618512336684));
#221=DIRECTION('',(0.,1.,0.));
#222=DIRECTION('center_axis',(-0.523728335275752,0.,-0.851885339015345));
#223=DIRECTION('ref_axis',(-0.851885339015345,0.,0.523728335275752));
#224=DIRECTION('',(0.851885339015345,0.,-0.523728335275752));
#225=DIRECTION('',(-0.851885339015345,0.,0.523728335275752));
#226=DIRECTION('',(0.,1.,0.));
#227=DIRECTION('center_axis',(0.475890177060932,0.,-0.879504712538208));
#228=DIRECTION('ref_axis',(-0.879504712538208,0.,-0.475890177060932));
#229=DIRECTION('',(0.879504712538208,0.,0.475890177060932));
#230=DIRECTION('',(-0.879504712538208,0.,-0.475890177060932));
#231=DIRECTION('',(0.,1.,0.));
#232=DIRECTION('center_axis',(0.999618512336684,0.,-0.0276193735228625));
#233=DIRECTION('ref_axis',(-0.0276193735228625,0.,-0.999618512336684));
#234=DIRECTION('',(0.0276193735228625,0.,0.999618512336684));
#235=DIRECTION('',(-0.0276193735228625,0.,-0.999618512336684));
#236=DIRECTION('center_axis',(0.,1.,0.));
#237=DIRECTION('ref_axis',(0.,0.,1.));
#238=DIRECTION('center_axis',(0.,1.,0.));
#239=DIRECTION('ref_axis',(1.,0.,0.));
#240=DIRECTION('center_axis',(0.,1.,0.));
#241=DIRECTION('ref_axis',(1.,0.,0.));
#242=DIRECTION('',(0.,-1.,0.));
#243=DIRECTION('center_axis',(0.,1.,0.));
#244=DIRECTION('ref_axis',(1.,0.,0.));
#245=CARTESIAN_POINT('',(0.,0.,0.));
#246=CARTESIAN_POINT('Origin',(0.,4.,0.));
#247=CARTESIAN_POINT('',(-13.4,4.,1.64102671085745E-15));
#248=CARTESIAN_POINT('Origin',(0.,4.,0.));
#249=CARTESIAN_POINT('Origin',(0.353527981092634,44.,12.7951169579096));
#250=CARTESIAN_POINT('',(11.2576603204891,44.,6.09139426637993));
#251=CARTESIAN_POINT('',(0.353527981092634,44.,12.7951169579096));
#252=CARTESIAN_POINT('',(3.07956106594174,44.,11.1191862850271));
#253=CARTESIAN_POINT('',(11.2576603204891,49.,6.09139426637993));
#254=CARTESIAN_POINT('',(11.2576603204891,44.,6.09139426637993));
#255=CARTESIAN_POINT('',(0.353527981092634,49.,12.7951169579096));
#256=CARTESIAN_POINT('',(0.353527981092634,49.,12.7951169579096));
#257=CARTESIAN_POINT('',(0.353527981092634,44.,12.7951169579096));
#258=CARTESIAN_POINT('Origin',(-10.9041323393964,44.,6.70372269152962));
#259=CARTESIAN_POINT('',(-10.9041323393964,44.,6.70372269152962));
#260=CARTESIAN_POINT('',(-8.08971725927416,44.,8.22657125812461));
#261=CARTESIAN_POINT('',(-10.9041323393964,49.,6.70372269152962));
#262=CARTESIAN_POINT('',(-10.9041323393964,49.,6.70372269152962));
#263=CARTESIAN_POINT('',(-10.9041323393964,44.,6.70372269152962));
#264=CARTESIAN_POINT('Origin',(-11.2576603204891,44.,-6.09139426637993));
#265=CARTESIAN_POINT('',(-11.2576603204891,44.,-6.09139426637993));
#266=CARTESIAN_POINT('',(-11.1692783252159,44.,-2.89261502690254));
#267=CARTESIAN_POINT('',(-11.2576603204891,49.,-6.09139426637993));
#268=CARTESIAN_POINT('',(-11.2576603204891,49.,-6.09139426637993));
#269=CARTESIAN_POINT('',(-11.2576603204891,44.,-6.09139426637993));
#270=CARTESIAN_POINT('Origin',(-0.353527981092638,44.,-12.7951169579096));
#271=CARTESIAN_POINT('',(-0.353527981092638,44.,-12.7951169579096));
#272=CARTESIAN_POINT('',(-3.07956106594174,44.,-11.1191862850271));
#273=CARTESIAN_POINT('',(-0.353527981092638,49.,-12.7951169579096));
#274=CARTESIAN_POINT('',(-0.353527981092638,49.,-12.7951169579096));
#275=CARTESIAN_POINT('',(-0.353527981092638,44.,-12.7951169579096));
#276=CARTESIAN_POINT('Origin',(10.9041323393964,44.,-6.70372269152963));
#277=CARTESIAN_POINT('',(10.9041323393964,44.,-6.70372269152963));
#278=CARTESIAN_POINT('',(8.08971725927415,44.,-8.22657125812461));
#279=CARTESIAN_POINT('',(10.9041323393964,49.,-6.70372269152963));
#280=CARTESIAN_POINT('',(10.9041323393964,49.,-6.70372269152963));
#281=CARTESIAN_POINT('',(10.9041323393964,44.,-6.70372269152963));
#282=CARTESIAN_POINT('Origin',(11.2576603204891,44.,6.09139426637993));
#283=CARTESIAN_POINT('',(11.1692783252159,44.,2.89261502690254));
#284=CARTESIAN_POINT('',(11.2576603204891,49.,6.09139426637993));
#285=CARTESIAN_POINT('Origin',(0.,49.,2.22044604925031E-15));
#286=CARTESIAN_POINT('Origin',(0.,0.,0.));
#287=CARTESIAN_POINT('',(-13.4,44.,1.64102671085745E-15));
#288=CARTESIAN_POINT('Origin',(0.,44.,0.));
#289=CARTESIAN_POINT('',(-13.4,0.,1.64102671085745E-15));
#290=CARTESIAN_POINT('Origin',(0.,44.,0.));
#291=UNCERTAINTY_MEASURE_WITH_UNIT(LENGTH_MEASURE(0.01),#295,
'DISTANCE_ACCURACY_VALUE',
'Maximum model space distance between geometric entities at asserted c
onnectivities');
#292=UNCERTAINTY_MEASURE_WITH_UNIT(LENGTH_MEASURE(0.01),#295,
'DISTANCE_ACCURACY_VALUE',
'Maximum model space distance between geometric entities at asserted c
onnectivities');
#293=(
GEOMETRIC_REPRESENTATION_CONTEXT(3)
GLOBAL_UNCERTAINTY_ASSIGNED_CONTEXT((#291))
GLOBAL_UNIT_ASSIGNED_CONTEXT((#295,#297,#298))
REPRESENTATION_CONTEXT('','3D')
);
#294=(
GEOMETRIC_REPRESENTATION_CONTEXT(3)
GLOBAL_UNCERTAINTY_ASSIGNED_CONTEXT((#292))
GLOBAL_UNIT_ASSIGNED_CONTEXT((#295,#297,#298))
REPRESENTATION_CONTEXT('','3D')
);
#295=(
LENGTH_UNIT()
NAMED_UNIT(*)
SI_UNIT(.MILLI.,.METRE.)
);
#296=(
LENGTH_UNIT()
NAMED_UNIT(*)
SI_UNIT($,.METRE.)
);
#297=(
NAMED_UNIT(*)
PLANE_ANGLE_UNIT()
SI_UNIT($,.RADIAN.)
);
#298=(
NAMED_UNIT(*)
SI_UNIT($,.STERADIAN.)
SOLID_ANGLE_UNIT()
);
#299=SHAPE_DEFINITION_REPRESENTATION(#300,#301);
#300=PRODUCT_DEFINITION_SHAPE('',$,#303);
#301=SHAPE_REPRESENTATION('',(#187),#293);
#302=PRODUCT_DEFINITION_CONTEXT('part definition',#307,'design');
#303=PRODUCT_DEFINITION('distributor plug','distributor plug v1',#304,#302);
#304=PRODUCT_DEFINITION_FORMATION('',$,#309);
#305=PRODUCT_RELATED_PRODUCT_CATEGORY('distributor plug v1',
'distributor plug v1',(#309));
#306=APPLICATION_PROTOCOL_DEFINITION('international standard',
'automotive_design',2009,#307);
#307=APPLICATION_CONTEXT(
'Core Data for Automotive Mechanical Design Process');
#308=PRODUCT_CONTEXT('part definition',#307,'mechanical');
#309=PRODUCT('distributor plug','distributor plug v1',$,(#308));
#310=PRESENTATION_STYLE_ASSIGNMENT((#311));
#311=SURFACE_STYLE_USAGE(.BOTH.,#312);
#312=SURFACE_SIDE_STYLE('',(#313));
#313=SURFACE_STYLE_FILL_AREA(#314);
#314=FILL_AREA_STYLE('Acier - Satin\X\E9',(#315));
#315=FILL_AREA_STYLE_COLOUR('Acier - Satin\X\E9',#316);
#316=COLOUR_RGB('Acier - Satin\X\E9',0.627450980392157,0.627450980392157,
0.627450980392157);
ENDSEC;
END-ISO-10303-21;
