  0
SECTION
  2
HEADER
  9
$ACADVER
  1
AC1009
  9
$INSBASE
 10
0.0
 20
0.0
 30
0.0
  9
$EXTMIN
 10
0.0
 20
0.0
 30
0.0
  9
$EXTMAX
 10
0.0
 20
0.0
 30
0.0
  0
ENDSEC
  0
SECTION
  2
TABLES
  0
TABLE
  2
VPORT
 70
0
  0
ENDTAB
  0
TABLE
  2
LTYPE
 70
1
  0
LTYPE
  2
CONTINUOUS
 70
0
  3
Solid line
 72
65
 73
0
 40
0.0
  0
ENDTAB
  0
TABLE
  2
LAYER
 70
1
  0
LAYER
  2
0
 70
64
 62
7
  6
continuous
  0
ENDTAB
  0
TABLE
  2
STYLE
 70
1
  0
STYLE
  2
STANDARD
 70
0
 40
0
 41
1.0
 50
0.0
 71
0
 42
1
 3
ARIAL.TTF
 4

  0
ENDTAB
  0
TABLE
  2
VIEW
 70
0
  0
ENDTAB
  0
ENDSEC
  0
SECTION
  2
BLOCKS
  0
BLOCK
  8
0
  2
HOLE013
 70
0
 10
0.0
 20
0.0
 30
0.0
  3
HOLE013
  0
LINE
  8
0
 62
0
 10
0.0
 20
3.9999999999999996
 30
0.0
 11
0.0
 21
-4.0
 31
0.0
  0
LINE
  8
0
 62
0
 10
20.0
 20
7.1
 30
0.0
 11
-3.552713678800501e-15
 21
3.999999999999999
 31
0.0
  0
LINE
  8
0
 62
0
 10
0.0
 20
-4.0
 30
0.0
 11
20.0
 21
-7.200000000000001
 31
0.0
  0
LINE
  8
0
 62
0
 10
20.0
 20
10.100000000000001
 30
0.0
 11
20.0
 21
7.1
 31
0.0
  0
LINE
  8
0
 62
0
 10
20.0
 20
-7.200000000000001
 30
0.0
 11
20.0
 21
-15.2
 31
0.0
  0
LINE
  8
0
 62
0
 10
195.0
 20
31.000000000000007
 30
0.0
 11
20.0
 21
10.100000000000001
 31
0.0
  0
LINE
  8
0
 62
0
 10
20.0
 20
-15.2
 30
0.0
 11
195.0
 21
-36.0
 31
0.0
  0
LINE
  8
0
 62
0
 10
197.3
 20
0.0
 30
0.0
 11
195.0
 21
31.00000000000001
 31
0.0
  0
LINE
  8
0
 62
0
 10
195.0
 20
-36.0
 30
0.0
 11
197.3
 21
-7.105427357601002e-15
 31
0.0
  0
CIRCLE
  8
0
 62
0
 10
52.5
 20
9.4
 30
0.0
 40
1.7
  0
CIRCLE
  8
0
 62
0
 10
80.0
 20
13.2
 30
0.0
 40
1.7
  0
CIRCLE
  8
0
 62
0
 10
135.0
 20
20.2
 30
0.0
 40
1.7
  0
CIRCLE
  8
0
 62
0
 10
107.5
 20
16.8
 30
0.0
 40
1.7
  0
CIRCLE
  8
0
 62
0
 10
52.5
 20
-14.5
 30
0.0
 40
1.7
  0
CIRCLE
  8
0
 62
0
 10
135.0
 20
-25.2
 30
0.0
 40
1.7
  0
CIRCLE
  8
0
 62
0
 10
107.5
 20
-21.9
 30
0.0
 40
1.7
  0
CIRCLE
  8
0
 62
0
 10
80.0
 20
-18.3
 30
0.0
 40
1.7
  0
CIRCLE
  8
0
 62
0
 10
25.0
 20
5.4
 30
0.0
 40
1.7
  0
CIRCLE
  8
0
 62
0
 10
25.0
 20
-10.4
 30
0.0
 40
1.7
  0
CIRCLE
  8
0
 62
0
 10
162.5
 20
-28.4
 30
0.0
 40
1.7
  0
CIRCLE
  8
0
 62
0
 10
162.5
 20
23.4
 30
0.0
 40
1.7
  0
CIRCLE
  8
0
 62
0
 10
190.0
 20
26.4
 30
0.0
 40
1.7
  0
CIRCLE
  8
0
 62
0
 10
190.0
 20
-31.4
 30
0.0
 40
1.7
  0
ENDBLK
  0
ENDSEC
  0
SECTION
  2
ENTITIES
  0
INSERT
  2
HOLE013
  8
0
 62
0
 10
0.0
 20
0.0
 30
0.0
  0
ENDSEC
  0
EOF
