ISO-10303-21;
HEADER;
/* Generated by software containing ST-Developer
 * from STEP Tools, Inc. (www.steptools.com) 
 */

FILE_DESCRIPTION(
/* description */ (''),
/* implementation_level */ '2;1');

FILE_NAME(
/* name */ 
'/Users/benj/Desktop/PLASMA/3 -  MMMM/Y-Z Connector Plans/Y-Z connnect
or RightPlate.step',
/* time_stamp */ '2020-05-14T13:28:20+02:00',
/* author */ (''),
/* organization */ (''),
/* preprocessor_version */ 'ST-DEVELOPER v18.1',
/* originating_system */ 'Autodesk Translation Framework v9.2.0.1227',
/* authorisation */ '');

FILE_SCHEMA (('AUTOMOTIVE_DESIGN { 1 0 10303 214 3 1 1 }'));
ENDSEC;

DATA;
#10=MECHANICAL_DESIGN_GEOMETRIC_PRESENTATION_REPRESENTATION('',(#13),#597);
#11=SHAPE_REPRESENTATION_RELATIONSHIP('SRR','None',#604,#12);
#12=ADVANCED_BREP_SHAPE_REPRESENTATION('',(#14),#596);
#13=STYLED_ITEM('',(#614),#14);
#14=MANIFOLD_SOLID_BREP('Body1',#345);
#15=FACE_BOUND('',#76,.T.);
#16=FACE_BOUND('',#77,.T.);
#17=FACE_BOUND('',#78,.T.);
#18=FACE_BOUND('',#79,.T.);
#19=FACE_BOUND('',#84,.T.);
#20=FACE_BOUND('',#85,.T.);
#21=FACE_BOUND('',#86,.T.);
#22=FACE_BOUND('',#87,.T.);
#23=FACE_BOUND('',#88,.T.);
#24=FACE_BOUND('',#89,.T.);
#25=FACE_BOUND('',#91,.T.);
#26=FACE_BOUND('',#92,.T.);
#27=FACE_BOUND('',#93,.T.);
#28=FACE_BOUND('',#94,.T.);
#29=FACE_BOUND('',#95,.T.);
#30=FACE_BOUND('',#96,.T.);
#31=PLANE('',#362);
#32=PLANE('',#366);
#33=PLANE('',#370);
#34=PLANE('',#374);
#35=PLANE('',#393);
#36=PLANE('',#394);
#37=PLANE('',#395);
#38=PLANE('',#396);
#39=PLANE('',#397);
#40=PLANE('',#398);
#41=FACE_OUTER_BOUND('',#61,.T.);
#42=FACE_OUTER_BOUND('',#62,.T.);
#43=FACE_OUTER_BOUND('',#63,.T.);
#44=FACE_OUTER_BOUND('',#64,.T.);
#45=FACE_OUTER_BOUND('',#65,.T.);
#46=FACE_OUTER_BOUND('',#66,.T.);
#47=FACE_OUTER_BOUND('',#67,.T.);
#48=FACE_OUTER_BOUND('',#68,.T.);
#49=FACE_OUTER_BOUND('',#69,.T.);
#50=FACE_OUTER_BOUND('',#70,.T.);
#51=FACE_OUTER_BOUND('',#71,.T.);
#52=FACE_OUTER_BOUND('',#72,.T.);
#53=FACE_OUTER_BOUND('',#73,.T.);
#54=FACE_OUTER_BOUND('',#74,.T.);
#55=FACE_OUTER_BOUND('',#75,.T.);
#56=FACE_OUTER_BOUND('',#80,.T.);
#57=FACE_OUTER_BOUND('',#81,.T.);
#58=FACE_OUTER_BOUND('',#82,.T.);
#59=FACE_OUTER_BOUND('',#83,.T.);
#60=FACE_OUTER_BOUND('',#90,.T.);
#61=EDGE_LOOP('',(#231,#232,#233,#234));
#62=EDGE_LOOP('',(#235));
#63=EDGE_LOOP('',(#236,#237,#238,#239));
#64=EDGE_LOOP('',(#240));
#65=EDGE_LOOP('',(#241,#242,#243,#244));
#66=EDGE_LOOP('',(#245));
#67=EDGE_LOOP('',(#246,#247,#248,#249));
#68=EDGE_LOOP('',(#250));
#69=EDGE_LOOP('',(#251,#252,#253,#254));
#70=EDGE_LOOP('',(#255,#256,#257,#258));
#71=EDGE_LOOP('',(#259,#260,#261,#262));
#72=EDGE_LOOP('',(#263,#264,#265,#266));
#73=EDGE_LOOP('',(#267,#268,#269,#270));
#74=EDGE_LOOP('',(#271,#272,#273,#274));
#75=EDGE_LOOP('',(#275,#276,#277,#278));
#76=EDGE_LOOP('',(#279));
#77=EDGE_LOOP('',(#280));
#78=EDGE_LOOP('',(#281));
#79=EDGE_LOOP('',(#282));
#80=EDGE_LOOP('',(#283,#284,#285,#286));
#81=EDGE_LOOP('',(#287,#288,#289,#290));
#82=EDGE_LOOP('',(#291,#292,#293,#294));
#83=EDGE_LOOP('',(#295,#296,#297,#298));
#84=EDGE_LOOP('',(#299));
#85=EDGE_LOOP('',(#300));
#86=EDGE_LOOP('',(#301));
#87=EDGE_LOOP('',(#302));
#88=EDGE_LOOP('',(#303));
#89=EDGE_LOOP('',(#304));
#90=EDGE_LOOP('',(#305,#306,#307,#308));
#91=EDGE_LOOP('',(#309));
#92=EDGE_LOOP('',(#310));
#93=EDGE_LOOP('',(#311));
#94=EDGE_LOOP('',(#312));
#95=EDGE_LOOP('',(#313));
#96=EDGE_LOOP('',(#314));
#97=LINE('',#508,#119);
#98=LINE('',#515,#120);
#99=LINE('',#522,#121);
#100=LINE('',#529,#122);
#101=LINE('',#536,#123);
#102=LINE('',#542,#124);
#103=LINE('',#548,#125);
#104=LINE('',#554,#126);
#105=LINE('',#560,#127);
#106=LINE('',#566,#128);
#107=LINE('',#571,#129);
#108=LINE('',#573,#130);
#109=LINE('',#575,#131);
#110=LINE('',#576,#132);
#111=LINE('',#579,#133);
#112=LINE('',#581,#134);
#113=LINE('',#582,#135);
#114=LINE('',#585,#136);
#115=LINE('',#587,#137);
#116=LINE('',#588,#138);
#117=LINE('',#590,#139);
#118=LINE('',#591,#140);
#119=VECTOR('',#405,2.);
#120=VECTOR('',#414,2.);
#121=VECTOR('',#423,2.);
#122=VECTOR('',#432,2.);
#123=VECTOR('',#441,1.5);
#124=VECTOR('',#448,2.5);
#125=VECTOR('',#455,1.5);
#126=VECTOR('',#462,2.5);
#127=VECTOR('',#469,1.5);
#128=VECTOR('',#476,1.5);
#129=VECTOR('',#481,10.);
#130=VECTOR('',#482,10.);
#131=VECTOR('',#483,10.);
#132=VECTOR('',#484,10.);
#133=VECTOR('',#487,10.);
#134=VECTOR('',#488,10.);
#135=VECTOR('',#489,10.);
#136=VECTOR('',#492,10.);
#137=VECTOR('',#493,10.);
#138=VECTOR('',#494,10.);
#139=VECTOR('',#497,10.);
#140=VECTOR('',#498,10.);
#141=CIRCLE('',#360,2.);
#142=CIRCLE('',#361,2.);
#143=CIRCLE('',#364,2.);
#144=CIRCLE('',#365,2.);
#145=CIRCLE('',#368,2.);
#146=CIRCLE('',#369,2.);
#147=CIRCLE('',#372,2.);
#148=CIRCLE('',#373,2.);
#149=CIRCLE('',#376,1.5);
#150=CIRCLE('',#377,1.5);
#151=CIRCLE('',#379,2.5);
#152=CIRCLE('',#380,2.5);
#153=CIRCLE('',#382,1.5);
#154=CIRCLE('',#383,1.5);
#155=CIRCLE('',#385,2.5);
#156=CIRCLE('',#386,2.5);
#157=CIRCLE('',#388,1.5);
#158=CIRCLE('',#389,1.5);
#159=CIRCLE('',#391,1.5);
#160=CIRCLE('',#392,1.5);
#161=VERTEX_POINT('',#505);
#162=VERTEX_POINT('',#507);
#163=VERTEX_POINT('',#512);
#164=VERTEX_POINT('',#514);
#165=VERTEX_POINT('',#519);
#166=VERTEX_POINT('',#521);
#167=VERTEX_POINT('',#526);
#168=VERTEX_POINT('',#528);
#169=VERTEX_POINT('',#533);
#170=VERTEX_POINT('',#535);
#171=VERTEX_POINT('',#539);
#172=VERTEX_POINT('',#541);
#173=VERTEX_POINT('',#545);
#174=VERTEX_POINT('',#547);
#175=VERTEX_POINT('',#551);
#176=VERTEX_POINT('',#553);
#177=VERTEX_POINT('',#557);
#178=VERTEX_POINT('',#559);
#179=VERTEX_POINT('',#563);
#180=VERTEX_POINT('',#565);
#181=VERTEX_POINT('',#569);
#182=VERTEX_POINT('',#570);
#183=VERTEX_POINT('',#572);
#184=VERTEX_POINT('',#574);
#185=VERTEX_POINT('',#578);
#186=VERTEX_POINT('',#580);
#187=VERTEX_POINT('',#584);
#188=VERTEX_POINT('',#586);
#189=EDGE_CURVE('',#161,#161,#141,.T.);
#190=EDGE_CURVE('',#161,#162,#97,.T.);
#191=EDGE_CURVE('',#162,#162,#142,.T.);
#192=EDGE_CURVE('',#163,#163,#143,.T.);
#193=EDGE_CURVE('',#163,#164,#98,.T.);
#194=EDGE_CURVE('',#164,#164,#144,.T.);
#195=EDGE_CURVE('',#165,#165,#145,.T.);
#196=EDGE_CURVE('',#165,#166,#99,.T.);
#197=EDGE_CURVE('',#166,#166,#146,.T.);
#198=EDGE_CURVE('',#167,#167,#147,.T.);
#199=EDGE_CURVE('',#167,#168,#100,.T.);
#200=EDGE_CURVE('',#168,#168,#148,.T.);
#201=EDGE_CURVE('',#169,#169,#149,.T.);
#202=EDGE_CURVE('',#169,#170,#101,.T.);
#203=EDGE_CURVE('',#170,#170,#150,.T.);
#204=EDGE_CURVE('',#171,#171,#151,.T.);
#205=EDGE_CURVE('',#171,#172,#102,.T.);
#206=EDGE_CURVE('',#172,#172,#152,.T.);
#207=EDGE_CURVE('',#173,#173,#153,.T.);
#208=EDGE_CURVE('',#173,#174,#103,.T.);
#209=EDGE_CURVE('',#174,#174,#154,.T.);
#210=EDGE_CURVE('',#175,#175,#155,.T.);
#211=EDGE_CURVE('',#175,#176,#104,.T.);
#212=EDGE_CURVE('',#176,#176,#156,.T.);
#213=EDGE_CURVE('',#177,#177,#157,.T.);
#214=EDGE_CURVE('',#177,#178,#105,.T.);
#215=EDGE_CURVE('',#178,#178,#158,.T.);
#216=EDGE_CURVE('',#179,#179,#159,.T.);
#217=EDGE_CURVE('',#179,#180,#106,.T.);
#218=EDGE_CURVE('',#180,#180,#160,.T.);
#219=EDGE_CURVE('',#181,#182,#107,.T.);
#220=EDGE_CURVE('',#182,#183,#108,.T.);
#221=EDGE_CURVE('',#184,#183,#109,.T.);
#222=EDGE_CURVE('',#181,#184,#110,.T.);
#223=EDGE_CURVE('',#185,#181,#111,.T.);
#224=EDGE_CURVE('',#186,#184,#112,.T.);
#225=EDGE_CURVE('',#185,#186,#113,.T.);
#226=EDGE_CURVE('',#187,#185,#114,.T.);
#227=EDGE_CURVE('',#188,#186,#115,.T.);
#228=EDGE_CURVE('',#187,#188,#116,.T.);
#229=EDGE_CURVE('',#182,#187,#117,.T.);
#230=EDGE_CURVE('',#183,#188,#118,.T.);
#231=ORIENTED_EDGE('',*,*,#189,.F.);
#232=ORIENTED_EDGE('',*,*,#190,.T.);
#233=ORIENTED_EDGE('',*,*,#191,.T.);
#234=ORIENTED_EDGE('',*,*,#190,.F.);
#235=ORIENTED_EDGE('',*,*,#191,.F.);
#236=ORIENTED_EDGE('',*,*,#192,.F.);
#237=ORIENTED_EDGE('',*,*,#193,.T.);
#238=ORIENTED_EDGE('',*,*,#194,.T.);
#239=ORIENTED_EDGE('',*,*,#193,.F.);
#240=ORIENTED_EDGE('',*,*,#194,.F.);
#241=ORIENTED_EDGE('',*,*,#195,.F.);
#242=ORIENTED_EDGE('',*,*,#196,.T.);
#243=ORIENTED_EDGE('',*,*,#197,.T.);
#244=ORIENTED_EDGE('',*,*,#196,.F.);
#245=ORIENTED_EDGE('',*,*,#197,.F.);
#246=ORIENTED_EDGE('',*,*,#198,.F.);
#247=ORIENTED_EDGE('',*,*,#199,.T.);
#248=ORIENTED_EDGE('',*,*,#200,.T.);
#249=ORIENTED_EDGE('',*,*,#199,.F.);
#250=ORIENTED_EDGE('',*,*,#200,.F.);
#251=ORIENTED_EDGE('',*,*,#201,.F.);
#252=ORIENTED_EDGE('',*,*,#202,.T.);
#253=ORIENTED_EDGE('',*,*,#203,.T.);
#254=ORIENTED_EDGE('',*,*,#202,.F.);
#255=ORIENTED_EDGE('',*,*,#204,.F.);
#256=ORIENTED_EDGE('',*,*,#205,.T.);
#257=ORIENTED_EDGE('',*,*,#206,.T.);
#258=ORIENTED_EDGE('',*,*,#205,.F.);
#259=ORIENTED_EDGE('',*,*,#207,.F.);
#260=ORIENTED_EDGE('',*,*,#208,.T.);
#261=ORIENTED_EDGE('',*,*,#209,.T.);
#262=ORIENTED_EDGE('',*,*,#208,.F.);
#263=ORIENTED_EDGE('',*,*,#210,.F.);
#264=ORIENTED_EDGE('',*,*,#211,.T.);
#265=ORIENTED_EDGE('',*,*,#212,.T.);
#266=ORIENTED_EDGE('',*,*,#211,.F.);
#267=ORIENTED_EDGE('',*,*,#213,.F.);
#268=ORIENTED_EDGE('',*,*,#214,.T.);
#269=ORIENTED_EDGE('',*,*,#215,.T.);
#270=ORIENTED_EDGE('',*,*,#214,.F.);
#271=ORIENTED_EDGE('',*,*,#216,.F.);
#272=ORIENTED_EDGE('',*,*,#217,.T.);
#273=ORIENTED_EDGE('',*,*,#218,.T.);
#274=ORIENTED_EDGE('',*,*,#217,.F.);
#275=ORIENTED_EDGE('',*,*,#219,.T.);
#276=ORIENTED_EDGE('',*,*,#220,.T.);
#277=ORIENTED_EDGE('',*,*,#221,.F.);
#278=ORIENTED_EDGE('',*,*,#222,.F.);
#279=ORIENTED_EDGE('',*,*,#189,.T.);
#280=ORIENTED_EDGE('',*,*,#192,.T.);
#281=ORIENTED_EDGE('',*,*,#195,.T.);
#282=ORIENTED_EDGE('',*,*,#198,.T.);
#283=ORIENTED_EDGE('',*,*,#223,.T.);
#284=ORIENTED_EDGE('',*,*,#222,.T.);
#285=ORIENTED_EDGE('',*,*,#224,.F.);
#286=ORIENTED_EDGE('',*,*,#225,.F.);
#287=ORIENTED_EDGE('',*,*,#226,.T.);
#288=ORIENTED_EDGE('',*,*,#225,.T.);
#289=ORIENTED_EDGE('',*,*,#227,.F.);
#290=ORIENTED_EDGE('',*,*,#228,.F.);
#291=ORIENTED_EDGE('',*,*,#229,.T.);
#292=ORIENTED_EDGE('',*,*,#228,.T.);
#293=ORIENTED_EDGE('',*,*,#230,.F.);
#294=ORIENTED_EDGE('',*,*,#220,.F.);
#295=ORIENTED_EDGE('',*,*,#230,.T.);
#296=ORIENTED_EDGE('',*,*,#227,.T.);
#297=ORIENTED_EDGE('',*,*,#224,.T.);
#298=ORIENTED_EDGE('',*,*,#221,.T.);
#299=ORIENTED_EDGE('',*,*,#216,.T.);
#300=ORIENTED_EDGE('',*,*,#213,.T.);
#301=ORIENTED_EDGE('',*,*,#210,.T.);
#302=ORIENTED_EDGE('',*,*,#207,.T.);
#303=ORIENTED_EDGE('',*,*,#204,.T.);
#304=ORIENTED_EDGE('',*,*,#201,.T.);
#305=ORIENTED_EDGE('',*,*,#229,.F.);
#306=ORIENTED_EDGE('',*,*,#219,.F.);
#307=ORIENTED_EDGE('',*,*,#223,.F.);
#308=ORIENTED_EDGE('',*,*,#226,.F.);
#309=ORIENTED_EDGE('',*,*,#218,.F.);
#310=ORIENTED_EDGE('',*,*,#215,.F.);
#311=ORIENTED_EDGE('',*,*,#212,.F.);
#312=ORIENTED_EDGE('',*,*,#209,.F.);
#313=ORIENTED_EDGE('',*,*,#206,.F.);
#314=ORIENTED_EDGE('',*,*,#203,.F.);
#315=CYLINDRICAL_SURFACE('',#359,2.);
#316=CYLINDRICAL_SURFACE('',#363,2.);
#317=CYLINDRICAL_SURFACE('',#367,2.);
#318=CYLINDRICAL_SURFACE('',#371,2.);
#319=CYLINDRICAL_SURFACE('',#375,1.5);
#320=CYLINDRICAL_SURFACE('',#378,2.5);
#321=CYLINDRICAL_SURFACE('',#381,1.5);
#322=CYLINDRICAL_SURFACE('',#384,2.5);
#323=CYLINDRICAL_SURFACE('',#387,1.5);
#324=CYLINDRICAL_SURFACE('',#390,1.5);
#325=ADVANCED_FACE('',(#41),#315,.F.);
#326=ADVANCED_FACE('',(#42),#31,.T.);
#327=ADVANCED_FACE('',(#43),#316,.F.);
#328=ADVANCED_FACE('',(#44),#32,.T.);
#329=ADVANCED_FACE('',(#45),#317,.F.);
#330=ADVANCED_FACE('',(#46),#33,.T.);
#331=ADVANCED_FACE('',(#47),#318,.F.);
#332=ADVANCED_FACE('',(#48),#34,.T.);
#333=ADVANCED_FACE('',(#49),#319,.F.);
#334=ADVANCED_FACE('',(#50),#320,.F.);
#335=ADVANCED_FACE('',(#51),#321,.F.);
#336=ADVANCED_FACE('',(#52),#322,.F.);
#337=ADVANCED_FACE('',(#53),#323,.F.);
#338=ADVANCED_FACE('',(#54),#324,.F.);
#339=ADVANCED_FACE('',(#55,#15,#16,#17,#18),#35,.T.);
#340=ADVANCED_FACE('',(#56),#36,.T.);
#341=ADVANCED_FACE('',(#57),#37,.T.);
#342=ADVANCED_FACE('',(#58),#38,.T.);
#343=ADVANCED_FACE('',(#59,#19,#20,#21,#22,#23,#24),#39,.T.);
#344=ADVANCED_FACE('',(#60,#25,#26,#27,#28,#29,#30),#40,.F.);
#345=CLOSED_SHELL('',(#325,#326,#327,#328,#329,#330,#331,#332,#333,#334,
#335,#336,#337,#338,#339,#340,#341,#342,#343,#344));
#346=DERIVED_UNIT_ELEMENT(#348,1.);
#347=DERIVED_UNIT_ELEMENT(#599,3.);
#348=(
MASS_UNIT()
NAMED_UNIT(*)
SI_UNIT(.KILO.,.GRAM.)
);
#349=DERIVED_UNIT((#346,#347));
#350=MEASURE_REPRESENTATION_ITEM('density measure',
POSITIVE_RATIO_MEASURE(7850.),#349);
#351=PROPERTY_DEFINITION_REPRESENTATION(#356,#353);
#352=PROPERTY_DEFINITION_REPRESENTATION(#357,#354);
#353=REPRESENTATION('material name',(#355),#596);
#354=REPRESENTATION('density',(#350),#596);
#355=DESCRIPTIVE_REPRESENTATION_ITEM('Steel','Steel');
#356=PROPERTY_DEFINITION('material property','material name',#606);
#357=PROPERTY_DEFINITION('material property','density of part',#606);
#358=AXIS2_PLACEMENT_3D('placement',#503,#399,#400);
#359=AXIS2_PLACEMENT_3D('',#504,#401,#402);
#360=AXIS2_PLACEMENT_3D('',#506,#403,#404);
#361=AXIS2_PLACEMENT_3D('',#509,#406,#407);
#362=AXIS2_PLACEMENT_3D('',#510,#408,#409);
#363=AXIS2_PLACEMENT_3D('',#511,#410,#411);
#364=AXIS2_PLACEMENT_3D('',#513,#412,#413);
#365=AXIS2_PLACEMENT_3D('',#516,#415,#416);
#366=AXIS2_PLACEMENT_3D('',#517,#417,#418);
#367=AXIS2_PLACEMENT_3D('',#518,#419,#420);
#368=AXIS2_PLACEMENT_3D('',#520,#421,#422);
#369=AXIS2_PLACEMENT_3D('',#523,#424,#425);
#370=AXIS2_PLACEMENT_3D('',#524,#426,#427);
#371=AXIS2_PLACEMENT_3D('',#525,#428,#429);
#372=AXIS2_PLACEMENT_3D('',#527,#430,#431);
#373=AXIS2_PLACEMENT_3D('',#530,#433,#434);
#374=AXIS2_PLACEMENT_3D('',#531,#435,#436);
#375=AXIS2_PLACEMENT_3D('',#532,#437,#438);
#376=AXIS2_PLACEMENT_3D('',#534,#439,#440);
#377=AXIS2_PLACEMENT_3D('',#537,#442,#443);
#378=AXIS2_PLACEMENT_3D('',#538,#444,#445);
#379=AXIS2_PLACEMENT_3D('',#540,#446,#447);
#380=AXIS2_PLACEMENT_3D('',#543,#449,#450);
#381=AXIS2_PLACEMENT_3D('',#544,#451,#452);
#382=AXIS2_PLACEMENT_3D('',#546,#453,#454);
#383=AXIS2_PLACEMENT_3D('',#549,#456,#457);
#384=AXIS2_PLACEMENT_3D('',#550,#458,#459);
#385=AXIS2_PLACEMENT_3D('',#552,#460,#461);
#386=AXIS2_PLACEMENT_3D('',#555,#463,#464);
#387=AXIS2_PLACEMENT_3D('',#556,#465,#466);
#388=AXIS2_PLACEMENT_3D('',#558,#467,#468);
#389=AXIS2_PLACEMENT_3D('',#561,#470,#471);
#390=AXIS2_PLACEMENT_3D('',#562,#472,#473);
#391=AXIS2_PLACEMENT_3D('',#564,#474,#475);
#392=AXIS2_PLACEMENT_3D('',#567,#477,#478);
#393=AXIS2_PLACEMENT_3D('',#568,#479,#480);
#394=AXIS2_PLACEMENT_3D('',#577,#485,#486);
#395=AXIS2_PLACEMENT_3D('',#583,#490,#491);
#396=AXIS2_PLACEMENT_3D('',#589,#495,#496);
#397=AXIS2_PLACEMENT_3D('',#592,#499,#500);
#398=AXIS2_PLACEMENT_3D('',#593,#501,#502);
#399=DIRECTION('axis',(0.,0.,1.));
#400=DIRECTION('refdir',(1.,0.,0.));
#401=DIRECTION('center_axis',(0.,-1.,0.));
#402=DIRECTION('ref_axis',(-1.,0.,0.));
#403=DIRECTION('center_axis',(0.,-1.,0.));
#404=DIRECTION('ref_axis',(-1.,0.,0.));
#405=DIRECTION('',(0.,-1.,0.));
#406=DIRECTION('center_axis',(0.,-1.,0.));
#407=DIRECTION('ref_axis',(-1.,0.,0.));
#408=DIRECTION('center_axis',(0.,1.,0.));
#409=DIRECTION('ref_axis',(-1.,0.,0.));
#410=DIRECTION('center_axis',(0.,-1.,0.));
#411=DIRECTION('ref_axis',(-1.,0.,0.));
#412=DIRECTION('center_axis',(0.,-1.,0.));
#413=DIRECTION('ref_axis',(-1.,0.,0.));
#414=DIRECTION('',(0.,-1.,0.));
#415=DIRECTION('center_axis',(0.,-1.,0.));
#416=DIRECTION('ref_axis',(-1.,0.,0.));
#417=DIRECTION('center_axis',(0.,1.,0.));
#418=DIRECTION('ref_axis',(-1.,0.,0.));
#419=DIRECTION('center_axis',(0.,-1.,0.));
#420=DIRECTION('ref_axis',(-1.,0.,0.));
#421=DIRECTION('center_axis',(0.,-1.,0.));
#422=DIRECTION('ref_axis',(-1.,0.,0.));
#423=DIRECTION('',(0.,-1.,0.));
#424=DIRECTION('center_axis',(0.,-1.,0.));
#425=DIRECTION('ref_axis',(-1.,0.,0.));
#426=DIRECTION('center_axis',(0.,1.,0.));
#427=DIRECTION('ref_axis',(-1.,0.,0.));
#428=DIRECTION('center_axis',(0.,-1.,0.));
#429=DIRECTION('ref_axis',(-1.,0.,0.));
#430=DIRECTION('center_axis',(0.,-1.,0.));
#431=DIRECTION('ref_axis',(-1.,0.,0.));
#432=DIRECTION('',(0.,-1.,0.));
#433=DIRECTION('center_axis',(0.,-1.,0.));
#434=DIRECTION('ref_axis',(-1.,0.,0.));
#435=DIRECTION('center_axis',(0.,1.,0.));
#436=DIRECTION('ref_axis',(-1.,0.,0.));
#437=DIRECTION('center_axis',(0.,0.,1.));
#438=DIRECTION('ref_axis',(1.,0.,0.));
#439=DIRECTION('center_axis',(0.,0.,-1.));
#440=DIRECTION('ref_axis',(1.,0.,0.));
#441=DIRECTION('',(0.,0.,-1.));
#442=DIRECTION('center_axis',(0.,0.,-1.));
#443=DIRECTION('ref_axis',(1.,0.,0.));
#444=DIRECTION('center_axis',(0.,0.,1.));
#445=DIRECTION('ref_axis',(1.,0.,0.));
#446=DIRECTION('center_axis',(0.,0.,-1.));
#447=DIRECTION('ref_axis',(1.,0.,0.));
#448=DIRECTION('',(0.,0.,-1.));
#449=DIRECTION('center_axis',(0.,0.,-1.));
#450=DIRECTION('ref_axis',(1.,0.,0.));
#451=DIRECTION('center_axis',(0.,0.,1.));
#452=DIRECTION('ref_axis',(1.,0.,0.));
#453=DIRECTION('center_axis',(0.,0.,-1.));
#454=DIRECTION('ref_axis',(1.,0.,0.));
#455=DIRECTION('',(0.,0.,-1.));
#456=DIRECTION('center_axis',(0.,0.,-1.));
#457=DIRECTION('ref_axis',(1.,0.,0.));
#458=DIRECTION('center_axis',(0.,0.,1.));
#459=DIRECTION('ref_axis',(1.,0.,0.));
#460=DIRECTION('center_axis',(0.,0.,-1.));
#461=DIRECTION('ref_axis',(1.,0.,0.));
#462=DIRECTION('',(0.,0.,-1.));
#463=DIRECTION('center_axis',(0.,0.,-1.));
#464=DIRECTION('ref_axis',(1.,0.,0.));
#465=DIRECTION('center_axis',(0.,0.,1.));
#466=DIRECTION('ref_axis',(1.,0.,0.));
#467=DIRECTION('center_axis',(0.,0.,-1.));
#468=DIRECTION('ref_axis',(1.,0.,0.));
#469=DIRECTION('',(0.,0.,-1.));
#470=DIRECTION('center_axis',(0.,0.,-1.));
#471=DIRECTION('ref_axis',(1.,0.,0.));
#472=DIRECTION('center_axis',(0.,0.,1.));
#473=DIRECTION('ref_axis',(1.,0.,0.));
#474=DIRECTION('center_axis',(0.,0.,-1.));
#475=DIRECTION('ref_axis',(1.,0.,0.));
#476=DIRECTION('',(0.,0.,-1.));
#477=DIRECTION('center_axis',(0.,0.,-1.));
#478=DIRECTION('ref_axis',(1.,0.,0.));
#479=DIRECTION('center_axis',(0.,1.,0.));
#480=DIRECTION('ref_axis',(-1.,0.,0.));
#481=DIRECTION('',(-1.,0.,0.));
#482=DIRECTION('',(0.,0.,1.));
#483=DIRECTION('',(-1.,0.,0.));
#484=DIRECTION('',(0.,0.,1.));
#485=DIRECTION('center_axis',(1.,0.,0.));
#486=DIRECTION('ref_axis',(0.,1.,0.));
#487=DIRECTION('',(0.,1.,0.));
#488=DIRECTION('',(0.,1.,0.));
#489=DIRECTION('',(0.,0.,1.));
#490=DIRECTION('center_axis',(0.,-1.,0.));
#491=DIRECTION('ref_axis',(1.,0.,0.));
#492=DIRECTION('',(1.,0.,0.));
#493=DIRECTION('',(1.,0.,0.));
#494=DIRECTION('',(0.,0.,1.));
#495=DIRECTION('center_axis',(-1.,0.,0.));
#496=DIRECTION('ref_axis',(0.,-1.,0.));
#497=DIRECTION('',(0.,-1.,0.));
#498=DIRECTION('',(0.,-1.,0.));
#499=DIRECTION('center_axis',(0.,0.,1.));
#500=DIRECTION('ref_axis',(1.,0.,0.));
#501=DIRECTION('center_axis',(0.,0.,1.));
#502=DIRECTION('ref_axis',(1.,0.,0.));
#503=CARTESIAN_POINT('',(0.,0.,0.));
#504=CARTESIAN_POINT('Origin',(42.,70.,5.));
#505=CARTESIAN_POINT('',(44.,70.,5.));
#506=CARTESIAN_POINT('Origin',(42.,70.,5.));
#507=CARTESIAN_POINT('',(44.,60.,5.));
#508=CARTESIAN_POINT('',(44.,70.,5.));
#509=CARTESIAN_POINT('Origin',(42.,60.,5.));
#510=CARTESIAN_POINT('Origin',(42.,60.,5.));
#511=CARTESIAN_POINT('Origin',(28.,70.,5.));
#512=CARTESIAN_POINT('',(30.,70.,5.));
#513=CARTESIAN_POINT('Origin',(28.,70.,5.));
#514=CARTESIAN_POINT('',(30.,60.,5.));
#515=CARTESIAN_POINT('',(30.,70.,5.));
#516=CARTESIAN_POINT('Origin',(28.,60.,5.));
#517=CARTESIAN_POINT('Origin',(28.,60.,5.));
#518=CARTESIAN_POINT('Origin',(56.,70.,5.));
#519=CARTESIAN_POINT('',(58.,70.,5.));
#520=CARTESIAN_POINT('Origin',(56.,70.,5.));
#521=CARTESIAN_POINT('',(58.,60.,5.));
#522=CARTESIAN_POINT('',(58.,70.,5.));
#523=CARTESIAN_POINT('Origin',(56.,60.,5.));
#524=CARTESIAN_POINT('Origin',(56.,60.,5.));
#525=CARTESIAN_POINT('Origin',(14.,70.,5.));
#526=CARTESIAN_POINT('',(16.,70.,5.));
#527=CARTESIAN_POINT('Origin',(14.,70.,5.));
#528=CARTESIAN_POINT('',(16.,60.,5.));
#529=CARTESIAN_POINT('',(16.,70.,5.));
#530=CARTESIAN_POINT('Origin',(14.,60.,5.));
#531=CARTESIAN_POINT('Origin',(14.,60.,5.));
#532=CARTESIAN_POINT('Origin',(51.5,45.,0.));
#533=CARTESIAN_POINT('',(50.,45.,10.));
#534=CARTESIAN_POINT('Origin',(51.5,45.,10.));
#535=CARTESIAN_POINT('',(50.,45.,0.));
#536=CARTESIAN_POINT('',(50.,45.,0.));
#537=CARTESIAN_POINT('Origin',(51.5,45.,0.));
#538=CARTESIAN_POINT('Origin',(5.,17.5,0.));
#539=CARTESIAN_POINT('',(2.5,17.5,10.));
#540=CARTESIAN_POINT('Origin',(5.,17.5,10.));
#541=CARTESIAN_POINT('',(2.5,17.5,0.));
#542=CARTESIAN_POINT('',(2.5,17.5,0.));
#543=CARTESIAN_POINT('Origin',(5.,17.5,0.));
#544=CARTESIAN_POINT('Origin',(31.5,45.,0.));
#545=CARTESIAN_POINT('',(30.,45.,10.));
#546=CARTESIAN_POINT('Origin',(31.5,45.,10.));
#547=CARTESIAN_POINT('',(30.,45.,0.));
#548=CARTESIAN_POINT('',(30.,45.,0.));
#549=CARTESIAN_POINT('Origin',(31.5,45.,0.));
#550=CARTESIAN_POINT('Origin',(5.,52.5,0.));
#551=CARTESIAN_POINT('',(2.5,52.5,10.));
#552=CARTESIAN_POINT('Origin',(5.,52.5,10.));
#553=CARTESIAN_POINT('',(2.5,52.5,0.));
#554=CARTESIAN_POINT('',(2.5,52.5,0.));
#555=CARTESIAN_POINT('Origin',(5.,52.5,0.));
#556=CARTESIAN_POINT('Origin',(51.5,25.,0.));
#557=CARTESIAN_POINT('',(50.,25.,10.));
#558=CARTESIAN_POINT('Origin',(51.5,25.,10.));
#559=CARTESIAN_POINT('',(50.,25.,0.));
#560=CARTESIAN_POINT('',(50.,25.,0.));
#561=CARTESIAN_POINT('Origin',(51.5,25.,0.));
#562=CARTESIAN_POINT('Origin',(31.5,25.,0.));
#563=CARTESIAN_POINT('',(30.,25.,10.));
#564=CARTESIAN_POINT('Origin',(31.5,25.,10.));
#565=CARTESIAN_POINT('',(30.,25.,0.));
#566=CARTESIAN_POINT('',(30.,25.,0.));
#567=CARTESIAN_POINT('Origin',(31.5,25.,0.));
#568=CARTESIAN_POINT('Origin',(61.,70.,0.));
#569=CARTESIAN_POINT('',(61.,70.,0.));
#570=CARTESIAN_POINT('',(0.,70.,0.));
#571=CARTESIAN_POINT('',(61.,70.,0.));
#572=CARTESIAN_POINT('',(0.,70.,10.));
#573=CARTESIAN_POINT('',(0.,70.,0.));
#574=CARTESIAN_POINT('',(61.,70.,10.));
#575=CARTESIAN_POINT('',(61.,70.,10.));
#576=CARTESIAN_POINT('',(61.,70.,0.));
#577=CARTESIAN_POINT('Origin',(61.,0.,0.));
#578=CARTESIAN_POINT('',(61.,0.,0.));
#579=CARTESIAN_POINT('',(61.,0.,0.));
#580=CARTESIAN_POINT('',(61.,0.,10.));
#581=CARTESIAN_POINT('',(61.,0.,10.));
#582=CARTESIAN_POINT('',(61.,0.,0.));
#583=CARTESIAN_POINT('Origin',(0.,0.,0.));
#584=CARTESIAN_POINT('',(0.,0.,0.));
#585=CARTESIAN_POINT('',(0.,0.,0.));
#586=CARTESIAN_POINT('',(0.,0.,10.));
#587=CARTESIAN_POINT('',(0.,0.,10.));
#588=CARTESIAN_POINT('',(0.,0.,0.));
#589=CARTESIAN_POINT('Origin',(0.,70.,0.));
#590=CARTESIAN_POINT('',(0.,70.,0.));
#591=CARTESIAN_POINT('',(0.,70.,10.));
#592=CARTESIAN_POINT('Origin',(30.5,35.,10.));
#593=CARTESIAN_POINT('Origin',(30.5,35.,0.));
#594=UNCERTAINTY_MEASURE_WITH_UNIT(LENGTH_MEASURE(0.01),#598,
'DISTANCE_ACCURACY_VALUE',
'Maximum model space distance between geometric entities at asserted c
onnectivities');
#595=UNCERTAINTY_MEASURE_WITH_UNIT(LENGTH_MEASURE(0.01),#598,
'DISTANCE_ACCURACY_VALUE',
'Maximum model space distance between geometric entities at asserted c
onnectivities');
#596=(
GEOMETRIC_REPRESENTATION_CONTEXT(3)
GLOBAL_UNCERTAINTY_ASSIGNED_CONTEXT((#594))
GLOBAL_UNIT_ASSIGNED_CONTEXT((#598,#600,#601))
REPRESENTATION_CONTEXT('','3D')
);
#597=(
GEOMETRIC_REPRESENTATION_CONTEXT(3)
GLOBAL_UNCERTAINTY_ASSIGNED_CONTEXT((#595))
GLOBAL_UNIT_ASSIGNED_CONTEXT((#598,#600,#601))
REPRESENTATION_CONTEXT('','3D')
);
#598=(
LENGTH_UNIT()
NAMED_UNIT(*)
SI_UNIT(.MILLI.,.METRE.)
);
#599=(
LENGTH_UNIT()
NAMED_UNIT(*)
SI_UNIT($,.METRE.)
);
#600=(
NAMED_UNIT(*)
PLANE_ANGLE_UNIT()
SI_UNIT($,.RADIAN.)
);
#601=(
NAMED_UNIT(*)
SI_UNIT($,.STERADIAN.)
SOLID_ANGLE_UNIT()
);
#602=SHAPE_DEFINITION_REPRESENTATION(#603,#604);
#603=PRODUCT_DEFINITION_SHAPE('',$,#606);
#604=SHAPE_REPRESENTATION('',(#358),#596);
#605=PRODUCT_DEFINITION_CONTEXT('part definition',#610,'design');
#606=PRODUCT_DEFINITION('Side Plate Y-Z MGN nut',
'Side Plate Y-Z MGN nut v17',#607,#605);
#607=PRODUCT_DEFINITION_FORMATION('',$,#612);
#608=PRODUCT_RELATED_PRODUCT_CATEGORY('Side Plate Y-Z MGN nut v17',
'Side Plate Y-Z MGN nut v17',(#612));
#609=APPLICATION_PROTOCOL_DEFINITION('international standard',
'automotive_design',2009,#610);
#610=APPLICATION_CONTEXT(
'Core Data for Automotive Mechanical Design Process');
#611=PRODUCT_CONTEXT('part definition',#610,'mechanical');
#612=PRODUCT('Side Plate Y-Z MGN nut','Side Plate Y-Z MGN nut v17',$,(#611));
#613=PRESENTATION_STYLE_ASSIGNMENT((#615));
#614=PRESENTATION_STYLE_ASSIGNMENT((#616));
#615=SURFACE_STYLE_USAGE(.BOTH.,#617);
#616=SURFACE_STYLE_USAGE(.BOTH.,#618);
#617=SURFACE_SIDE_STYLE('',(#619));
#618=SURFACE_SIDE_STYLE('',(#620));
#619=SURFACE_STYLE_FILL_AREA(#621);
#620=SURFACE_STYLE_FILL_AREA(#622);
#621=FILL_AREA_STYLE('Steel - Satin',(#623));
#622=FILL_AREA_STYLE('Aluminum - Bead Blasted',(#624));
#623=FILL_AREA_STYLE_COLOUR('Steel - Satin',#625);
#624=FILL_AREA_STYLE_COLOUR('Aluminum - Bead Blasted',#626);
#625=COLOUR_RGB('Steel - Satin',0.627450980392157,0.627450980392157,0.627450980392157);
#626=COLOUR_RGB('Aluminum - Bead Blasted',0.96078431372549,0.96078431372549,
0.964705882352941);
ENDSEC;
END-ISO-10303-21;
