ISO-10303-21;
HEADER;
/* Generated by software containing ST-Developer
 * from STEP Tools, Inc. (www.steptools.com) 
 */

FILE_DESCRIPTION(
/* description */ (''),
/* implementation_level */ '2;1');

FILE_NAME(
/* name */ 
'/Users/benj/Desktop/PLASMA/3 -  MMMM/Y-Z Connector Plans/Y-Z connnect
or LeftPlate.step',
/* time_stamp */ '2020-05-14T13:26:22+02:00',
/* author */ (''),
/* organization */ (''),
/* preprocessor_version */ 'ST-DEVELOPER v18.1',
/* originating_system */ 'Autodesk Translation Framework v9.2.0.1227',
/* authorisation */ '');

FILE_SCHEMA (('AUTOMOTIVE_DESIGN { 1 0 10303 214 3 1 1 }'));
ENDSEC;

DATA;
#10=MECHANICAL_DESIGN_GEOMETRIC_PRESENTATION_REPRESENTATION('',(#13),#417);
#11=SHAPE_REPRESENTATION_RELATIONSHIP('SRR','None',#424,#12);
#12=ADVANCED_BREP_SHAPE_REPRESENTATION('',(#14),#416);
#13=STYLED_ITEM('',(#434),#14);
#14=MANIFOLD_SOLID_BREP('Body1',#245);
#15=FACE_BOUND('',#56,.T.);
#16=FACE_BOUND('',#57,.T.);
#17=FACE_BOUND('',#58,.T.);
#18=FACE_BOUND('',#59,.T.);
#19=FACE_BOUND('',#60,.T.);
#20=FACE_BOUND('',#61,.T.);
#21=FACE_BOUND('',#63,.T.);
#22=FACE_BOUND('',#64,.T.);
#23=FACE_BOUND('',#65,.T.);
#24=FACE_BOUND('',#66,.T.);
#25=FACE_BOUND('',#67,.T.);
#26=FACE_BOUND('',#68,.T.);
#27=PLANE('',#277);
#28=PLANE('',#278);
#29=PLANE('',#279);
#30=PLANE('',#280);
#31=PLANE('',#281);
#32=PLANE('',#282);
#33=FACE_OUTER_BOUND('',#45,.T.);
#34=FACE_OUTER_BOUND('',#46,.T.);
#35=FACE_OUTER_BOUND('',#47,.T.);
#36=FACE_OUTER_BOUND('',#48,.T.);
#37=FACE_OUTER_BOUND('',#49,.T.);
#38=FACE_OUTER_BOUND('',#50,.T.);
#39=FACE_OUTER_BOUND('',#51,.T.);
#40=FACE_OUTER_BOUND('',#52,.T.);
#41=FACE_OUTER_BOUND('',#53,.T.);
#42=FACE_OUTER_BOUND('',#54,.T.);
#43=FACE_OUTER_BOUND('',#55,.T.);
#44=FACE_OUTER_BOUND('',#62,.T.);
#45=EDGE_LOOP('',(#167,#168,#169,#170));
#46=EDGE_LOOP('',(#171,#172,#173,#174));
#47=EDGE_LOOP('',(#175,#176,#177,#178));
#48=EDGE_LOOP('',(#179,#180,#181,#182));
#49=EDGE_LOOP('',(#183,#184,#185,#186));
#50=EDGE_LOOP('',(#187,#188,#189,#190));
#51=EDGE_LOOP('',(#191,#192,#193,#194));
#52=EDGE_LOOP('',(#195,#196,#197,#198));
#53=EDGE_LOOP('',(#199,#200,#201,#202));
#54=EDGE_LOOP('',(#203,#204,#205,#206));
#55=EDGE_LOOP('',(#207,#208,#209,#210));
#56=EDGE_LOOP('',(#211));
#57=EDGE_LOOP('',(#212));
#58=EDGE_LOOP('',(#213));
#59=EDGE_LOOP('',(#214));
#60=EDGE_LOOP('',(#215));
#61=EDGE_LOOP('',(#216));
#62=EDGE_LOOP('',(#217,#218,#219,#220));
#63=EDGE_LOOP('',(#221));
#64=EDGE_LOOP('',(#222));
#65=EDGE_LOOP('',(#223));
#66=EDGE_LOOP('',(#224));
#67=EDGE_LOOP('',(#225));
#68=EDGE_LOOP('',(#226));
#69=LINE('',#356,#87);
#70=LINE('',#362,#88);
#71=LINE('',#368,#89);
#72=LINE('',#374,#90);
#73=LINE('',#380,#91);
#74=LINE('',#386,#92);
#75=LINE('',#391,#93);
#76=LINE('',#393,#94);
#77=LINE('',#395,#95);
#78=LINE('',#396,#96);
#79=LINE('',#399,#97);
#80=LINE('',#401,#98);
#81=LINE('',#402,#99);
#82=LINE('',#405,#100);
#83=LINE('',#407,#101);
#84=LINE('',#408,#102);
#85=LINE('',#410,#103);
#86=LINE('',#411,#104);
#87=VECTOR('',#289,1.5);
#88=VECTOR('',#296,1.5);
#89=VECTOR('',#303,1.5);
#90=VECTOR('',#310,2.5);
#91=VECTOR('',#317,2.5);
#92=VECTOR('',#324,1.5);
#93=VECTOR('',#329,10.);
#94=VECTOR('',#330,10.);
#95=VECTOR('',#331,10.);
#96=VECTOR('',#332,10.);
#97=VECTOR('',#335,10.);
#98=VECTOR('',#336,10.);
#99=VECTOR('',#337,10.);
#100=VECTOR('',#340,10.);
#101=VECTOR('',#341,10.);
#102=VECTOR('',#342,10.);
#103=VECTOR('',#345,10.);
#104=VECTOR('',#346,10.);
#105=CIRCLE('',#260,1.5);
#106=CIRCLE('',#261,1.5);
#107=CIRCLE('',#263,1.5);
#108=CIRCLE('',#264,1.5);
#109=CIRCLE('',#266,1.5);
#110=CIRCLE('',#267,1.5);
#111=CIRCLE('',#269,2.5);
#112=CIRCLE('',#270,2.5);
#113=CIRCLE('',#272,2.5);
#114=CIRCLE('',#273,2.5);
#115=CIRCLE('',#275,1.5);
#116=CIRCLE('',#276,1.5);
#117=VERTEX_POINT('',#353);
#118=VERTEX_POINT('',#355);
#119=VERTEX_POINT('',#359);
#120=VERTEX_POINT('',#361);
#121=VERTEX_POINT('',#365);
#122=VERTEX_POINT('',#367);
#123=VERTEX_POINT('',#371);
#124=VERTEX_POINT('',#373);
#125=VERTEX_POINT('',#377);
#126=VERTEX_POINT('',#379);
#127=VERTEX_POINT('',#383);
#128=VERTEX_POINT('',#385);
#129=VERTEX_POINT('',#389);
#130=VERTEX_POINT('',#390);
#131=VERTEX_POINT('',#392);
#132=VERTEX_POINT('',#394);
#133=VERTEX_POINT('',#398);
#134=VERTEX_POINT('',#400);
#135=VERTEX_POINT('',#404);
#136=VERTEX_POINT('',#406);
#137=EDGE_CURVE('',#117,#117,#105,.T.);
#138=EDGE_CURVE('',#117,#118,#69,.T.);
#139=EDGE_CURVE('',#118,#118,#106,.T.);
#140=EDGE_CURVE('',#119,#119,#107,.T.);
#141=EDGE_CURVE('',#119,#120,#70,.T.);
#142=EDGE_CURVE('',#120,#120,#108,.T.);
#143=EDGE_CURVE('',#121,#121,#109,.T.);
#144=EDGE_CURVE('',#121,#122,#71,.T.);
#145=EDGE_CURVE('',#122,#122,#110,.T.);
#146=EDGE_CURVE('',#123,#123,#111,.T.);
#147=EDGE_CURVE('',#123,#124,#72,.T.);
#148=EDGE_CURVE('',#124,#124,#112,.T.);
#149=EDGE_CURVE('',#125,#125,#113,.T.);
#150=EDGE_CURVE('',#125,#126,#73,.T.);
#151=EDGE_CURVE('',#126,#126,#114,.T.);
#152=EDGE_CURVE('',#127,#127,#115,.T.);
#153=EDGE_CURVE('',#127,#128,#74,.T.);
#154=EDGE_CURVE('',#128,#128,#116,.T.);
#155=EDGE_CURVE('',#129,#130,#75,.T.);
#156=EDGE_CURVE('',#130,#131,#76,.T.);
#157=EDGE_CURVE('',#132,#131,#77,.T.);
#158=EDGE_CURVE('',#129,#132,#78,.T.);
#159=EDGE_CURVE('',#133,#129,#79,.T.);
#160=EDGE_CURVE('',#134,#132,#80,.T.);
#161=EDGE_CURVE('',#133,#134,#81,.T.);
#162=EDGE_CURVE('',#135,#133,#82,.T.);
#163=EDGE_CURVE('',#136,#134,#83,.T.);
#164=EDGE_CURVE('',#135,#136,#84,.T.);
#165=EDGE_CURVE('',#130,#135,#85,.T.);
#166=EDGE_CURVE('',#131,#136,#86,.T.);
#167=ORIENTED_EDGE('',*,*,#137,.F.);
#168=ORIENTED_EDGE('',*,*,#138,.T.);
#169=ORIENTED_EDGE('',*,*,#139,.T.);
#170=ORIENTED_EDGE('',*,*,#138,.F.);
#171=ORIENTED_EDGE('',*,*,#140,.F.);
#172=ORIENTED_EDGE('',*,*,#141,.T.);
#173=ORIENTED_EDGE('',*,*,#142,.T.);
#174=ORIENTED_EDGE('',*,*,#141,.F.);
#175=ORIENTED_EDGE('',*,*,#143,.F.);
#176=ORIENTED_EDGE('',*,*,#144,.T.);
#177=ORIENTED_EDGE('',*,*,#145,.T.);
#178=ORIENTED_EDGE('',*,*,#144,.F.);
#179=ORIENTED_EDGE('',*,*,#146,.F.);
#180=ORIENTED_EDGE('',*,*,#147,.T.);
#181=ORIENTED_EDGE('',*,*,#148,.T.);
#182=ORIENTED_EDGE('',*,*,#147,.F.);
#183=ORIENTED_EDGE('',*,*,#149,.F.);
#184=ORIENTED_EDGE('',*,*,#150,.T.);
#185=ORIENTED_EDGE('',*,*,#151,.T.);
#186=ORIENTED_EDGE('',*,*,#150,.F.);
#187=ORIENTED_EDGE('',*,*,#152,.F.);
#188=ORIENTED_EDGE('',*,*,#153,.T.);
#189=ORIENTED_EDGE('',*,*,#154,.T.);
#190=ORIENTED_EDGE('',*,*,#153,.F.);
#191=ORIENTED_EDGE('',*,*,#155,.T.);
#192=ORIENTED_EDGE('',*,*,#156,.T.);
#193=ORIENTED_EDGE('',*,*,#157,.F.);
#194=ORIENTED_EDGE('',*,*,#158,.F.);
#195=ORIENTED_EDGE('',*,*,#159,.T.);
#196=ORIENTED_EDGE('',*,*,#158,.T.);
#197=ORIENTED_EDGE('',*,*,#160,.F.);
#198=ORIENTED_EDGE('',*,*,#161,.F.);
#199=ORIENTED_EDGE('',*,*,#162,.T.);
#200=ORIENTED_EDGE('',*,*,#161,.T.);
#201=ORIENTED_EDGE('',*,*,#163,.F.);
#202=ORIENTED_EDGE('',*,*,#164,.F.);
#203=ORIENTED_EDGE('',*,*,#165,.T.);
#204=ORIENTED_EDGE('',*,*,#164,.T.);
#205=ORIENTED_EDGE('',*,*,#166,.F.);
#206=ORIENTED_EDGE('',*,*,#156,.F.);
#207=ORIENTED_EDGE('',*,*,#166,.T.);
#208=ORIENTED_EDGE('',*,*,#163,.T.);
#209=ORIENTED_EDGE('',*,*,#160,.T.);
#210=ORIENTED_EDGE('',*,*,#157,.T.);
#211=ORIENTED_EDGE('',*,*,#152,.T.);
#212=ORIENTED_EDGE('',*,*,#149,.T.);
#213=ORIENTED_EDGE('',*,*,#146,.T.);
#214=ORIENTED_EDGE('',*,*,#143,.T.);
#215=ORIENTED_EDGE('',*,*,#140,.T.);
#216=ORIENTED_EDGE('',*,*,#137,.T.);
#217=ORIENTED_EDGE('',*,*,#165,.F.);
#218=ORIENTED_EDGE('',*,*,#155,.F.);
#219=ORIENTED_EDGE('',*,*,#159,.F.);
#220=ORIENTED_EDGE('',*,*,#162,.F.);
#221=ORIENTED_EDGE('',*,*,#154,.F.);
#222=ORIENTED_EDGE('',*,*,#151,.F.);
#223=ORIENTED_EDGE('',*,*,#148,.F.);
#224=ORIENTED_EDGE('',*,*,#145,.F.);
#225=ORIENTED_EDGE('',*,*,#142,.F.);
#226=ORIENTED_EDGE('',*,*,#139,.F.);
#227=CYLINDRICAL_SURFACE('',#259,1.5);
#228=CYLINDRICAL_SURFACE('',#262,1.5);
#229=CYLINDRICAL_SURFACE('',#265,1.5);
#230=CYLINDRICAL_SURFACE('',#268,2.5);
#231=CYLINDRICAL_SURFACE('',#271,2.5);
#232=CYLINDRICAL_SURFACE('',#274,1.5);
#233=ADVANCED_FACE('',(#33),#227,.F.);
#234=ADVANCED_FACE('',(#34),#228,.F.);
#235=ADVANCED_FACE('',(#35),#229,.F.);
#236=ADVANCED_FACE('',(#36),#230,.F.);
#237=ADVANCED_FACE('',(#37),#231,.F.);
#238=ADVANCED_FACE('',(#38),#232,.F.);
#239=ADVANCED_FACE('',(#39),#27,.T.);
#240=ADVANCED_FACE('',(#40),#28,.T.);
#241=ADVANCED_FACE('',(#41),#29,.T.);
#242=ADVANCED_FACE('',(#42),#30,.T.);
#243=ADVANCED_FACE('',(#43,#15,#16,#17,#18,#19,#20),#31,.T.);
#244=ADVANCED_FACE('',(#44,#21,#22,#23,#24,#25,#26),#32,.F.);
#245=CLOSED_SHELL('',(#233,#234,#235,#236,#237,#238,#239,#240,#241,#242,
#243,#244));
#246=DERIVED_UNIT_ELEMENT(#248,1.);
#247=DERIVED_UNIT_ELEMENT(#419,3.);
#248=(
MASS_UNIT()
NAMED_UNIT(*)
SI_UNIT(.KILO.,.GRAM.)
);
#249=DERIVED_UNIT((#246,#247));
#250=MEASURE_REPRESENTATION_ITEM('density measure',
POSITIVE_RATIO_MEASURE(7850.),#249);
#251=PROPERTY_DEFINITION_REPRESENTATION(#256,#253);
#252=PROPERTY_DEFINITION_REPRESENTATION(#257,#254);
#253=REPRESENTATION('material name',(#255),#416);
#254=REPRESENTATION('density',(#250),#416);
#255=DESCRIPTIVE_REPRESENTATION_ITEM('Steel','Steel');
#256=PROPERTY_DEFINITION('material property','material name',#426);
#257=PROPERTY_DEFINITION('material property','density of part',#426);
#258=AXIS2_PLACEMENT_3D('placement',#351,#283,#284);
#259=AXIS2_PLACEMENT_3D('',#352,#285,#286);
#260=AXIS2_PLACEMENT_3D('',#354,#287,#288);
#261=AXIS2_PLACEMENT_3D('',#357,#290,#291);
#262=AXIS2_PLACEMENT_3D('',#358,#292,#293);
#263=AXIS2_PLACEMENT_3D('',#360,#294,#295);
#264=AXIS2_PLACEMENT_3D('',#363,#297,#298);
#265=AXIS2_PLACEMENT_3D('',#364,#299,#300);
#266=AXIS2_PLACEMENT_3D('',#366,#301,#302);
#267=AXIS2_PLACEMENT_3D('',#369,#304,#305);
#268=AXIS2_PLACEMENT_3D('',#370,#306,#307);
#269=AXIS2_PLACEMENT_3D('',#372,#308,#309);
#270=AXIS2_PLACEMENT_3D('',#375,#311,#312);
#271=AXIS2_PLACEMENT_3D('',#376,#313,#314);
#272=AXIS2_PLACEMENT_3D('',#378,#315,#316);
#273=AXIS2_PLACEMENT_3D('',#381,#318,#319);
#274=AXIS2_PLACEMENT_3D('',#382,#320,#321);
#275=AXIS2_PLACEMENT_3D('',#384,#322,#323);
#276=AXIS2_PLACEMENT_3D('',#387,#325,#326);
#277=AXIS2_PLACEMENT_3D('',#388,#327,#328);
#278=AXIS2_PLACEMENT_3D('',#397,#333,#334);
#279=AXIS2_PLACEMENT_3D('',#403,#338,#339);
#280=AXIS2_PLACEMENT_3D('',#409,#343,#344);
#281=AXIS2_PLACEMENT_3D('',#412,#347,#348);
#282=AXIS2_PLACEMENT_3D('',#413,#349,#350);
#283=DIRECTION('axis',(0.,0.,1.));
#284=DIRECTION('refdir',(1.,0.,0.));
#285=DIRECTION('center_axis',(0.,0.,1.));
#286=DIRECTION('ref_axis',(1.,0.,0.));
#287=DIRECTION('center_axis',(0.,0.,-1.));
#288=DIRECTION('ref_axis',(1.,0.,0.));
#289=DIRECTION('',(0.,0.,-1.));
#290=DIRECTION('center_axis',(0.,0.,-1.));
#291=DIRECTION('ref_axis',(1.,0.,0.));
#292=DIRECTION('center_axis',(0.,0.,1.));
#293=DIRECTION('ref_axis',(1.,0.,0.));
#294=DIRECTION('center_axis',(0.,0.,-1.));
#295=DIRECTION('ref_axis',(1.,0.,0.));
#296=DIRECTION('',(0.,0.,-1.));
#297=DIRECTION('center_axis',(0.,0.,-1.));
#298=DIRECTION('ref_axis',(1.,0.,0.));
#299=DIRECTION('center_axis',(0.,0.,1.));
#300=DIRECTION('ref_axis',(1.,0.,0.));
#301=DIRECTION('center_axis',(0.,0.,-1.));
#302=DIRECTION('ref_axis',(1.,0.,0.));
#303=DIRECTION('',(0.,0.,-1.));
#304=DIRECTION('center_axis',(0.,0.,-1.));
#305=DIRECTION('ref_axis',(1.,0.,0.));
#306=DIRECTION('center_axis',(0.,0.,1.));
#307=DIRECTION('ref_axis',(1.,0.,0.));
#308=DIRECTION('center_axis',(0.,0.,-1.));
#309=DIRECTION('ref_axis',(1.,0.,0.));
#310=DIRECTION('',(0.,0.,-1.));
#311=DIRECTION('center_axis',(0.,0.,-1.));
#312=DIRECTION('ref_axis',(1.,0.,0.));
#313=DIRECTION('center_axis',(0.,0.,1.));
#314=DIRECTION('ref_axis',(1.,0.,0.));
#315=DIRECTION('center_axis',(0.,0.,-1.));
#316=DIRECTION('ref_axis',(1.,0.,0.));
#317=DIRECTION('',(0.,0.,-1.));
#318=DIRECTION('center_axis',(0.,0.,-1.));
#319=DIRECTION('ref_axis',(1.,0.,0.));
#320=DIRECTION('center_axis',(0.,0.,1.));
#321=DIRECTION('ref_axis',(1.,0.,0.));
#322=DIRECTION('center_axis',(0.,0.,-1.));
#323=DIRECTION('ref_axis',(1.,0.,0.));
#324=DIRECTION('',(0.,0.,-1.));
#325=DIRECTION('center_axis',(0.,0.,-1.));
#326=DIRECTION('ref_axis',(1.,0.,0.));
#327=DIRECTION('center_axis',(0.,1.,0.));
#328=DIRECTION('ref_axis',(-1.,0.,0.));
#329=DIRECTION('',(-1.,0.,0.));
#330=DIRECTION('',(0.,0.,1.));
#331=DIRECTION('',(-1.,0.,0.));
#332=DIRECTION('',(0.,0.,1.));
#333=DIRECTION('center_axis',(1.,0.,0.));
#334=DIRECTION('ref_axis',(0.,1.,0.));
#335=DIRECTION('',(0.,1.,0.));
#336=DIRECTION('',(0.,1.,0.));
#337=DIRECTION('',(0.,0.,1.));
#338=DIRECTION('center_axis',(0.,-1.,0.));
#339=DIRECTION('ref_axis',(1.,0.,0.));
#340=DIRECTION('',(1.,0.,0.));
#341=DIRECTION('',(1.,0.,0.));
#342=DIRECTION('',(0.,0.,1.));
#343=DIRECTION('center_axis',(-1.,0.,0.));
#344=DIRECTION('ref_axis',(0.,-1.,0.));
#345=DIRECTION('',(0.,-1.,0.));
#346=DIRECTION('',(0.,-1.,0.));
#347=DIRECTION('center_axis',(0.,0.,1.));
#348=DIRECTION('ref_axis',(1.,0.,0.));
#349=DIRECTION('center_axis',(0.,0.,1.));
#350=DIRECTION('ref_axis',(1.,0.,0.));
#351=CARTESIAN_POINT('',(0.,0.,0.));
#352=CARTESIAN_POINT('Origin',(51.5,25.,0.));
#353=CARTESIAN_POINT('',(50.,25.,10.));
#354=CARTESIAN_POINT('Origin',(51.5,25.,10.));
#355=CARTESIAN_POINT('',(50.,25.,0.));
#356=CARTESIAN_POINT('',(50.,25.,0.));
#357=CARTESIAN_POINT('Origin',(51.5,25.,0.));
#358=CARTESIAN_POINT('Origin',(31.5,45.,0.));
#359=CARTESIAN_POINT('',(30.,45.,10.));
#360=CARTESIAN_POINT('Origin',(31.5,45.,10.));
#361=CARTESIAN_POINT('',(30.,45.,0.));
#362=CARTESIAN_POINT('',(30.,45.,0.));
#363=CARTESIAN_POINT('Origin',(31.5,45.,0.));
#364=CARTESIAN_POINT('Origin',(51.5,45.,0.));
#365=CARTESIAN_POINT('',(50.,45.,10.));
#366=CARTESIAN_POINT('Origin',(51.5,45.,10.));
#367=CARTESIAN_POINT('',(50.,45.,0.));
#368=CARTESIAN_POINT('',(50.,45.,0.));
#369=CARTESIAN_POINT('Origin',(51.5,45.,0.));
#370=CARTESIAN_POINT('Origin',(5.,17.5,0.));
#371=CARTESIAN_POINT('',(2.5,17.5,10.));
#372=CARTESIAN_POINT('Origin',(5.,17.5,10.));
#373=CARTESIAN_POINT('',(2.5,17.5,0.));
#374=CARTESIAN_POINT('',(2.5,17.5,0.));
#375=CARTESIAN_POINT('Origin',(5.,17.5,0.));
#376=CARTESIAN_POINT('Origin',(5.,52.5,0.));
#377=CARTESIAN_POINT('',(2.5,52.5,10.));
#378=CARTESIAN_POINT('Origin',(5.,52.5,10.));
#379=CARTESIAN_POINT('',(2.5,52.5,0.));
#380=CARTESIAN_POINT('',(2.5,52.5,0.));
#381=CARTESIAN_POINT('Origin',(5.,52.5,0.));
#382=CARTESIAN_POINT('Origin',(31.5,25.,0.));
#383=CARTESIAN_POINT('',(30.,25.,10.));
#384=CARTESIAN_POINT('Origin',(31.5,25.,10.));
#385=CARTESIAN_POINT('',(30.,25.,0.));
#386=CARTESIAN_POINT('',(30.,25.,0.));
#387=CARTESIAN_POINT('Origin',(31.5,25.,0.));
#388=CARTESIAN_POINT('Origin',(61.,70.,0.));
#389=CARTESIAN_POINT('',(61.,70.,0.));
#390=CARTESIAN_POINT('',(0.,70.,0.));
#391=CARTESIAN_POINT('',(61.,70.,0.));
#392=CARTESIAN_POINT('',(0.,70.,10.));
#393=CARTESIAN_POINT('',(0.,70.,0.));
#394=CARTESIAN_POINT('',(61.,70.,10.));
#395=CARTESIAN_POINT('',(61.,70.,10.));
#396=CARTESIAN_POINT('',(61.,70.,0.));
#397=CARTESIAN_POINT('Origin',(61.,0.,0.));
#398=CARTESIAN_POINT('',(61.,0.,0.));
#399=CARTESIAN_POINT('',(61.,0.,0.));
#400=CARTESIAN_POINT('',(61.,0.,10.));
#401=CARTESIAN_POINT('',(61.,0.,10.));
#402=CARTESIAN_POINT('',(61.,0.,0.));
#403=CARTESIAN_POINT('Origin',(0.,0.,0.));
#404=CARTESIAN_POINT('',(0.,0.,0.));
#405=CARTESIAN_POINT('',(0.,0.,0.));
#406=CARTESIAN_POINT('',(0.,0.,10.));
#407=CARTESIAN_POINT('',(0.,0.,10.));
#408=CARTESIAN_POINT('',(0.,0.,0.));
#409=CARTESIAN_POINT('Origin',(0.,70.,0.));
#410=CARTESIAN_POINT('',(0.,70.,0.));
#411=CARTESIAN_POINT('',(0.,70.,10.));
#412=CARTESIAN_POINT('Origin',(30.5,35.,10.));
#413=CARTESIAN_POINT('Origin',(30.5,35.,0.));
#414=UNCERTAINTY_MEASURE_WITH_UNIT(LENGTH_MEASURE(0.01),#418,
'DISTANCE_ACCURACY_VALUE',
'Maximum model space distance between geometric entities at asserted c
onnectivities');
#415=UNCERTAINTY_MEASURE_WITH_UNIT(LENGTH_MEASURE(0.01),#418,
'DISTANCE_ACCURACY_VALUE',
'Maximum model space distance between geometric entities at asserted c
onnectivities');
#416=(
GEOMETRIC_REPRESENTATION_CONTEXT(3)
GLOBAL_UNCERTAINTY_ASSIGNED_CONTEXT((#414))
GLOBAL_UNIT_ASSIGNED_CONTEXT((#418,#420,#421))
REPRESENTATION_CONTEXT('','3D')
);
#417=(
GEOMETRIC_REPRESENTATION_CONTEXT(3)
GLOBAL_UNCERTAINTY_ASSIGNED_CONTEXT((#415))
GLOBAL_UNIT_ASSIGNED_CONTEXT((#418,#420,#421))
REPRESENTATION_CONTEXT('','3D')
);
#418=(
LENGTH_UNIT()
NAMED_UNIT(*)
SI_UNIT(.MILLI.,.METRE.)
);
#419=(
LENGTH_UNIT()
NAMED_UNIT(*)
SI_UNIT($,.METRE.)
);
#420=(
NAMED_UNIT(*)
PLANE_ANGLE_UNIT()
SI_UNIT($,.RADIAN.)
);
#421=(
NAMED_UNIT(*)
SI_UNIT($,.STERADIAN.)
SOLID_ANGLE_UNIT()
);
#422=SHAPE_DEFINITION_REPRESENTATION(#423,#424);
#423=PRODUCT_DEFINITION_SHAPE('',$,#426);
#424=SHAPE_REPRESENTATION('',(#258),#416);
#425=PRODUCT_DEFINITION_CONTEXT('part definition',#430,'design');
#426=PRODUCT_DEFINITION('Side Plate Y-Z MGN nut noHole',
'Side Plate Y-Z MGN nut noHole v12',#427,#425);
#427=PRODUCT_DEFINITION_FORMATION('',$,#432);
#428=PRODUCT_RELATED_PRODUCT_CATEGORY(
'Side Plate Y-Z MGN nut noHole v12','Side Plate Y-Z MGN nut noHole v12',
(#432));
#429=APPLICATION_PROTOCOL_DEFINITION('international standard',
'automotive_design',2009,#430);
#430=APPLICATION_CONTEXT(
'Core Data for Automotive Mechanical Design Process');
#431=PRODUCT_CONTEXT('part definition',#430,'mechanical');
#432=PRODUCT('Side Plate Y-Z MGN nut noHole',
'Side Plate Y-Z MGN nut noHole v12',$,(#431));
#433=PRESENTATION_STYLE_ASSIGNMENT((#435));
#434=PRESENTATION_STYLE_ASSIGNMENT((#436));
#435=SURFACE_STYLE_USAGE(.BOTH.,#437);
#436=SURFACE_STYLE_USAGE(.BOTH.,#438);
#437=SURFACE_SIDE_STYLE('',(#439));
#438=SURFACE_SIDE_STYLE('',(#440));
#439=SURFACE_STYLE_FILL_AREA(#441);
#440=SURFACE_STYLE_FILL_AREA(#442);
#441=FILL_AREA_STYLE('Steel - Satin',(#443));
#442=FILL_AREA_STYLE('Aluminum - Bead Blasted',(#444));
#443=FILL_AREA_STYLE_COLOUR('Steel - Satin',#445);
#444=FILL_AREA_STYLE_COLOUR('Aluminum - Bead Blasted',#446);
#445=COLOUR_RGB('Steel - Satin',0.627450980392157,0.627450980392157,0.627450980392157);
#446=COLOUR_RGB('Aluminum - Bead Blasted',0.96078431372549,0.96078431372549,
0.964705882352941);
ENDSEC;
END-ISO-10303-21;
