  0
SECTION
  2
HEADER
  9
$ACADVER
  1
AC1015
  9
$ACADMAINTVER
 70
     6
  9
$DWGCODEPAGE
  3
ANSI_1252
  9
$INSBASE
 10
0.0
 20
0.0
 30
0.0
  9
$EXTMIN
 10
-32.4478445197
 20
-11.171258541
 30
0.0
  9
$EXTMAX
 10
33.5636521615
 20
10.3633650481
 30
0.0
  9
$LIMMIN
 10
0.0
 20
0.0
  9
$LIMMAX
 10
420.0
 20
297.0
  9
$ORTHOMODE
 70
     0
  9
$REGENMODE
 70
     1
  9
$FILLMODE
 70
     1
  9
$QTEXTMODE
 70
     0
  9
$MIRRTEXT
 70
     1
  9
$LTSCALE
 40
1.0
  9
$ATTMODE
 70
     1
  9
$TEXTSIZE
 40
3.5
  9
$TRACEWID
 40
1.0
  9
$TEXTSTYLE
  7
Standard
  9
$CLAYER
  8
0
  9
$CELTYPE
  6
ByLayer
  9
$CECOLOR
 62
   256
  9
$CELTSCALE
 40
1.0
  9
$DISPSILH
 70
     0
  9
$DIMSCALE
 40
1.0
  9
$DIMASZ
 40
3.302
  9
$DIMEXO
 40
1.0
  9
$DIMDLI
 40
3.75
  9
$DIMRND
 40
0.0
  9
$DIMDLE
 40
0.0
  9
$DIMEXE
 40
1.0
  9
$DIMTP
 40
0.0
  9
$DIMTM
 40
0.0
  9
$DIMTXT
 40
3.5
  9
$DIMCEN
 40
2.5
  9
$DIMTSZ
 40
0.0
  9
$DIMTOL
 70
     0
  9
$DIMLIM
 70
     0
  9
$DIMTIH
 70
     1
  9
$DIMTOH
 70
     1
  9
$DIMSE1
 70
     0
  9
$DIMSE2
 70
     0
  9
$DIMTAD
 70
     1
  9
$DIMZIN
 70
     0
  9
$DIMBLK
  1

  9
$DIMASO
 70
     1
  9
$DIMSHO
 70
     1
  9
$DIMPOST
  1

  9
$DIMAPOST
  1

  9
$DIMALT
 70
     0
  9
$DIMALTD
 70
     3
  9
$DIMALTF
 40
0.0393700787
  9
$DIMLFAC
 40
1.0
  9
$DIMTOFL
 70
     1
  9
$DIMTVP
 40
0.0
  9
$DIMTIX
 70
     0
  9
$DIMSOXD
 70
     0
  9
$DIMSAH
 70
     0
  9
$DIMBLK1
  1

  9
$DIMBLK2
  1

  9
$DIMSTYLE
  2
ISO-25
  9
$DIMCLRD
 70
     0
  9
$DIMCLRE
 70
     0
  9
$DIMCLRT
 70
     0
  9
$DIMTFAC
 40
1.0
  9
$DIMGAP
 40
1.524
  9
$DIMJUST
 70
     0
  9
$DIMSD1
 70
     0
  9
$DIMSD2
 70
     0
  9
$DIMTOLJ
 70
     0
  9
$DIMTZIN
 70
     0
  9
$DIMALTZ
 70
     0
  9
$DIMALTTZ
 70
     0
  9
$DIMUPT
 70
     0
  9
$DIMDEC
 70
     2
  9
$DIMTDEC
 70
     2
  9
$DIMALTU
 70
     2
  9
$DIMALTTD
 70
     3
  9
$DIMTXSTY
  7
Standard
  9
$DIMAUNIT
 70
     0
  9
$DIMADEC
 70
     2
  9
$DIMALTRND
 40
0.0
  9
$DIMAZIN
 70
     0
  9
$DIMDSEP
 70
    44
  9
$DIMATFIT
 70
     3
  9
$DIMFRAC
 70
     0
  9
$DIMLDRBLK
  1

  9
$DIMLUNIT
 70
     2
  9
$DIMLWD
 70
    -2
  9
$DIMLWE
 70
    -2
  9
$DIMTMOVE
 70
     0
  9
$LUNITS
 70
     2
  9
$LUPREC
 70
     2
  9
$SKETCHINC
 40
1.0
  9
$FILLETRAD
 40
10.0
  9
$AUNITS
 70
     0
  9
$AUPREC
 70
     2
  9
$MENU
  1
.
  9
$ELEVATION
 40
0.0
  9
$PELEVATION
 40
0.0
  9
$THICKNESS
 40
0.0
  9
$LIMCHECK
 70
     0
  9
$CHAMFERA
 40
0.0
  9
$CHAMFERB
 40
0.0
  9
$CHAMFERC
 40
0.0
  9
$CHAMFERD
 40
0.0
  9
$SKPOLY
 70
     0
  9
$TDCREATE
 40
2458972.918355637
  9
$TDUCREATE
 40
2458972.835022303
  9
$TDUPDATE
 40
2458972.918382581
  9
$TDUUPDATE
 40
2458972.835049248
  9
$TDINDWG
 40
0.0000000116
  9
$TDUSRTIMER
 40
0.0000000116
  9
$USRTIMER
 70
     1
  9
$ANGBASE
 50
0.0
  9
$ANGDIR
 70
     0
  9
$PDMODE
 70
     0
  9
$PDSIZE
 40
-1.0
  9
$PLINEWID
 40
0.0
  9
$SPLFRAME
 70
     0
  9
$SPLINETYPE
 70
     6
  9
$SPLINESEGS
 70
     8
  9
$HANDSEED
  5
A7
  9
$SURFTAB1
 70
     6
  9
$SURFTAB2
 70
     6
  9
$SURFTYPE
 70
     6
  9
$SURFU
 70
     6
  9
$SURFV
 70
     6
  9
$UCSBASE
  2

  9
$UCSNAME
  2

  9
$UCSORG
 10
0.0
 20
0.0
 30
0.0
  9
$UCSXDIR
 10
1.0
 20
0.0
 30
0.0
  9
$UCSYDIR
 10
0.0
 20
1.0
 30
0.0
  9
$UCSORTHOREF
  2

  9
$UCSORTHOVIEW
 70
     0
  9
$UCSORGTOP
 10
0.0
 20
0.0
 30
0.0
  9
$UCSORGBOTTOM
 10
0.0
 20
0.0
 30
0.0
  9
$UCSORGLEFT
 10
0.0
 20
0.0
 30
0.0
  9
$UCSORGRIGHT
 10
0.0
 20
0.0
 30
0.0
  9
$UCSORGFRONT
 10
0.0
 20
0.0
 30
0.0
  9
$UCSORGBACK
 10
0.0
 20
0.0
 30
0.0
  9
$PUCSBASE
  2

  9
$PUCSNAME
  2

  9
$PUCSORG
 10
0.0
 20
0.0
 30
0.0
  9
$PUCSXDIR
 10
1.0
 20
0.0
 30
0.0
  9
$PUCSYDIR
 10
0.0
 20
1.0
 30
0.0
  9
$PUCSORTHOREF
  2

  9
$PUCSORTHOVIEW
 70
     0
  9
$PUCSORGTOP
 10
0.0
 20
0.0
 30
0.0
  9
$PUCSORGBOTTOM
 10
0.0
 20
0.0
 30
0.0
  9
$PUCSORGLEFT
 10
0.0
 20
0.0
 30
0.0
  9
$PUCSORGRIGHT
 10
0.0
 20
0.0
 30
0.0
  9
$PUCSORGFRONT
 10
0.0
 20
0.0
 30
0.0
  9
$PUCSORGBACK
 10
0.0
 20
0.0
 30
0.0
  9
$USERI1
 70
     0
  9
$USERI2
 70
     0
  9
$USERI3
 70
     0
  9
$USERI4
 70
     0
  9
$USERI5
 70
     0
  9
$USERR1
 40
0.0
  9
$USERR2
 40
0.0
  9
$USERR3
 40
0.0
  9
$USERR4
 40
0.0
  9
$USERR5
 40
0.0
  9
$WORLDVIEW
 70
     1
  9
$SHADEDGE
 70
     3
  9
$SHADEDIF
 70
    70
  9
$TILEMODE
 70
     1
  9
$MAXACTVP
 70
    64
  9
$PINSBASE
 10
0.0
 20
0.0
 30
0.0
  9
$PLIMCHECK
 70
     0
  9
$PEXTMIN
 10
1.0000000000E+20
 20
1.0000000000E+20
 30
1.0000000000E+20
  9
$PEXTMAX
 10
-1.0000000000E+20
 20
-1.0000000000E+20
 30
-1.0000000000E+20
  9
$PLIMMIN
 10
0.0
 20
0.0
  9
$PLIMMAX
 10
420.0
 20
297.0
  9
$UNITMODE
 70
     0
  9
$VISRETAIN
 70
     1
  9
$PLINEGEN
 70
     0
  9
$PSLTSCALE
 70
     1
  9
$TREEDEPTH
 70
  3020
  9
$CMLSTYLE
  2
Standard
  9
$CMLJUST
 70
     0
  9
$CMLSCALE
 40
20.0
  9
$PROXYGRAPHICS
 70
     1
  9
$MEASUREMENT
 70
     1
  9
$CELWEIGHT
370
    -1
  9
$ENDCAPS
280
     0
  9
$JOINSTYLE
280
     0
  9
$LWDISPLAY
290
     1
  9
$INSUNITS
 70
     4
  9
$HYPERLINKBASE
  1

  9
$STYLESHEET
  1

  9
$XEDIT
290
     1
  9
$CEPSNTYPE
380
     0
  9
$PSTYLEMODE
290
     1
  9
$FINGERPRINTGUID
  2
{84099A82-A3D3-476C-8564-7323E28322C5}
  9
$VERSIONGUID
  2
{FAEB1C32-E019-11D5-929B-00C0DF256EC4}
  9
$EXTNAMES
290
     1
  9
$PSVPSCALE
 40
0.0
  9
$OLESTARTUP
290
     0
  0
ENDSEC
  0
SECTION
  2
CLASSES
  0
CLASS
  1
ACDBDICTIONARYWDFLT
  2
AcDbDictionaryWithDefault
  3
ObjectDBX Classes
 90
        0
280
     0
281
     0
  0
CLASS
  1
VISUALSTYLE
  2
AcDbVisualStyle
  3
ObjectDBX Classes
 90
     4095
280
     0
281
     0
  0
CLASS
  1
MATERIAL
  2
AcDbMaterial
  3
ObjectDBX Classes
 90
     1153
280
     0
281
     0
  0
CLASS
  1
SCALE
  2
AcDbScale
  3
ObjectDBX Classes
 90
     1153
280
     0
281
     0
  0
CLASS
  1
SUN
  2
AcDbSun
  3
SCENEOE
 90
     1153
280
     0
281
     0
  0
CLASS
  1
ACDBPLACEHOLDER
  2
AcDbPlaceHolder
  3
ObjectDBX Classes
 90
        0
280
     0
281
     0
  0
CLASS
  1
LAYOUT
  2
AcDbLayout
  3
ObjectDBX Classes
 90
        0
280
     0
281
     0
  0
ENDSEC
  0
SECTION
  2
TABLES
  0
TABLE
  2
VPORT
  5
8
330
0
100
AcDbSymbolTable
 70
     1
  0
VPORT
  5
29
330
8
100
AcDbSymbolTableRecord
100
AcDbViewportTableRecord
  2
*Active
 70
     0
 10
0.0
 20
0.0
 11
1.0
 21
1.0
 12
0.5579038209
 22
-0.4039467465
 13
0.0
 23
0.0
 14
10.0
 24
10.0
 15
10.0
 25
10.0
 16
0.0
 26
0.0
 36
1.0
 17
0.0
 27
0.0
 37
0.0
 40
21.9653160608
 41
3.0653657078
 42
50.0
 43
0.0
 44
0.0
 50
0.0
 51
0.0
 71
     0
 72
   100
 73
     1
 74
     3
 75
     0
 76
     0
 77
     0
 78
     0
281
     0
 65
     1
110
0.0
120
0.0
130
0.0
111
1.0
121
0.0
131
0.0
112
0.0
122
1.0
132
0.0
 79
     0
146
0.0
  0
ENDTAB
  0
TABLE
  2
LTYPE
  5
5
330
0
100
AcDbSymbolTable
 70
     6
  0
LTYPE
  5
14
330
5
100
AcDbSymbolTableRecord
100
AcDbLinetypeTableRecord
  2
ByBlock
 70
     0
  3

 72
    65
 73
     0
 40
0.0
  0
LTYPE
  5
15
330
5
100
AcDbSymbolTableRecord
100
AcDbLinetypeTableRecord
  2
ByLayer
 70
     0
  3

 72
    65
 73
     0
 40
0.0
  0
LTYPE
  5
16
330
5
100
AcDbSymbolTableRecord
100
AcDbLinetypeTableRecord
  2
Continuous
 70
     0
  3
Solid line
 72
    65
 73
     0
 40
0.0
  0
LTYPE
  5
6A
330
5
100
AcDbSymbolTableRecord
100
AcDbLinetypeTableRecord
  2
HIDDEN
 70
     0
  3
Hidden __ __ __ __ __ __ __ __ __ __ __ __ __ __
 72
    65
 73
     2
 40
1.905
 49
1.27
 74
     0
 49
-0.635
 74
     0
  0
LTYPE
  5
6B
330
5
100
AcDbSymbolTableRecord
100
AcDbLinetypeTableRecord
  2
PHANTOM
 70
     0
  3
Phantom ______  __  __  ______  __  __  ______
 72
    65
 73
     6
 40
12.7
 49
6.35
 74
     0
 49
-1.27
 74
     0
 49
1.27
 74
     0
 49
-1.27
 74
     0
 49
1.27
 74
     0
 49
-1.27
 74
     0
  0
LTYPE
  5
6C
330
5
100
AcDbSymbolTableRecord
100
AcDbLinetypeTableRecord
  2
CENTER
 70
     0
  3
Center ____ _ ____ _ ____ _ ____ _ ____ _ ____
 72
    65
 73
     4
 40
10.16
 49
6.35
 74
     0
 49
-1.27
 74
     0
 49
1.27
 74
     0
 49
-1.27
 74
     0
  0
LTYPE
  5
6D
330
5
100
AcDbSymbolTableRecord
100
AcDbLinetypeTableRecord
  2
CENTERX2
 70
     0
  3
Center (2x) ________  __  ________  __  _____
 72
    65
 73
     4
 40
20.32
 49
12.7
 74
     0
 49
-2.54
 74
     0
 49
2.54
 74
     0
 49
-2.54
 74
     0
  0
LTYPE
  5
6E
330
5
100
AcDbSymbolTableRecord
100
AcDbLinetypeTableRecord
  2
DOT2
 70
     0
  3
Dot (.5x) ........................................
 72
    65
 73
     2
 40
0.635
 49
0.0
 74
     0
 49
-0.635
 74
     0
  0
ENDTAB
  0
TABLE
  2
LAYER
  5
2
330
0
100
AcDbSymbolTable
 70
     1
  0
LAYER
  5
10
330
2
100
AcDbSymbolTableRecord
100
AcDbLayerTableRecord
  2
0
 70
     0
 62
     7
  6
Continuous
370
    -3
390
F
  0
ENDTAB
  0
TABLE
  2
STYLE
  5
3
330
0
100
AcDbSymbolTable
 70
     1
  0
STYLE
  5
11
330
3
100
AcDbSymbolTableRecord
100
AcDbTextStyleTableRecord
  2
Standard
 70
     0
 40
0.0
 41
1.0
 50
0.0
 71
     0
 42
3.5
  3
txt
  4

  0
ENDTAB
  0
TABLE
  2
VIEW
  5
6
330
0
100
AcDbSymbolTable
 70
     0
  0
ENDTAB
  0
TABLE
  2
UCS
  5
7
330
0
100
AcDbSymbolTable
 70
     0
  0
ENDTAB
  0
TABLE
  2
APPID
  5
9
330
0
100
AcDbSymbolTable
 70
     1
  0
APPID
  5
12
330
9
100
AcDbSymbolTableRecord
100
AcDbRegAppTableRecord
  2
ACAD
 70
     0
  0
ENDTAB
  0
TABLE
  2
DIMSTYLE
  5
A
330
0
100
AcDbSymbolTable
 70
     1
100
AcDbDimStyleTable
  0
DIMSTYLE
105
27
330
A
100
AcDbSymbolTableRecord
100
AcDbDimStyleTableRecord
  2
ISO-25
 70
     0
 41
2.5
 42
0.625
 43
3.75
 44
1.25
 73
     0
 74
     0
 77
     1
 78
     8
140
2.5
141
2.5
143
0.0393700787
147
0.625
171
     3
172
     1
178
     0
271
     2
272
     2
274
     3
278
    44
283
     0
284
     8
340
11
  0
ENDTAB
  0
TABLE
  2
BLOCK_RECORD
  5
1
330
0
100
AcDbSymbolTable
 70
     1
  0
BLOCK_RECORD
  5
1F
330
1
100
AcDbSymbolTableRecord
100
AcDbBlockTableRecord
  2
*Model_Space
340
22
  0
BLOCK_RECORD
  5
1B
330
1
100
AcDbSymbolTableRecord
100
AcDbBlockTableRecord
  2
*Paper_Space
340
1E
  0
BLOCK_RECORD
  5
23
330
1
100
AcDbSymbolTableRecord
100
AcDbBlockTableRecord
  2
*Paper_Space0
340
26
  0
ENDTAB
  0
ENDSEC
  0
SECTION
  2
BLOCKS
  0
BLOCK
  5
20
330
1F
100
AcDbEntity
  8
0
100
AcDbBlockBegin
  2
*Model_Space
 70
     0
 10
0.0
 20
0.0
 30
0.0
  3
*Model_Space
  1
*Model_Space
  0
ENDBLK
  5
21
330
1F
100
AcDbEntity
  8
0
100
AcDbBlockEnd
  0
BLOCK
  5
1C
330
1B
100
AcDbEntity
 67
     1
  8
0
100
AcDbBlockBegin
  2
*Paper_Space
 70
     0
 10
0.0
 20
0.0
 30
0.0
  3
*Paper_Space
  1
*Paper_Space
  0
ENDBLK
  5
1D
330
1B
100
AcDbEntity
 67
     1
  8
0
100
AcDbBlockEnd
  0
BLOCK
  5
24
330
23
100
AcDbEntity
  8
0
100
AcDbBlockBegin
  2
*Paper_Space0
 70
     0
 10
0.0
 20
0.0
 30
0.0
  3
*Paper_Space0
  1
*Paper_Space0
  0
ENDBLK
  5
25
330
23
100
AcDbEntity
  8
0
100
AcDbBlockEnd
  0
ENDSEC
  0
SECTION
  2
ENTITIES
  0
LWPOLYLINE
  5
76
330
1F
100
AcDbEntity
  8
0
  6
Continuous
 62
     7
370
    15
100
AcDbPolyline
 90
       56
 70
   128
 43
0.0
 10
19.0294138097
 20
0.7182696166
 10
18.5061726646
 20
0.4640283946
 10
17.9410090861
 20
0.2087359989
 10
17.3352033517
 20
-0.0470292509
 10
16.690127806
 20
-0.3026879644
 10
16.0072437528
 20
-0.5576609922
 10
15.288098144
 20
-0.8113707385
 10
14.5343200758
 20
-1.0632424692
 10
13.7476170978
 20
-1.3127056137
 10
12.9297713454
 20
-1.5591950577
 10
12.0826355023
 20
-1.8021524235
 10
11.2081286035
 20
-2.0410273344
 10
10.3082316886
 20
-2.2752786619
 10
9.3849833134
 20
-2.5043757514
 10
8.4404749324
 20
-2.7277996244
 10
7.476846161
 20
-2.9450441539
 10
6.4962799283
 20
-3.1556172111
 10
5.5009975321
 20
-3.3590417804
 10
4.4932536071
 20
-3.5548570397
 10
3.4753310176
 20
-3.7426194044
 10
2.4495356855
 20
-3.9219035324
 10
1.4181913672
 20
-4.0923032875
 10
0.3836343894
 20
-4.2534326594
 10
-0.6517916438
 20
-4.4049266384
 10
-1.6857411592
 20
-4.5464420416
 10
-2.7158719287
 20
-4.6776582914
 10
-3.7398503747
 20
-4.7982781407
 10
-4.7553568568
 20
-4.9080283467
 10
-5.7600909262
 20
-5.0066602899
 10
-6.7517765369
 20
-5.0939505372
 10
-7.7281672022
 20
-5.1697013481
 10
-8.6870510832
 20
-5.2337411228
 10
-9.6262559994
 20
-5.2859247905
 10
-10.5436543496
 20
-5.3261341383
 10
-11.4371679315
 20
-5.3542780793
 10
-12.3047726495
 20
-5.3702928584
 10
-13.1445030998
 20
-5.3741421968
 10
-13.9544570228
 20
-5.3658173746
 10
-14.7327996125
 20
-5.3453372503
 10
-15.4777676724
 20
-5.3127482179
 10
-16.1876736105
 20
-5.2681241019
 10
-16.8609092612
 20
-5.2115659905
 10
-17.4959495295
 20
-5.1432020059
 10
-18.0913558448
 20
-5.0631870145
 10
-18.6457794203
 20
-4.9717022761
 10
-19.1579643083
 20
-4.8689550329
 10
-19.6267502453
 20
-4.7551780406
 10
-20.0510752804
 20
-4.6306290405
 10
-20.4299781808
 20
-4.4955901763
 10
-20.7626006097
 20
-4.3503673545
 10
-21.0481890702
 20
-4.1952895513
 10
-21.2860966127
 20
-4.030708068
 10
-21.4757843
 20
-3.8569957345
 10
-21.6168224286
 20
-3.6745460651
 10
-21.7088915016
 20
-3.483772367
 10
-21.745559509
 20
-3.3362616265
  0
LWPOLYLINE
  5
77
330
1F
100
AcDbEntity
  8
0
  6
Continuous
 62
     7
370
    15
100
AcDbPolyline
 90
       13
 70
   128
 43
0.0
 10
21.745559509
 20
3.3362616265
 10
21.7517829531
 20
3.285106804
 10
21.7453996201
 20
3.0789994174
 10
21.6897559628
 20
2.8659171069
 10
21.5849780322
 20
2.6463425724
 10
21.4313031838
 20
2.4207732208
 10
21.2290795408
 20
2.1897200392
 10
20.9787652045
 20
1.9537064375
 10
20.6809272176
 20
1.7132670623
 10
20.3362402788
 20
1.4689465861
 10
19.945485215
 20
1.2212984735
 10
19.509547212
 20
0.970883727
 10
19.0294138097
 20
0.7182696166
  0
LWPOLYLINE
  5
78
330
1F
100
AcDbEntity
  8
0
  6
Continuous
 62
     7
370
    15
100
AcDbPolyline
 90
       71
 70
   128
 43
0.0
 10
21.6243338746
 20
0.8162154735
 10
21.0691325406
 20
0.5457887289
 10
20.4721003941
 20
0.2742783713
 10
19.8344227873
 20
0.0022234594
 10
19.15736577
 20
-0.269835867
 10
18.4422735762
 20
-0.5413594592
 10
17.6905659554
 20
-0.8118082324
 10
16.9037353533
 20
-1.0806452354
 10
16.0833439494
 20
-1.3473367173
 10
15.2310205549
 20
-1.611353187
 10
14.3484573789
 20
-1.872170464
 10
13.4374066689
 20
-2.1292707198
 10
12.4996772318
 20
-2.3821435058
 10
11.5371308426
 20
-2.6302867663
 10
10.551678548
 20
-2.8732078359
 10
9.5452768723
 20
-3.1104244173
 10
8.519923933
 20
-3.3414655389
 10
7.4776554734
 20
-3.56587249
 10
6.420540821
 20
-3.7831997314
 10
5.3506787791
 20
-3.9930157799
 10
4.2701934598
 20
-4.1949040651
 10
3.1812300666
 20
-4.3884637567
 10
2.0859506356
 20
-4.5733105596
 10
0.9865297427
 20
-4.7490774778
 10
-0.1148498137
 20
-4.9154155422
 10
-1.2160013464
 20
-5.0719945041
 10
-2.314738621
 20
-5.2185034904
 10
-3.4088801964
 20
-5.354651621
 10
-4.4962537556
 20
-5.4801685865
 10
-5.5747004192
 20
-5.5948051845
 10
-6.6420790312
 20
-5.6983338148
 10
-7.69627041
 20
-5.7905489306
 10
-8.7351815564
 20
-5.8712674476
 10
-9.7567498083
 20
-5.9403291066
 10
-10.7589469366
 20
-5.9975967919
 10
-11.7397831717
 20
-6.042956804
 10
-12.697311154
 20
-6.0763190848
 10
-13.6296298003
 20
-6.0976173964
 10
-14.5348880782
 20
-6.1068094531
 10
-15.4112886813
 20
-6.1038770049
 10
-16.2570915972
 20
-6.0888258739
 10
-17.0706175626
 20
-6.0616859428
 10
-17.850251397
 20
-6.0225110953
 10
-18.5944452095
 20
-5.9713791095
 10
-19.3017214722
 20
-5.9083915033
 10
-19.9706759536
 20
-5.8336733326
 10
-20.5999805065
 20
-5.7473729435
 10
-21.1883857049
 20
-5.6496616774
 10
-21.7347233248
 20
-5.540733531
 10
-22.2379086633
 20
-5.420804771
 10
-22.6969426927
 20
-5.290113505
 10
-23.1109140433
 20
-5.1489192083
 10
-23.4790008132
 20
-4.9975022091
 10
-23.8004722004
 20
-4.8361631318
 10
-24.0746899531
 20
-4.6652223003
 10
-24.3011096374
 20
-4.4850191018
 10
-24.4792817179
 20
-4.295911313
 10
-24.6088524505
 20
-4.0982743899
 10
-24.6895645844
 20
-3.8925007224
 10
-24.7212578732
 20
-3.678998855
 10
-24.7038693928
 20
-3.4581926759
 10
-24.6374336665
 20
-3.2305205753
 10
-24.5220825961
 20
-2.9964345752
 10
-24.3580452006
 20
-2.7563994316
 10
-24.1456471611
 20
-2.5108917121
 10
-23.8853101741
 20
-2.2603988495
 10
-23.5775511148
 20
-2.0054181743
 10
-23.2229810101
 20
-1.7464559268
 10
-22.8223038263
 20
-1.4840262528
 10
-22.3763150707
 20
-1.218650182
 10
-22.0944683334
 20
-1.0620941741
  0
LWPOLYLINE
  5
79
330
1F
100
AcDbEntity
  8
0
  6
Continuous
 62
     7
370
    15
100
AcDbPolyline
 90
       25
 70
   128
 43
0.0
 10
21.3966506846
 20
5.6104290788
 10
21.4668827396
 20
5.5965867147
 10
21.9917745005
 20
5.4821298526
 10
22.4730036288
 20
5.3567887291
 10
22.9096146886
 20
5.2208121974
 10
23.300740829
 20
5.0744702263
 10
23.6456055053
 20
4.9180533644
 10
23.9435240207
 20
4.7518721627
 10
24.1939048854
 20
4.5762565587
 10
24.3962509914
 20
4.3915552209
 10
24.5501605993
 20
4.1981348568
 10
24.6553281359
 20
3.9963794844
 10
24.7115448006
 20
3.7866896705
 10
24.7186989805
 20
3.5694817348
 10
24.6767764717
 20
3.3451869235
 10
24.5858605074
 20
3.1142505532
 10
24.4461315928
 20
2.8771311268
 10
24.2578671468
 20
2.6342994227
 10
24.021440951
 20
2.3862375611
 10
23.7373224077
 20
2.1334380456
 10
23.406075608
 20
1.8764027863
 10
23.0283582117
 20
1.6156421031
 10
22.6049201419
 20
1.3516737119
 10
22.1366020954
 20
1.0850216978
 10
21.6243338746
 20
0.8162154735
  0
LWPOLYLINE
  5
7A
330
1F
100
AcDbEntity
  8
0
  6
Continuous
 62
     7
370
    15
100
AcDbPolyline
 90
       25
 70
   128
 43
0.0
 10
-11.5351023405
 20
-8.9615329182
 10
-12.4932099131
 20
-8.9920578975
 10
-13.4252589884
 20
-9.0103326249
 10
-14.3293725434
 20
-9.0163202973
 10
-15.203729814
 20
-9.0100088564
 10
-16.0465699607
 20
-8.9914110126
 10
-16.8561956159
 20
-8.9605642195
 10
-17.6309763011
 20
-8.9175305985
 10
-18.3693517112
 20
-8.8623968135
 10
-19.0698348564
 20
-8.7952738966
 10
-19.7310150567
 20
-8.7162970245
 10
-20.3515607834
 20
-8.625625246
 10
-20.9302223399
 20
-8.5234411621
 10
-21.4658343787
 20
-8.4099505579
 10
-21.9573182486
 20
-8.2853819883
 10
-22.4036841665
 20
-8.149986318
 10
-22.8040332108
 20
-8.0040362157
 10
-23.1575591317
 20
-7.8478256055
 10
-23.4635499752
 20
-7.6816690749
 10
-23.7213895164
 20
-7.5059012409
 10
-23.9305585008
 20
-7.3208760766
 10
-24.0906356898
 20
-7.1269661981
 10
-24.2012987094
 20
-6.924562114
 10
-24.2623246989
 20
-6.7140714392
 10
-24.2645400217
 20
-6.7003141547
  0
LWPOLYLINE
  5
7B
330
1F
100
AcDbEntity
  8
0
  6
Continuous
 62
     7
370
    15
100
AcDbPolyline
 90
       13
 70
   128
 43
0.0
 10
25.1571861351
 20
0.8820986327
 10
25.1662368736
 20
0.6777025519
 10
25.1277203182
 20
0.452325828
 10
25.0394987134
 20
0.2201796242
 10
24.9017497257
 20
-0.0182685479
 10
24.7147507633
 20
-0.2625384855
 10
24.4788784172
 20
-0.5121382614
 10
24.194607703
 20
-0.7665652149
 10
23.8625111039
 20
-1.0253069639
 10
23.4832574184
 20
-1.287842437
 10
23.0576104129
 20
-1.5536429228
 10
22.5864272839
 20
-1.8221731343
 10
22.0706569314
 20
-2.0928922875
  0
LWPOLYLINE
  5
7C
330
1F
100
AcDbEntity
  8
0
  6
Continuous
 62
     7
370
    15
100
AcDbPolyline
 90
       36
 70
   128
 43
0.0
 10
22.0706569314
 20
-2.0928922875
 10
21.5113380483
 20
-2.3652551901
 10
20.9095970283
 20
-2.6387133393
 10
20.266645698
 20
-2.912716027
 10
19.5837788755
 20
-3.1867114481
 10
18.8623717639
 20
-3.4601478122
 10
18.1038771811
 20
-3.7324744551
 10
17.3098226342
 20
-4.003142947
 10
16.4818072433
 20
-4.2716081977
 10
15.6214985214
 20
-4.5373295538
 10
14.7306290156
 20
-4.7997718878
 10
13.8109928186
 20
-5.058406676
 10
12.8644419553
 20
-5.3127130622
 10
11.8928826532
 20
-5.5621789071
 10
10.8982715034
 20
-5.8063018199
 10
9.8826115204
 20
-6.0445901694
 10
8.8479481082
 20
-6.2765640746
 10
7.7963649413
 20
-6.5017563709
 10
6.7299797682
 20
-6.7197135511
 10
5.6509401468
 20
-6.9299966783
 10
4.5614191191
 20
-7.1321822704
 10
3.4636108357
 20
-7.3258631524
 10
2.3597261362
 20
-7.5106492768
 10
1.2519880975
 20
-7.686168509
 10
0.1426275567
 20
-7.8520673766
 10
-0.9661213818
 20
-8.0080117814
 10
-2.0720258452
 20
-8.153687672
 10
-3.1728586891
 20
-8.2888016767
 10
-4.2664029825
 20
-8.4130816938
 10
-5.3504564729
 20
-8.5262774398
 10
-6.4228360208
 20
-8.6281609537
 10
-7.4813819965
 20
-8.7185270555
 10
-8.5239626292
 20
-8.79719376
 10
-9.5484783003
 20
-8.8640026429
 10
-10.5528657717
 20
-8.9188191601
 10
-11.5351023405
 20
-8.9615329182
  0
LWPOLYLINE
  5
83
330
1F
100
AcDbEntity
  8
0
  6
Continuous
 62
     7
370
    15
100
AcDbPolyline
 90
       26
 70
   128
 43
0.0
 10
8.3558187346
 20
-7.605925694
 10
8.5399522278
 20
-7.5933454508
 10
8.7366067211
 20
-7.5693861944
 10
8.9334256895
 20
-7.5355533728
 10
9.1180422734
 20
-7.4939728268
 10
9.2788563338
 20
-7.447257215
 10
9.4057633318
 20
-7.398341851
 10
9.4907892341
 20
-7.3503002671
 10
9.5285915504
 20
-7.3061510926
 10
9.5167950224
 20
-7.2686683827
 10
9.4561408691
 20
-7.2402073137
 10
9.350440214
 20
-7.2225561994
 10
9.2063346182
 20
-7.2168241242
 10
9.0328787662
 20
-7.2233712553
 10
8.840971527
 20
-7.2417862126
 10
8.6426711384
 20
-7.2709119165
 10
8.4504375429
 20
-7.3089182919
 10
8.2763494844
 20
-7.3534172585
 10
8.131345556
 20
-7.4016127825
 10
8.0245368875
 20
-7.4504765619
 10
7.9626346607
 20
-7.4969383058
 10
7.9495284199
 20
-7.5380786519
 10
7.9860416785
 20
-7.571312601
 10
8.0698801743
 20
-7.5945519418
 10
8.1957760261
 20
-7.606336461
 10
8.3558187346
 20
-7.605925694
  0
LWPOLYLINE
  5
8A
330
1F
100
AcDbEntity
  8
0
  6
Continuous
 62
     7
370
    15
100
AcDbPolyline
 90
       67
 70
   128
 43
0.0
 10
18.3599292246
 20
5.0819312581
 10
17.8366880795
 20
4.827690036
 10
17.271524501
 20
4.5723976404
 10
16.6657187666
 20
4.3166323906
 10
16.020643221
 20
4.0609736771
 10
15.3377591677
 20
3.8060006493
 10
14.6186135589
 20
3.5522909029
 10
13.8648354907
 20
3.3004191723
 10
13.0781325127
 20
3.0509560278
 10
12.2602867603
 20
2.8044665837
 10
11.4131509172
 20
2.561509218
 10
10.5386440184
 20
2.3226343071
 10
9.6387471035
 20
2.0883829796
 10
8.7154987283
 20
1.85928589
 10
7.7709903474
 20
1.6358620171
 10
6.807361576
 20
1.4186174876
 10
5.8267953432
 20
1.2080444304
 10
4.831512947
 20
1.0046198611
 10
3.823769022
 20
0.8088046018
 10
2.8058464325
 20
0.6210422371
 10
1.7800511004
 20
0.4417581091
 10
0.7487067821
 20
0.271358354
 10
-0.2858501957
 20
0.110228982
 10
-1.3212762288
 20
-0.0412649969
 10
-2.3552257443
 20
-0.1827804002
 10
-3.3853565138
 20
-0.3139966499
 10
-4.4093349598
 20
-0.4346164992
 10
-5.4248414419
 20
-0.5443667052
 10
-6.4295755113
 20
-0.6429986484
 10
-7.421261122
 20
-0.7302888957
 10
-8.3976517873
 20
-0.8060397067
 10
-9.3565356683
 20
-0.8700794813
 10
-10.2957405845
 20
-0.922263149
 10
-11.2131389347
 20
-0.9624724969
 10
-12.1066525166
 20
-0.9906164379
 10
-12.9742572346
 20
-1.0066312169
 10
-13.8139876848
 20
-1.0104805553
 10
-14.6239416079
 20
-1.0021557332
 10
-15.4022841976
 20
-0.9816756088
 10
-16.1472522575
 20
-0.9490865764
 10
-16.8571581955
 20
-0.9044624605
 10
-17.5303938463
 20
-0.847904349
 10
-18.1654341146
 20
-0.7795403644
 10
-18.7608404299
 20
-0.6995253731
 10
-19.3152640054
 20
-0.6080406346
 10
-19.8274488934
 20
-0.5052933914
 10
-20.2962348304
 20
-0.3915163991
 10
-20.7205598654
 20
-0.266967399
 10
-21.0994627659
 20
-0.1319285348
 10
-21.4320851948
 20
0.013294287
 10
-21.7176736553
 20
0.1683720902
 10
-21.9555811978
 20
0.3329535735
 10
-22.1452688851
 20
0.506665907
 10
-22.2863070137
 20
0.6891155764
 10
-22.3783760867
 20
0.8798892745
 10
-22.4212675382
 20
1.0785548375
 10
-22.4148842052
 20
1.2846622241
 10
-22.3592405479
 20
1.4977445346
 10
-22.2544626173
 20
1.7173190691
 10
-22.1007877689
 20
1.9428884207
 10
-21.8985641258
 20
2.1739416023
 10
-21.6482497896
 20
2.409955204
 10
-21.3504118027
 20
2.6503945792
 10
-21.0057248639
 20
2.8947150554
 10
-20.6149698001
 20
3.142363168
 10
-20.1790317971
 20
3.3927779145
 10
-20.1233130482
 20
3.423212623
  0
LWPOLYLINE
  5
8B
330
1F
100
AcDbEntity
  8
0
  6
Continuous
 62
     7
370
    15
100
AcDbPolyline
 90
       23
 70
   128
 43
0.0
 10
18.171512993
 20
9.2985067749
 10
18.4884797232
 20
9.2326166744
 10
18.9572656602
 20
9.118839682
 10
19.3815906953
 20
8.994290682
 10
19.7604935957
 20
8.8592518178
 10
20.0931160246
 20
8.7140289959
 10
20.3787044851
 20
8.5589511928
 10
20.6166120276
 20
8.3943697095
 10
20.8062997149
 20
8.2206573759
 10
20.9473378435
 20
8.0382077065
 10
21.0394069165
 20
7.8474340084
 10
21.082298368
 20
7.6487684454
 10
21.075915035
 20
7.4426610589
 10
21.0202713778
 20
7.2295787484
 10
20.9154934471
 20
7.0100042139
 10
20.7618185988
 20
6.7844348623
 10
20.5595949557
 20
6.5533816807
 10
20.3092806194
 20
6.3173680789
 10
20.0114426325
 20
6.0769287037
 10
19.6667556937
 20
5.8326082276
 10
19.2760006299
 20
5.584960115
 10
18.8400626269
 20
5.3345453685
 10
18.3599292246
 20
5.0819312581
  0
LWPOLYLINE
  5
8C
330
1F
100
AcDbEntity
  8
0
  6
Continuous
 62
     7
370
    15
100
AcDbPolyline
 90
       11
 70
   128
 43
0.0
 10
-32.2009221834
 20
-9.2935543791
 10
-32.3295682985
 20
-9.3684950931
 10
-32.4124496899
 20
-9.4399826832
 10
-32.4475255428
 20
-9.5062568879
 10
-32.4339321731
 20
-9.5656858162
 10
-32.3720042949
 20
-9.6168061306
 10
-32.2632667778
 20
-9.6583590794
 10
-32.1103971006
 20
-9.689321491
 10
-31.917159422
 20
-9.7089309682
 10
-31.688311895
 20
-9.7167046605
 10
-31.4294895052
 20
-9.7124511538
  0
LWPOLYLINE
  5
8E
330
1F
100
AcDbEntity
  8
0
  6
Continuous
 62
     7
370
    15
100
AcDbPolyline
 90
       26
 70
   128
 43
0.0
 10
-28.8380355298
 20
-9.0098163084
 10
-28.6539020366
 20
-8.9972360652
 10
-28.4572475433
 20
-8.9732768087
 10
-28.2604285749
 20
-8.9394439872
 10
-28.075811991
 20
-8.8978634412
 10
-27.9149979306
 20
-8.8511478293
 10
-27.7880909326
 20
-8.8022324653
 10
-27.7030650303
 20
-8.7541908814
 10
-27.6652627139
 20
-8.710041707
 10
-27.677059242
 20
-8.672558997
 10
-27.7377133953
 20
-8.6440979281
 10
-27.8434140503
 20
-8.6264468138
 10
-27.9875196461
 20
-8.6207147385
 10
-28.1609754982
 20
-8.6272618697
 10
-28.3528827374
 20
-8.645676827
 10
-28.551183126
 20
-8.6748025308
 10
-28.7434167215
 20
-8.7128089062
 10
-28.9175047799
 20
-8.7573078728
 10
-29.0625087084
 20
-8.8055033968
 10
-29.1693173768
 20
-8.8543671763
 10
-29.2312196037
 20
-8.9008289202
 10
-29.2443258445
 20
-8.9419692663
 10
-29.2078125858
 20
-8.9752032153
 10
-29.1239740901
 20
-8.9984425561
 10
-28.9980782383
 20
-9.0102270754
 10
-28.8380355298
 20
-9.0098163084
  0
LWPOLYLINE
  5
90
330
1F
100
AcDbEntity
  8
0
  6
Continuous
 62
     7
370
    15
100
AcDbPolyline
 90
       11
 70
   128
 43
0.0
 10
33.0935682968
 20
3.4753388571
 10
33.222214412
 20
3.5502795711
 10
33.3050958034
 20
3.6217671613
 10
33.3401716562
 20
3.6880413659
 10
33.3265782866
 20
3.7474702942
 10
33.2646504083
 20
3.7985906086
 10
33.1559128913
 20
3.8401435574
 10
33.0030432141
 20
3.8711059691
 10
32.8098055355
 20
3.8907154462
 10
32.5809580085
 20
3.8984891385
 10
32.3221356186
 20
3.8942356318
  0
LWPOLYLINE
  5
91
330
1F
100
AcDbEntity
  8
0
  6
Continuous
 62
     7
370
    15
100
AcDbPolyline
 90
       26
 70
   128
 43
0.0
 10
28.9638704178
 20
2.8042455764
 10
29.148003911
 20
2.8168258195
 10
29.3446584044
 20
2.840785076
 10
29.5414773728
 20
2.8746178976
 10
29.7260939567
 20
2.9161984436
 10
29.886908017
 20
2.9629140554
 10
30.0138150151
 20
3.0118294194
 10
30.0988409173
 20
3.0598710033
 10
30.1366432337
 20
3.1040201778
 10
30.1248467056
 20
3.1415028877
 10
30.0641925523
 20
3.1699639567
 10
29.9584918973
 20
3.187615071
 10
29.8143863015
 20
3.1933471462
 10
29.6409304495
 20
3.1868000151
 10
29.4490232103
 20
3.1683850578
 10
29.2507228216
 20
3.1392593539
 10
29.0584892262
 20
3.1012529785
 10
28.8844011677
 20
3.0567540119
 10
28.7393972392
 20
3.0085584879
 10
28.6325885708
 20
2.9596947085
 10
28.5706863439
 20
2.9132329646
 10
28.5575801032
 20
2.8720926185
 10
28.5940933618
 20
2.8388586694
 10
28.6779318576
 20
2.8156193286
 10
28.8038277094
 20
2.8038348094
 10
28.9638704178
 20
2.8042455764
  0
LWPOLYLINE
  5
92
330
1F
100
AcDbEntity
  8
0
  6
Continuous
 62
     7
370
    15
100
AcDbPolyline
 90
        8
 70
   128
 43
0.0
 10
-31.2063279768
 20
-11.1670050343
 10
-31.4651503667
 20
-11.171258541
 10
-31.6939978937
 20
-11.1634848487
 10
-31.8872355723
 20
-11.1438753715
 10
-32.0401052495
 20
-11.1129129599
 10
-32.1488427665
 20
-11.0713600111
 10
-32.2107706448
 20
-11.0202396967
 10
-32.2246829913
 20
-10.9861075332
  0
LWPOLYLINE
  5
93
330
1F
100
AcDbEntity
  8
0
  6
Continuous
 62
     7
370
    15
100
AcDbPolyline
 90
        5
 70
   128
 43
0.0
 10
33.5636521615
 20
2.2587842502
 10
33.5633331846
 20
2.2334874854
 10
33.5282573318
 20
2.1672132808
 10
33.4453759403
 20
2.0957256906
 10
33.3167298252
 20
2.0207849766
  0
LINE
  5
94
330
1F
100
AcDbEntity
  8
0
  6
Continuous
 62
     7
370
    15
100
AcDbLine
 10
-24.7108630784
 20
-3.7912063937
 30
0.0
 11
-24.2645400217
 21
-6.7003141547
 31
0.0
  0
LINE
  5
95
330
1F
100
AcDbEntity
  8
0
  6
Continuous
 62
     7
370
    15
100
AcDbLine
 10
25.1571861351
 20
0.8820986327
 30
0.0
 11
24.7108630784
 21
3.7912063937
 31
0.0
  0
LINE
  5
96
330
1F
100
AcDbEntity
  8
0
  6
Continuous
 62
     7
370
    15
100
AcDbLine
 10
21.745559509
 20
3.3362616265
 30
0.0
 11
21.0760749239
 21
7.699923268
 31
0.0
  0
LINE
  5
97
330
1F
100
AcDbEntity
  8
0
  6
Continuous
 62
     7
370
    15
100
AcDbLine
 10
-22.4150440941
 20
1.027400015
 30
0.0
 11
-21.745559509
 21
-3.3362616265
 31
0.0
  0
LINE
  5
98
330
1F
100
AcDbEntity
  8
0
  6
Continuous
 62
     7
370
    15
100
AcDbLine
 10
-32.4478445197
 20
-9.5315536527
 30
0.0
 11
-32.2246829913
 21
-10.9861075332
 31
0.0
  0
LINE
  5
99
330
1F
100
AcDbEntity
  8
0
  6
Continuous
 62
     7
370
    15
100
AcDbLine
 10
33.5636521615
 20
2.2587842502
 30
0.0
 11
33.3404906331
 21
3.7133381307
 31
0.0
  0
LINE
  5
9A
330
1F
100
AcDbEntity
  8
0
  6
Continuous
 62
     7
370
    15
100
AcDbLine
 10
8.5824463525
 20
-9.6651685631
 30
0.0
 11
8.3592848241
 21
-8.2106146826
 31
0.0
  0
LINE
  5
9B
330
1F
100
AcDbEntity
  8
0
  6
Continuous
 62
     7
370
    15
100
AcDbLine
 10
11.0477455659
 20
-7.6611234322
 30
0.0
 11
11.2709070943
 21
-9.1156773127
 31
0.0
  0
LINE
  5
9C
330
1F
100
AcDbEntity
  8
0
  6
Continuous
 62
     7
370
    15
100
AcDbLine
 10
33.0935682968
 20
3.4753388571
 30
0.0
 11
11.0477455659
 21
-7.6611234322
 31
0.0
  0
LINE
  5
9D
330
1F
100
AcDbEntity
  8
0
  6
Continuous
 62
     7
370
    15
100
AcDbLine
 10
8.3592848241
 20
-8.2106146826
 30
0.0
 11
-31.4294895052
 21
-9.7124511538
 31
0.0
  0
LINE
  5
9E
330
1F
100
AcDbEntity
  8
0
  6
Continuous
 62
     7
370
    15
100
AcDbLine
 10
-31.4294895052
 20
-9.7124511538
 30
0.0
 11
-31.2063279768
 21
-11.1670050343
 31
0.0
  0
LINE
  5
9F
330
1F
100
AcDbEntity
  8
0
  6
Continuous
 62
     7
370
    15
100
AcDbLine
 10
8.5824463525
 20
-9.6651685631
 30
0.0
 11
-31.2063279768
 21
-11.1670050343
 31
0.0
  0
LINE
  5
A0
330
1F
100
AcDbEntity
  8
0
  6
Continuous
 62
     7
370
    15
100
AcDbLine
 10
33.3167298252
 20
2.0207849766
 30
0.0
 11
33.0935682968
 21
3.4753388571
 31
0.0
  0
LINE
  5
A1
330
1F
100
AcDbEntity
  8
0
  6
Continuous
 62
     7
370
    15
100
AcDbLine
 10
33.3167298252
 20
2.0207849766
 30
0.0
 11
11.2709070943
 21
-9.1156773127
 31
0.0
  0
LINE
  5
A2
330
1F
100
AcDbEntity
  8
0
  6
Continuous
 62
     7
370
    15
100
AcDbLine
 10
-32.2009221834
 20
-9.2935543791
 30
0.0
 11
-24.4661361963
 21
-5.3863219972
 31
0.0
  0
LINE
  5
A3
330
1F
100
AcDbEntity
  8
0
  6
Continuous
 62
     7
370
    15
100
AcDbLine
 10
24.738969972
 20
3.6080072941
 30
0.0
 11
32.3221356186
 21
3.8942356318
 31
0.0
  0
ARC
  5
A4
330
1F
100
AcDbEntity
  8
0
  6
Continuous
 62
     7
370
    15
100
AcDbCircle
 10
7.1858012133
 20
-46.8366349519
 30
0.0
 40
57.20000000000051
100
AcDbArc
 50
78.9270947928
 51
118.5178201747
  0
ARC
  5
A5
330
1F
100
AcDbEntity
  8
0
  6
Continuous
 62
     7
370
    15
100
AcDbCircle
 10
8.1823307228
 20
-0.4932669576
 30
0.0
 40
7.71937618356568
100
AcDbArc
 50
271.3135272971
 51
291.7895027832
  0
ARC
  5
A6
330
1F
100
AcDbEntity
  8
0
  6
Continuous
 62
     7
370
    15
100
AcDbCircle
 10
8.4054922512
 20
-1.9478208381
 30
0.0
 40
7.719376183565594
100
AcDbArc
 50
271.3135272971
 51
291.7895027832
  0
ENDSEC
  0
SECTION
  2
OBJECTS
  0
DICTIONARY
  5
C
330
0
100
AcDbDictionary
281
     1
  3
ACAD_GROUP
350
D
  3
ACAD_LAYOUT
350
1A
  3
ACAD_MLINESTYLE
350
17
  3
ACAD_PLOTSETTINGS
350
19
  3
ACAD_PLOTSTYLENAME
350
E
  3
ACAD_SCALELIST
350
47
  0
DICTIONARY
  5
D
102
{ACAD_REACTORS
330
C
102
}
330
C
100
AcDbDictionary
281
     1
  0
DICTIONARY
  5
1A
102
{ACAD_REACTORS
330
C
102
}
330
C
100
AcDbDictionary
281
     1
  3
Layout1
350
1E
  3
Layout2
350
26
  3
Model
350
22
  0
DICTIONARY
  5
17
102
{ACAD_REACTORS
330
C
102
}
330
C
100
AcDbDictionary
281
     1
  3
Standard
350
18
  0
DICTIONARY
  5
19
102
{ACAD_REACTORS
330
C
102
}
330
C
100
AcDbDictionary
281
     1
  0
ACDBDICTIONARYWDFLT
  5
E
102
{ACAD_REACTORS
330
C
102
}
330
C
100
AcDbDictionary
281
     1
  3
Normal
350
F
100
AcDbDictionaryWithDefault
340
F
  0
DICTIONARY
  5
47
102
{ACAD_REACTORS
330
C
102
}
330
C
100
AcDbDictionary
281
     1
  3
A0
350
48
  3
A1
350
49
  3
A2
350
4A
  3
A3
350
4B
  3
A4
350
4C
  3
A5
350
4D
  3
A6
350
4E
  3
A7
350
4F
  3
A8
350
50
  3
A9
350
51
  3
B0
350
52
  3
B1
350
53
  3
B2
350
54
  3
B3
350
55
  3
B4
350
56
  3
B5
350
57
  3
B6
350
58
  3
B7
350
59
  3
B8
350
5A
  3
B9
350
5B
  3
C0
350
5C
  3
C1
350
5D
  3
C2
350
5E
  3
C3
350
5F
  3
C4
350
60
  3
C5
350
61
  3
C6
350
62
  3
C7
350
63
  3
C8
350
64
  3
C9
350
65
  3
D0
350
66
  3
D1
350
67
  3
D2
350
68
  0
LAYOUT
  5
1E
102
{ACAD_REACTORS
330
1A
102
}
330
1A
100
AcDbPlotSettings
  1

  2
none_device
  4

  6

 40
0.0
 41
0.0
 42
0.0
 43
0.0
 44
0.0
 45
0.0
 46
0.0
 47
0.0
 48
0.0
 49
0.0
140
0.0
141
0.0
142
1.0
143
1.0
 70
   688
 72
     1
 73
     0
 74
     5
  7

 75
    16
147
1.0
148
0.0
149
0.0
100
AcDbLayout
  1
Layout1
 70
     1
 71
     1
 10
0.0
 20
0.0
 11
420.0
 21
297.0
 12
0.0
 22
0.0
 32
0.0
 14
1.0000000000E+20
 24
1.0000000000E+20
 34
1.0000000000E+20
 15
-1.0000000000E+20
 25
-1.0000000000E+20
 35
-1.0000000000E+20
146
0.0
 13
0.0
 23
0.0
 33
0.0
 16
1.0
 26
0.0
 36
0.0
 17
0.0
 27
1.0
 37
0.0
 76
     0
330
1B
  0
LAYOUT
  5
26
102
{ACAD_REACTORS
330
1A
102
}
330
1A
100
AcDbPlotSettings
  1

  2
none_device
  4

  6

 40
0.0
 41
0.0
 42
0.0
 43
0.0
 44
0.0
 45
0.0
 46
0.0
 47
0.0
 48
0.0
 49
0.0
140
0.0
141
0.0
142
1.0
143
1.0
 70
   688
 72
     1
 73
     0
 74
     5
  7

 75
    16
147
1.0
148
0.0
149
0.0
100
AcDbLayout
  1
Layout2
 70
     1
 71
     2
 10
0.0
 20
0.0
 11
0.0
 21
0.0
 12
0.0
 22
0.0
 32
0.0
 14
0.0
 24
0.0
 34
0.0
 15
0.0
 25
0.0
 35
0.0
146
0.0
 13
0.0
 23
0.0
 33
0.0
 16
1.0
 26
0.0
 36
0.0
 17
0.0
 27
1.0
 37
0.0
 76
     0
330
23
  0
LAYOUT
  5
22
102
{ACAD_REACTORS
330
1A
102
}
330
1A
100
AcDbPlotSettings
  1

  2
none_device
  4
ANSI_A_(11.00_x_8.50_Inches)
  6

 40
6.35
 41
19.05
 42
6.35000508
 43
19.05000254
 44
279.4
 45
215.9
 46
131.0122297673
 47
90.5926446988
 48
0.0
 49
0.0
140
0.0
141
0.0
142
0.1649712633
143
1.0
 70
  1696
 72
     0
 73
     0
 74
     0
  7

 75
     0
147
0.0179189148
148
-1300.4909072572
149
0.0
100
AcDbLayout
  1
Model
 70
     1
 71
     0
 10
0.0
 20
0.0
 11
420.0
 21
297.0
 12
0.0
 22
0.0
 32
0.0
 14
-32.4478445197
 24
-11.171258541
 34
0.0
 15
33.5636521615
 25
10.3633650481
 35
0.0
146
0.0
 13
0.0
 23
0.0
 33
0.0
 16
1.0
 26
0.0
 36
0.0
 17
0.0
 27
1.0
 37
0.0
 76
     0
330
1F
331
29
  0
MLINESTYLE
  5
18
102
{ACAD_REACTORS
330
17
102
}
330
17
100
AcDbMlineStyle
  2
Standard
 70
     0
  3

 62
   256
 51
90.0
 52
90.0
 71
     2
 49
0.5
 62
   256
  6
BYLAYER
 49
-0.5
 62
   256
  6
BYLAYER
  0
ACDBPLACEHOLDER
  5
F
102
{ACAD_REACTORS
330
E
102
}
330
E
  0
SCALE
  5
48
102
{ACAD_REACTORS
330
47
102
}
330
47
100
AcDbScale
 70
     0
300
1:1
140
1.0
141
1.0
290
     1
  0
SCALE
  5
49
102
{ACAD_REACTORS
330
47
102
}
330
47
100
AcDbScale
 70
     0
300
1:2
140
1.0
141
2.0
290
     0
  0
SCALE
  5
4A
102
{ACAD_REACTORS
330
47
102
}
330
47
100
AcDbScale
 70
     0
300
1:4
140
1.0
141
4.0
290
     0
  0
SCALE
  5
4B
102
{ACAD_REACTORS
330
47
102
}
330
47
100
AcDbScale
 70
     0
300
1:5
140
1.0
141
5.0
290
     0
  0
SCALE
  5
4C
102
{ACAD_REACTORS
330
47
102
}
330
47
100
AcDbScale
 70
     0
300
1:8
140
1.0
141
8.0
290
     0
  0
SCALE
  5
4D
102
{ACAD_REACTORS
330
47
102
}
330
47
100
AcDbScale
 70
     0
300
1:10
140
1.0
141
10.0
290
     0
  0
SCALE
  5
4E
102
{ACAD_REACTORS
330
47
102
}
330
47
100
AcDbScale
 70
     0
300
1:16
140
1.0
141
16.0
290
     0
  0
SCALE
  5
4F
102
{ACAD_REACTORS
330
47
102
}
330
47
100
AcDbScale
 70
     0
300
1:20
140
1.0
141
20.0
290
     0
  0
SCALE
  5
50
102
{ACAD_REACTORS
330
47
102
}
330
47
100
AcDbScale
 70
     0
300
1:30
140
1.0
141
30.0
290
     0
  0
SCALE
  5
51
102
{ACAD_REACTORS
330
47
102
}
330
47
100
AcDbScale
 70
     0
300
1:40
140
1.0
141
40.0
290
     0
  0
SCALE
  5
52
102
{ACAD_REACTORS
330
47
102
}
330
47
100
AcDbScale
 70
     0
300
1:50
140
1.0
141
50.0
290
     0
  0
SCALE
  5
53
102
{ACAD_REACTORS
330
47
102
}
330
47
100
AcDbScale
 70
     0
300
1:100
140
1.0
141
100.0
290
     0
  0
SCALE
  5
54
102
{ACAD_REACTORS
330
47
102
}
330
47
100
AcDbScale
 70
     0
300
2:1
140
2.0
141
1.0
290
     0
  0
SCALE
  5
55
102
{ACAD_REACTORS
330
47
102
}
330
47
100
AcDbScale
 70
     0
300
4:1
140
4.0
141
1.0
290
     0
  0
SCALE
  5
56
102
{ACAD_REACTORS
330
47
102
}
330
47
100
AcDbScale
 70
     0
300
8:1
140
8.0
141
1.0
290
     0
  0
SCALE
  5
57
102
{ACAD_REACTORS
330
47
102
}
330
47
100
AcDbScale
 70
     0
300
10:1
140
10.0
141
1.0
290
     0
  0
SCALE
  5
58
102
{ACAD_REACTORS
330
47
102
}
330
47
100
AcDbScale
 70
     0
300
100:1
140
100.0
141
1.0
290
     0
  0
SCALE
  5
59
102
{ACAD_REACTORS
330
47
102
}
330
47
100
AcDbScale
 70
     0
300
1/128" = 1'-0"
140
0.0078125
141
12.0
290
     0
  0
SCALE
  5
5A
102
{ACAD_REACTORS
330
47
102
}
330
47
100
AcDbScale
 70
     0
300
1/64" = 1'-0"
140
0.015625
141
12.0
290
     0
  0
SCALE
  5
5B
102
{ACAD_REACTORS
330
47
102
}
330
47
100
AcDbScale
 70
     0
300
1/32" = 1'-0"
140
0.03125
141
12.0
290
     0
  0
SCALE
  5
5C
102
{ACAD_REACTORS
330
47
102
}
330
47
100
AcDbScale
 70
     0
300
1/16" = 1'-0"
140
0.0625
141
12.0
290
     0
  0
SCALE
  5
5D
102
{ACAD_REACTORS
330
47
102
}
330
47
100
AcDbScale
 70
     0
300
3/32" = 1'-0"
140
0.09375
141
12.0
290
     0
  0
SCALE
  5
5E
102
{ACAD_REACTORS
330
47
102
}
330
47
100
AcDbScale
 70
     0
300
1/8" = 1'-0"
140
0.125
141
12.0
290
     0
  0
SCALE
  5
5F
102
{ACAD_REACTORS
330
47
102
}
330
47
100
AcDbScale
 70
     0
300
3/16" = 1'-0"
140
0.1875
141
12.0
290
     0
  0
SCALE
  5
60
102
{ACAD_REACTORS
330
47
102
}
330
47
100
AcDbScale
 70
     0
300
1/4" = 1'-0"
140
0.25
141
12.0
290
     0
  0
SCALE
  5
61
102
{ACAD_REACTORS
330
47
102
}
330
47
100
AcDbScale
 70
     0
300
3/8" = 1'-0"
140
0.375
141
12.0
290
     0
  0
SCALE
  5
62
102
{ACAD_REACTORS
330
47
102
}
330
47
100
AcDbScale
 70
     0
300
1/2" = 1'-0"
140
0.5
141
12.0
290
     0
  0
SCALE
  5
63
102
{ACAD_REACTORS
330
47
102
}
330
47
100
AcDbScale
 70
     0
300
3/4" = 1'-0"
140
0.75
141
12.0
290
     0
  0
SCALE
  5
64
102
{ACAD_REACTORS
330
47
102
}
330
47
100
AcDbScale
 70
     0
300
1" = 1'-0"
140
1.0
141
12.0
290
     0
  0
SCALE
  5
65
102
{ACAD_REACTORS
330
47
102
}
330
47
100
AcDbScale
 70
     0
300
1-1/2" = 1'-0"
140
1.5
141
12.0
290
     0
  0
SCALE
  5
66
102
{ACAD_REACTORS
330
47
102
}
330
47
100
AcDbScale
 70
     0
300
3" = 1'-0"
140
3.0
141
12.0
290
     0
  0
SCALE
  5
67
102
{ACAD_REACTORS
330
47
102
}
330
47
100
AcDbScale
 70
     0
300
6" = 1'-0"
140
6.0
141
12.0
290
     0
  0
SCALE
  5
68
102
{ACAD_REACTORS
330
47
102
}
330
47
100
AcDbScale
 70
     0
300
1'-0" = 1'-0"
140
12.0
141
12.0
290
     0
  0
ENDSEC
  0
EOF
