ISO-10303-21;
HEADER;
FILE_DESCRIPTION(('CATIA V5 STEP Exchange'),'2;1');

FILE_NAME('C:\\Users\\valen\\Desktop\\VGate Shifter\\STEP\\Entretoise.stp','2020-05-02T19:31:44+00:00',('none'),('none'),'CATIA Version 5 Release 21 SP 1 (IN-10)','CATIA V5 STEP AP203','none');

FILE_SCHEMA(('CONFIG_CONTROL_DESIGN'));

ENDSEC;
/* file written by CATIA V5R21 */
DATA;
#5=PRODUCT('Part1','','',(#2)) ;
#1=APPLICATION_CONTEXT('configuration controlled 3D design of mechanical parts and assemblies') ;
#14=PRODUCT_DEFINITION('',' ',#6,#3) ;
#16=SECURITY_CLASSIFICATION(' ',' ',#15) ;
#15=SECURITY_CLASSIFICATION_LEVEL('unclassified') ;
#47=CARTESIAN_POINT(' ',(0.,0.,0.)) ;
#52=CARTESIAN_POINT('Axis2P3D Location',(0.,6.75,0.)) ;
#57=CARTESIAN_POINT('Axis2P3D Location',(0.,0.,0.)) ;
#61=CARTESIAN_POINT('Vertex',(3.11626600093,0.,5.70428665229)) ;
#63=CARTESIAN_POINT('Vertex',(-3.11626600093,0.,-5.70428665229)) ;
#66=CARTESIAN_POINT('Line Origine',(3.11626600093,6.25,5.70428665229)) ;
#70=CARTESIAN_POINT('Vertex',(3.11626600093,12.5,5.70428665229)) ;
#73=CARTESIAN_POINT('Axis2P3D Location',(0.,12.5,0.)) ;
#77=CARTESIAN_POINT('Vertex',(-3.11626600093,12.5,-5.70428665229)) ;
#80=CARTESIAN_POINT('Line Origine',(-3.11626600093,6.25,-5.70428665229)) ;
#92=CARTESIAN_POINT('Axis2P3D Location',(0.,0.,0.)) ;
#97=CARTESIAN_POINT('Axis2P3D Location',(0.,12.5,0.)) ;
#109=CARTESIAN_POINT('Axis2P3D Location',(0.,12.5,0.)) ;
#114=CARTESIAN_POINT('Line Origine',(3.35597877023,13.,6.14307793323)) ;
#118=CARTESIAN_POINT('Vertex',(3.59569153953,13.5,6.58186921418)) ;
#121=CARTESIAN_POINT('Axis2P3D Location',(0.,13.5,0.)) ;
#125=CARTESIAN_POINT('Vertex',(-3.59569153953,13.5,-6.58186921418)) ;
#128=CARTESIAN_POINT('Line Origine',(-3.35597877023,13.,-6.14307793323)) ;
#140=CARTESIAN_POINT('Axis2P3D Location',(0.,13.5,0.)) ;
#152=CARTESIAN_POINT('Axis2P3D Location',(0.,13.,0.)) ;
#157=CARTESIAN_POINT('Axis2P3D Location',(0.,13.5,0.)) ;
#161=CARTESIAN_POINT('Vertex',(4.91411177069,13.5,8.99522125938)) ;
#163=CARTESIAN_POINT('Vertex',(-4.91411177069,13.5,-8.99522125938)) ;
#166=CARTESIAN_POINT('Axis2P3D Location',(4.91411177069,13.,8.99522125938)) ;
#170=CARTESIAN_POINT('Vertex',(5.15382454,13.,9.43401254032)) ;
#173=CARTESIAN_POINT('Axis2P3D Location',(0.,13.,0.)) ;
#177=CARTESIAN_POINT('Vertex',(-5.15382454,13.,-9.43401254032)) ;
#180=CARTESIAN_POINT('Axis2P3D Location',(-4.91411177069,13.,-8.99522125938)) ;
#192=CARTESIAN_POINT('Axis2P3D Location',(0.,13.5,0.)) ;
#197=CARTESIAN_POINT('Axis2P3D Location',(0.,13.,0.)) ;
#209=CARTESIAN_POINT('Axis2P3D Location',(0.,6.75,0.)) ;
#214=CARTESIAN_POINT('Line Origine',(5.15382454,12.5,9.43401254032)) ;
#218=CARTESIAN_POINT('Vertex',(5.15382454,12.,9.43401254032)) ;
#221=CARTESIAN_POINT('Axis2P3D Location',(0.,12.,0.)) ;
#225=CARTESIAN_POINT('Vertex',(-5.15382454,12.,-9.43401254032)) ;
#228=CARTESIAN_POINT('Line Origine',(-5.15382454,12.5,-9.43401254032)) ;
#240=CARTESIAN_POINT('Axis2P3D Location',(0.,12.,0.)) ;
#252=CARTESIAN_POINT('Axis2P3D Location',(0.,12.,0.)) ;
#257=CARTESIAN_POINT('Axis2P3D Location',(4.91411177069,12.,8.99522125938)) ;
#261=CARTESIAN_POINT('Vertex',(4.91411177069,11.5,8.99522125938)) ;
#264=CARTESIAN_POINT('Axis2P3D Location',(0.,11.5,0.)) ;
#268=CARTESIAN_POINT('Vertex',(-4.91411177069,11.5,-8.99522125938)) ;
#271=CARTESIAN_POINT('Axis2P3D Location',(-4.91411177069,12.,-8.99522125938)) ;
#283=CARTESIAN_POINT('Axis2P3D Location',(0.,11.5,0.)) ;
#295=CARTESIAN_POINT('Axis2P3D Location',(0.,11.,0.)) ;
#300=CARTESIAN_POINT('Axis2P3D Location',(0.,11.5,0.)) ;
#304=CARTESIAN_POINT('Vertex',(4.31482984744,11.5,7.89824305701)) ;
#306=CARTESIAN_POINT('Vertex',(-4.31482984744,11.5,-7.89824305701)) ;
#309=CARTESIAN_POINT('Axis2P3D Location',(4.31482984744,11.,7.89824305701)) ;
#313=CARTESIAN_POINT('Vertex',(4.07511707814,11.,7.45945177607)) ;
#316=CARTESIAN_POINT('Axis2P3D Location',(0.,11.,0.)) ;
#320=CARTESIAN_POINT('Vertex',(-4.07511707814,11.,-7.45945177607)) ;
#323=CARTESIAN_POINT('Axis2P3D Location',(-4.31482984744,11.,-7.89824305701)) ;
#335=CARTESIAN_POINT('Axis2P3D Location',(0.,11.5,0.)) ;
#340=CARTESIAN_POINT('Axis2P3D Location',(0.,11.,0.)) ;
#352=CARTESIAN_POINT('Axis2P3D Location',(0.,6.75,0.)) ;
#357=CARTESIAN_POINT('Line Origine',(4.07511707814,6.,7.45945177607)) ;
#361=CARTESIAN_POINT('Vertex',(4.07511707814,1.,7.45945177607)) ;
#364=CARTESIAN_POINT('Axis2P3D Location',(0.,1.,0.)) ;
#368=CARTESIAN_POINT('Vertex',(-4.07511707814,1.,-7.45945177607)) ;
#371=CARTESIAN_POINT('Line Origine',(-4.07511707814,6.,-7.45945177607)) ;
#383=CARTESIAN_POINT('Axis2P3D Location',(0.,1.,0.)) ;
#395=CARTESIAN_POINT('Axis2P3D Location',(0.,2.6645352591E-015,0.)) ;
#400=CARTESIAN_POINT('Line Origine',(3.83540430883,0.5,7.02066049512)) ;
#404=CARTESIAN_POINT('Vertex',(3.59569153953,2.6645352591E-015,6.58186921418)) ;
#407=CARTESIAN_POINT('Axis2P3D Location',(0.,2.6645352591E-015,0.)) ;
#411=CARTESIAN_POINT('Vertex',(-3.59569153953,2.6645352591E-015,-6.58186921418)) ;
#414=CARTESIAN_POINT('Line Origine',(-3.83540430883,0.5,-7.02066049512)) ;
#426=CARTESIAN_POINT('Axis2P3D Location',(0.,2.6645352591E-015,0.)) ;
#438=CARTESIAN_POINT('Axis2P3D Location',(0.,13.5,7.5)) ;
#452=CARTESIAN_POINT('Axis2P3D Location',(0.,11.5,10.25)) ;
#466=CARTESIAN_POINT('Axis2P3D Location',(0.,0.,7.5)) ;
#53=DIRECTION('Axis2P3D Direction',(0.,1.,0.)) ;
#54=DIRECTION('Axis2P3D XDirection',(0.479425538604,-0.,0.87758256189)) ;
#58=DIRECTION('Axis2P3D Direction',(0.,1.,0.)) ;
#67=DIRECTION('Vector Direction',(0.,1.,0.)) ;
#74=DIRECTION('Axis2P3D Direction',(0.,1.,0.)) ;
#81=DIRECTION('Vector Direction',(0.,1.,0.)) ;
#93=DIRECTION('Axis2P3D Direction',(0.,1.,0.)) ;
#98=DIRECTION('Axis2P3D Direction',(0.,1.,0.)) ;
#110=DIRECTION('Axis2P3D Direction',(0.,1.,0.)) ;
#111=DIRECTION('Axis2P3D XDirection',(0.479425538604,0.,0.87758256189)) ;
#115=DIRECTION('Vector Direction',(0.339005049421,0.707106781187,0.620544580564)) ;
#122=DIRECTION('Axis2P3D Direction',(0.,1.,0.)) ;
#129=DIRECTION('Vector Direction',(-0.339005049421,0.707106781187,-0.620544580564)) ;
#141=DIRECTION('Axis2P3D Direction',(0.,1.,0.)) ;
#153=DIRECTION('Axis2P3D Direction',(0.,1.,0.)) ;
#154=DIRECTION('Axis2P3D XDirection',(0.479425538604,0.,0.87758256189)) ;
#158=DIRECTION('Axis2P3D Direction',(0.,1.,0.)) ;
#167=DIRECTION('Axis2P3D Direction',(-0.87758256189,0.,0.479425538604)) ;
#174=DIRECTION('Axis2P3D Direction',(0.,1.,0.)) ;
#181=DIRECTION('Axis2P3D Direction',(0.87758256189,0.,-0.479425538604)) ;
#193=DIRECTION('Axis2P3D Direction',(0.,1.,0.)) ;
#198=DIRECTION('Axis2P3D Direction',(0.,1.,0.)) ;
#210=DIRECTION('Axis2P3D Direction',(0.,1.,0.)) ;
#211=DIRECTION('Axis2P3D XDirection',(0.479425538604,-0.,0.87758256189)) ;
#215=DIRECTION('Vector Direction',(0.,1.,0.)) ;
#222=DIRECTION('Axis2P3D Direction',(0.,1.,0.)) ;
#229=DIRECTION('Vector Direction',(0.,1.,0.)) ;
#241=DIRECTION('Axis2P3D Direction',(0.,1.,0.)) ;
#253=DIRECTION('Axis2P3D Direction',(0.,1.,0.)) ;
#254=DIRECTION('Axis2P3D XDirection',(0.479425538604,0.,0.87758256189)) ;
#258=DIRECTION('Axis2P3D Direction',(-0.87758256189,0.,0.479425538604)) ;
#265=DIRECTION('Axis2P3D Direction',(0.,1.,0.)) ;
#272=DIRECTION('Axis2P3D Direction',(0.87758256189,0.,-0.479425538604)) ;
#284=DIRECTION('Axis2P3D Direction',(0.,1.,0.)) ;
#296=DIRECTION('Axis2P3D Direction',(0.,1.,0.)) ;
#297=DIRECTION('Axis2P3D XDirection',(0.479425538604,0.,0.87758256189)) ;
#301=DIRECTION('Axis2P3D Direction',(0.,1.,0.)) ;
#310=DIRECTION('Axis2P3D Direction',(-0.87758256189,0.,0.479425538604)) ;
#317=DIRECTION('Axis2P3D Direction',(0.,1.,0.)) ;
#324=DIRECTION('Axis2P3D Direction',(0.87758256189,0.,-0.479425538604)) ;
#336=DIRECTION('Axis2P3D Direction',(0.,1.,0.)) ;
#341=DIRECTION('Axis2P3D Direction',(0.,1.,0.)) ;
#353=DIRECTION('Axis2P3D Direction',(0.,1.,0.)) ;
#354=DIRECTION('Axis2P3D XDirection',(0.479425538604,-0.,0.87758256189)) ;
#358=DIRECTION('Vector Direction',(0.,1.,0.)) ;
#365=DIRECTION('Axis2P3D Direction',(0.,1.,0.)) ;
#372=DIRECTION('Vector Direction',(0.,1.,0.)) ;
#384=DIRECTION('Axis2P3D Direction',(0.,1.,0.)) ;
#396=DIRECTION('Axis2P3D Direction',(0.,1.,0.)) ;
#397=DIRECTION('Axis2P3D XDirection',(0.479425538604,0.,0.87758256189)) ;
#401=DIRECTION('Vector Direction',(0.339005049421,0.707106781187,0.620544580564)) ;
#408=DIRECTION('Axis2P3D Direction',(0.,1.,0.)) ;
#415=DIRECTION('Vector Direction',(-0.339005049421,0.707106781187,-0.620544580564)) ;
#427=DIRECTION('Axis2P3D Direction',(0.,1.,0.)) ;
#439=DIRECTION('Axis2P3D Direction',(0.,1.,0.)) ;
#440=DIRECTION('Axis2P3D XDirection',(1.,-0.,0.)) ;
#453=DIRECTION('Axis2P3D Direction',(0.,1.,0.)) ;
#454=DIRECTION('Axis2P3D XDirection',(1.,-0.,0.)) ;
#467=DIRECTION('Axis2P3D Direction',(0.,1.,0.)) ;
#468=DIRECTION('Axis2P3D XDirection',(1.,-0.,0.)) ;
#48=AXIS2_PLACEMENT_3D(' ',#47,$,$) ;
#55=AXIS2_PLACEMENT_3D('Cylinder Axis2P3D',#52,#53,#54) ;
#59=AXIS2_PLACEMENT_3D('Circle Axis2P3D',#57,#58,$) ;
#75=AXIS2_PLACEMENT_3D('Circle Axis2P3D',#73,#74,$) ;
#94=AXIS2_PLACEMENT_3D('Circle Axis2P3D',#92,#93,$) ;
#99=AXIS2_PLACEMENT_3D('Circle Axis2P3D',#97,#98,$) ;
#112=AXIS2_PLACEMENT_3D('Cone Axis2P3D',#109,#110,#111) ;
#123=AXIS2_PLACEMENT_3D('Circle Axis2P3D',#121,#122,$) ;
#142=AXIS2_PLACEMENT_3D('Circle Axis2P3D',#140,#141,$) ;
#155=AXIS2_PLACEMENT_3D('Torus Axis2P3D',#152,#153,#154) ;
#159=AXIS2_PLACEMENT_3D('Circle Axis2P3D',#157,#158,$) ;
#168=AXIS2_PLACEMENT_3D('Circle Axis2P3D',#166,#167,$) ;
#175=AXIS2_PLACEMENT_3D('Circle Axis2P3D',#173,#174,$) ;
#182=AXIS2_PLACEMENT_3D('Circle Axis2P3D',#180,#181,$) ;
#194=AXIS2_PLACEMENT_3D('Circle Axis2P3D',#192,#193,$) ;
#199=AXIS2_PLACEMENT_3D('Circle Axis2P3D',#197,#198,$) ;
#212=AXIS2_PLACEMENT_3D('Cylinder Axis2P3D',#209,#210,#211) ;
#223=AXIS2_PLACEMENT_3D('Circle Axis2P3D',#221,#222,$) ;
#242=AXIS2_PLACEMENT_3D('Circle Axis2P3D',#240,#241,$) ;
#255=AXIS2_PLACEMENT_3D('Torus Axis2P3D',#252,#253,#254) ;
#259=AXIS2_PLACEMENT_3D('Circle Axis2P3D',#257,#258,$) ;
#266=AXIS2_PLACEMENT_3D('Circle Axis2P3D',#264,#265,$) ;
#273=AXIS2_PLACEMENT_3D('Circle Axis2P3D',#271,#272,$) ;
#285=AXIS2_PLACEMENT_3D('Circle Axis2P3D',#283,#284,$) ;
#298=AXIS2_PLACEMENT_3D('Torus Axis2P3D',#295,#296,#297) ;
#302=AXIS2_PLACEMENT_3D('Circle Axis2P3D',#300,#301,$) ;
#311=AXIS2_PLACEMENT_3D('Circle Axis2P3D',#309,#310,$) ;
#318=AXIS2_PLACEMENT_3D('Circle Axis2P3D',#316,#317,$) ;
#325=AXIS2_PLACEMENT_3D('Circle Axis2P3D',#323,#324,$) ;
#337=AXIS2_PLACEMENT_3D('Circle Axis2P3D',#335,#336,$) ;
#342=AXIS2_PLACEMENT_3D('Circle Axis2P3D',#340,#341,$) ;
#355=AXIS2_PLACEMENT_3D('Cylinder Axis2P3D',#352,#353,#354) ;
#366=AXIS2_PLACEMENT_3D('Circle Axis2P3D',#364,#365,$) ;
#385=AXIS2_PLACEMENT_3D('Circle Axis2P3D',#383,#384,$) ;
#398=AXIS2_PLACEMENT_3D('Cone Axis2P3D',#395,#396,#397) ;
#409=AXIS2_PLACEMENT_3D('Circle Axis2P3D',#407,#408,$) ;
#428=AXIS2_PLACEMENT_3D('Circle Axis2P3D',#426,#427,$) ;
#441=AXIS2_PLACEMENT_3D('Plane Axis2P3D',#438,#439,#440) ;
#455=AXIS2_PLACEMENT_3D('Plane Axis2P3D',#452,#453,#454) ;
#469=AXIS2_PLACEMENT_3D('Plane Axis2P3D',#466,#467,#468) ;
#40=PRODUCT_DEFINITION_SHAPE(' ',' ',#14) ;
#31=APPROVAL_PERSON_ORGANIZATION(#25,#21,#19) ;
#25=PERSON_AND_ORGANIZATION(#22,#23) ;
#22=PERSON(' ',' ',' ',$,$,$) ;
#23=ORGANIZATION(' ',' ',' ') ;
#21=APPROVAL(#20,' ') ;
#20=APPROVAL_STATUS('not_yet_approved') ;
#19=APPROVAL_ROLE('APPROVER') ;
#13=DATE_AND_TIME(#11,#12) ;
#12=LOCAL_TIME(21,31,43.,#10) ;
#10=COORDINATED_UNIVERSAL_TIME_OFFSET(0,0,.AHEAD.) ;
#86=ORIENTED_EDGE('',*,*,#65,.F.) ;
#87=ORIENTED_EDGE('',*,*,#72,.T.) ;
#88=ORIENTED_EDGE('',*,*,#79,.T.) ;
#89=ORIENTED_EDGE('',*,*,#84,.F.) ;
#103=ORIENTED_EDGE('',*,*,#96,.F.) ;
#104=ORIENTED_EDGE('',*,*,#84,.T.) ;
#105=ORIENTED_EDGE('',*,*,#101,.T.) ;
#106=ORIENTED_EDGE('',*,*,#72,.F.) ;
#134=ORIENTED_EDGE('',*,*,#79,.F.) ;
#135=ORIENTED_EDGE('',*,*,#120,.T.) ;
#136=ORIENTED_EDGE('',*,*,#127,.T.) ;
#137=ORIENTED_EDGE('',*,*,#132,.F.) ;
#146=ORIENTED_EDGE('',*,*,#101,.F.) ;
#147=ORIENTED_EDGE('',*,*,#132,.T.) ;
#148=ORIENTED_EDGE('',*,*,#144,.T.) ;
#149=ORIENTED_EDGE('',*,*,#120,.F.) ;
#186=ORIENTED_EDGE('',*,*,#165,.F.) ;
#187=ORIENTED_EDGE('',*,*,#172,.T.) ;
#188=ORIENTED_EDGE('',*,*,#179,.T.) ;
#189=ORIENTED_EDGE('',*,*,#184,.F.) ;
#203=ORIENTED_EDGE('',*,*,#196,.F.) ;
#204=ORIENTED_EDGE('',*,*,#184,.T.) ;
#205=ORIENTED_EDGE('',*,*,#201,.T.) ;
#206=ORIENTED_EDGE('',*,*,#172,.F.) ;
#234=ORIENTED_EDGE('',*,*,#179,.F.) ;
#235=ORIENTED_EDGE('',*,*,#220,.T.) ;
#236=ORIENTED_EDGE('',*,*,#227,.T.) ;
#237=ORIENTED_EDGE('',*,*,#232,.F.) ;
#246=ORIENTED_EDGE('',*,*,#201,.F.) ;
#247=ORIENTED_EDGE('',*,*,#232,.T.) ;
#248=ORIENTED_EDGE('',*,*,#244,.T.) ;
#249=ORIENTED_EDGE('',*,*,#220,.F.) ;
#277=ORIENTED_EDGE('',*,*,#227,.F.) ;
#278=ORIENTED_EDGE('',*,*,#263,.T.) ;
#279=ORIENTED_EDGE('',*,*,#270,.T.) ;
#280=ORIENTED_EDGE('',*,*,#275,.F.) ;
#289=ORIENTED_EDGE('',*,*,#244,.F.) ;
#290=ORIENTED_EDGE('',*,*,#275,.T.) ;
#291=ORIENTED_EDGE('',*,*,#287,.T.) ;
#292=ORIENTED_EDGE('',*,*,#263,.F.) ;
#329=ORIENTED_EDGE('',*,*,#308,.F.) ;
#330=ORIENTED_EDGE('',*,*,#315,.T.) ;
#331=ORIENTED_EDGE('',*,*,#322,.T.) ;
#332=ORIENTED_EDGE('',*,*,#327,.F.) ;
#346=ORIENTED_EDGE('',*,*,#339,.F.) ;
#347=ORIENTED_EDGE('',*,*,#327,.T.) ;
#348=ORIENTED_EDGE('',*,*,#344,.T.) ;
#349=ORIENTED_EDGE('',*,*,#315,.F.) ;
#377=ORIENTED_EDGE('',*,*,#322,.F.) ;
#378=ORIENTED_EDGE('',*,*,#363,.T.) ;
#379=ORIENTED_EDGE('',*,*,#370,.T.) ;
#380=ORIENTED_EDGE('',*,*,#375,.F.) ;
#389=ORIENTED_EDGE('',*,*,#344,.F.) ;
#390=ORIENTED_EDGE('',*,*,#375,.T.) ;
#391=ORIENTED_EDGE('',*,*,#387,.T.) ;
#392=ORIENTED_EDGE('',*,*,#363,.F.) ;
#420=ORIENTED_EDGE('',*,*,#370,.F.) ;
#421=ORIENTED_EDGE('',*,*,#406,.T.) ;
#422=ORIENTED_EDGE('',*,*,#413,.T.) ;
#423=ORIENTED_EDGE('',*,*,#418,.F.) ;
#432=ORIENTED_EDGE('',*,*,#387,.F.) ;
#433=ORIENTED_EDGE('',*,*,#418,.T.) ;
#434=ORIENTED_EDGE('',*,*,#430,.T.) ;
#435=ORIENTED_EDGE('',*,*,#406,.F.) ;
#444=ORIENTED_EDGE('',*,*,#196,.T.) ;
#445=ORIENTED_EDGE('',*,*,#165,.T.) ;
#448=ORIENTED_EDGE('',*,*,#127,.F.) ;
#449=ORIENTED_EDGE('',*,*,#144,.F.) ;
#458=ORIENTED_EDGE('',*,*,#270,.F.) ;
#459=ORIENTED_EDGE('',*,*,#287,.F.) ;
#462=ORIENTED_EDGE('',*,*,#339,.T.) ;
#463=ORIENTED_EDGE('',*,*,#308,.T.) ;
#472=ORIENTED_EDGE('',*,*,#413,.F.) ;
#473=ORIENTED_EDGE('',*,*,#430,.F.) ;
#476=ORIENTED_EDGE('',*,*,#96,.T.) ;
#477=ORIENTED_EDGE('',*,*,#65,.T.) ;
#450=FACE_BOUND('',#447,.T.) ;
#464=FACE_BOUND('',#461,.T.) ;
#478=FACE_BOUND('',#475,.T.) ;
#51=CLOSED_SHELL('Closed Shell',(#91,#108,#139,#151,#191,#208,#239,#251,#282,#294,#334,#351,#382,#394,#425,#437,#451,#465,#479)) ;
#68=VECTOR('Line Direction',#67,1.) ;
#82=VECTOR('Line Direction',#81,1.) ;
#116=VECTOR('Line Direction',#115,1.) ;
#130=VECTOR('Line Direction',#129,1.) ;
#216=VECTOR('Line Direction',#215,1.) ;
#230=VECTOR('Line Direction',#229,1.) ;
#359=VECTOR('Line Direction',#358,1.) ;
#373=VECTOR('Line Direction',#372,1.) ;
#402=VECTOR('Line Direction',#401,1.) ;
#416=VECTOR('Line Direction',#415,1.) ;
#481=ADVANCED_BREP_SHAPE_REPRESENTATION('NONE',(#480),#46) ;
#49=SHAPE_REPRESENTATION(' ',(#48),#46) ;
#91=ADVANCED_FACE('ENTRETOISES',(#90),#56,.F.) ;
#108=ADVANCED_FACE('ENTRETOISES',(#107),#56,.F.) ;
#139=ADVANCED_FACE('ENTRETOISES',(#138),#113,.F.) ;
#151=ADVANCED_FACE('ENTRETOISES',(#150),#113,.F.) ;
#191=ADVANCED_FACE('ENTRETOISES',(#190),#156,.T.) ;
#208=ADVANCED_FACE('ENTRETOISES',(#207),#156,.T.) ;
#239=ADVANCED_FACE('ENTRETOISES',(#238),#213,.T.) ;
#251=ADVANCED_FACE('ENTRETOISES',(#250),#213,.T.) ;
#282=ADVANCED_FACE('ENTRETOISES',(#281),#256,.T.) ;
#294=ADVANCED_FACE('ENTRETOISES',(#293),#256,.T.) ;
#334=ADVANCED_FACE('ENTRETOISES',(#333),#299,.F.) ;
#351=ADVANCED_FACE('ENTRETOISES',(#350),#299,.F.) ;
#382=ADVANCED_FACE('ENTRETOISES',(#381),#356,.T.) ;
#394=ADVANCED_FACE('ENTRETOISES',(#393),#356,.T.) ;
#425=ADVANCED_FACE('ENTRETOISES',(#424),#399,.T.) ;
#437=ADVANCED_FACE('ENTRETOISES',(#436),#399,.T.) ;
#451=ADVANCED_FACE('ENTRETOISES',(#446,#450),#442,.T.) ;
#465=ADVANCED_FACE('ENTRETOISES',(#460,#464),#456,.F.) ;
#479=ADVANCED_FACE('ENTRETOISES',(#474,#478),#470,.F.) ;
#4=APPLICATION_PROTOCOL_DEFINITION('international standard','config_control_design',1994,#1) ;
#32=APPROVAL_DATE_TIME(#13,#21) ;
#480=MANIFOLD_SOLID_BREP('ENTRETOISES',#51) ;
#11=CALENDAR_DATE(2020,2,5) ;
#30=CC_DESIGN_APPROVAL(#21,(#16,#6,#14)) ;
#18=CC_DESIGN_DATE_AND_TIME_ASSIGNMENT(#13,#17,(#16)) ;
#29=CC_DESIGN_DATE_AND_TIME_ASSIGNMENT(#13,#28,(#14)) ;
#17=DATE_TIME_ROLE('classification_date') ;
#28=DATE_TIME_ROLE('creation_date') ;
#27=CC_DESIGN_PERSON_AND_ORGANIZATION_ASSIGNMENT(#25,#26,(#16)) ;
#33=CC_DESIGN_PERSON_AND_ORGANIZATION_ASSIGNMENT(#25,#34,(#6)) ;
#35=CC_DESIGN_PERSON_AND_ORGANIZATION_ASSIGNMENT(#25,#36,(#6,#14)) ;
#37=CC_DESIGN_PERSON_AND_ORGANIZATION_ASSIGNMENT(#25,#38,(#5)) ;
#26=PERSON_AND_ORGANIZATION_ROLE('classification_officer') ;
#34=PERSON_AND_ORGANIZATION_ROLE('design_supplier') ;
#36=PERSON_AND_ORGANIZATION_ROLE('creator') ;
#38=PERSON_AND_ORGANIZATION_ROLE('design_owner') ;
#39=CC_DESIGN_SECURITY_CLASSIFICATION(#16,(#6)) ;
#60=CIRCLE('generated circle',#59,6.5) ;
#76=CIRCLE('generated circle',#75,6.5) ;
#95=CIRCLE('generated circle',#94,6.5) ;
#100=CIRCLE('generated circle',#99,6.5) ;
#124=CIRCLE('generated circle',#123,7.5) ;
#143=CIRCLE('generated circle',#142,7.5) ;
#160=CIRCLE('generated circle',#159,10.25) ;
#169=CIRCLE('generated circle',#168,0.5) ;
#176=CIRCLE('generated circle',#175,10.75) ;
#183=CIRCLE('generated circle',#182,0.5) ;
#195=CIRCLE('generated circle',#194,10.25) ;
#200=CIRCLE('generated circle',#199,10.75) ;
#224=CIRCLE('generated circle',#223,10.75) ;
#243=CIRCLE('generated circle',#242,10.75) ;
#260=CIRCLE('generated circle',#259,0.5) ;
#267=CIRCLE('generated circle',#266,10.25) ;
#274=CIRCLE('generated circle',#273,0.5) ;
#286=CIRCLE('generated circle',#285,10.25) ;
#303=CIRCLE('generated circle',#302,9.) ;
#312=CIRCLE('generated circle',#311,0.5) ;
#319=CIRCLE('generated circle',#318,8.5) ;
#326=CIRCLE('generated circle',#325,0.5) ;
#338=CIRCLE('generated circle',#337,9.) ;
#343=CIRCLE('generated circle',#342,8.5) ;
#367=CIRCLE('generated circle',#366,8.5) ;
#386=CIRCLE('generated circle',#385,8.5) ;
#410=CIRCLE('generated circle',#409,7.5) ;
#429=CIRCLE('generated circle',#428,7.5) ;
#113=CONICAL_SURFACE('Cone',#112,6.5,0.785398163397) ;
#399=CONICAL_SURFACE('Cone',#398,7.5,0.785398163397) ;
#482=SHAPE_REPRESENTATION_RELATIONSHIP(' ',' ',#49,#481) ;
#56=CYLINDRICAL_SURFACE('generated cylinder',#55,6.5) ;
#213=CYLINDRICAL_SURFACE('generated cylinder',#212,10.75) ;
#356=CYLINDRICAL_SURFACE('generated cylinder',#355,8.5) ;
#156=TOROIDAL_SURFACE('homeo Torus',#155,10.25,0.5) ;
#256=TOROIDAL_SURFACE('homeo Torus',#255,10.25,0.5) ;
#299=TOROIDAL_SURFACE('homeo Torus',#298,9.,0.5) ;
#3=DESIGN_CONTEXT(' ',#1,'design') ;
#65=EDGE_CURVE('',#62,#64,#60,.T.) ;
#72=EDGE_CURVE('',#62,#71,#69,.T.) ;
#79=EDGE_CURVE('',#71,#78,#76,.T.) ;
#84=EDGE_CURVE('',#64,#78,#83,.T.) ;
#96=EDGE_CURVE('',#64,#62,#95,.T.) ;
#101=EDGE_CURVE('',#78,#71,#100,.T.) ;
#120=EDGE_CURVE('',#71,#119,#117,.T.) ;
#127=EDGE_CURVE('',#119,#126,#124,.T.) ;
#132=EDGE_CURVE('',#78,#126,#131,.T.) ;
#144=EDGE_CURVE('',#126,#119,#143,.T.) ;
#165=EDGE_CURVE('',#162,#164,#160,.T.) ;
#172=EDGE_CURVE('',#162,#171,#169,.F.) ;
#179=EDGE_CURVE('',#171,#178,#176,.T.) ;
#184=EDGE_CURVE('',#164,#178,#183,.F.) ;
#196=EDGE_CURVE('',#164,#162,#195,.T.) ;
#201=EDGE_CURVE('',#178,#171,#200,.T.) ;
#220=EDGE_CURVE('',#171,#219,#217,.F.) ;
#227=EDGE_CURVE('',#219,#226,#224,.T.) ;
#232=EDGE_CURVE('',#178,#226,#231,.F.) ;
#244=EDGE_CURVE('',#226,#219,#243,.T.) ;
#263=EDGE_CURVE('',#219,#262,#260,.F.) ;
#270=EDGE_CURVE('',#262,#269,#267,.T.) ;
#275=EDGE_CURVE('',#226,#269,#274,.F.) ;
#287=EDGE_CURVE('',#269,#262,#286,.T.) ;
#308=EDGE_CURVE('',#305,#307,#303,.T.) ;
#315=EDGE_CURVE('',#305,#314,#312,.T.) ;
#322=EDGE_CURVE('',#314,#321,#319,.T.) ;
#327=EDGE_CURVE('',#307,#321,#326,.T.) ;
#339=EDGE_CURVE('',#307,#305,#338,.T.) ;
#344=EDGE_CURVE('',#321,#314,#343,.T.) ;
#363=EDGE_CURVE('',#314,#362,#360,.F.) ;
#370=EDGE_CURVE('',#362,#369,#367,.T.) ;
#375=EDGE_CURVE('',#321,#369,#374,.F.) ;
#387=EDGE_CURVE('',#369,#362,#386,.T.) ;
#406=EDGE_CURVE('',#362,#405,#403,.F.) ;
#413=EDGE_CURVE('',#405,#412,#410,.T.) ;
#418=EDGE_CURVE('',#369,#412,#417,.F.) ;
#430=EDGE_CURVE('',#412,#405,#429,.T.) ;
#85=EDGE_LOOP('',(#86,#87,#88,#89)) ;
#102=EDGE_LOOP('',(#103,#104,#105,#106)) ;
#133=EDGE_LOOP('',(#134,#135,#136,#137)) ;
#145=EDGE_LOOP('',(#146,#147,#148,#149)) ;
#185=EDGE_LOOP('',(#186,#187,#188,#189)) ;
#202=EDGE_LOOP('',(#203,#204,#205,#206)) ;
#233=EDGE_LOOP('',(#234,#235,#236,#237)) ;
#245=EDGE_LOOP('',(#246,#247,#248,#249)) ;
#276=EDGE_LOOP('',(#277,#278,#279,#280)) ;
#288=EDGE_LOOP('',(#289,#290,#291,#292)) ;
#328=EDGE_LOOP('',(#329,#330,#331,#332)) ;
#345=EDGE_LOOP('',(#346,#347,#348,#349)) ;
#376=EDGE_LOOP('',(#377,#378,#379,#380)) ;
#388=EDGE_LOOP('',(#389,#390,#391,#392)) ;
#419=EDGE_LOOP('',(#420,#421,#422,#423)) ;
#431=EDGE_LOOP('',(#432,#433,#434,#435)) ;
#443=EDGE_LOOP('',(#444,#445)) ;
#447=EDGE_LOOP('',(#448,#449)) ;
#457=EDGE_LOOP('',(#458,#459)) ;
#461=EDGE_LOOP('',(#462,#463)) ;
#471=EDGE_LOOP('',(#472,#473)) ;
#475=EDGE_LOOP('',(#476,#477)) ;
#90=FACE_OUTER_BOUND('',#85,.T.) ;
#107=FACE_OUTER_BOUND('',#102,.T.) ;
#138=FACE_OUTER_BOUND('',#133,.T.) ;
#150=FACE_OUTER_BOUND('',#145,.T.) ;
#190=FACE_OUTER_BOUND('',#185,.T.) ;
#207=FACE_OUTER_BOUND('',#202,.T.) ;
#238=FACE_OUTER_BOUND('',#233,.T.) ;
#250=FACE_OUTER_BOUND('',#245,.T.) ;
#281=FACE_OUTER_BOUND('',#276,.T.) ;
#293=FACE_OUTER_BOUND('',#288,.T.) ;
#333=FACE_OUTER_BOUND('',#328,.T.) ;
#350=FACE_OUTER_BOUND('',#345,.T.) ;
#381=FACE_OUTER_BOUND('',#376,.T.) ;
#393=FACE_OUTER_BOUND('',#388,.T.) ;
#424=FACE_OUTER_BOUND('',#419,.T.) ;
#436=FACE_OUTER_BOUND('',#431,.T.) ;
#446=FACE_OUTER_BOUND('',#443,.T.) ;
#460=FACE_OUTER_BOUND('',#457,.T.) ;
#474=FACE_OUTER_BOUND('',#471,.T.) ;
#45=UNCERTAINTY_MEASURE_WITH_UNIT(LENGTH_MEASURE(0.005),#41,'distance_accuracy_value','CONFUSED CURVE UNCERTAINTY') ;
#69=LINE('Line',#66,#68) ;
#83=LINE('Line',#80,#82) ;
#117=LINE('Line',#114,#116) ;
#131=LINE('Line',#128,#130) ;
#217=LINE('Line',#214,#216) ;
#231=LINE('Line',#228,#230) ;
#360=LINE('Line',#357,#359) ;
#374=LINE('Line',#371,#373) ;
#403=LINE('Line',#400,#402) ;
#417=LINE('Line',#414,#416) ;
#2=MECHANICAL_CONTEXT(' ',#1,'mechanical') ;
#24=PERSONAL_ADDRESS(' ',' ',' ',' ',' ',' ',' ',' ',' ',' ',' ',' ',(#22),' ') ;
#442=PLANE('',#441) ;
#456=PLANE('',#455) ;
#470=PLANE('',#469) ;
#43=PLANE_ANGLE_MEASURE_WITH_UNIT(PLANE_ANGLE_MEASURE(0.0174532925199),#42) ;
#7=PRODUCT_CATEGORY('part',$) ;
#9=PRODUCT_CATEGORY_RELATIONSHIP(' ',' ',#7,#8) ;
#6=PRODUCT_DEFINITION_FORMATION_WITH_SPECIFIED_SOURCE('',' ',#5,.NOT_KNOWN.) ;
#8=PRODUCT_RELATED_PRODUCT_CATEGORY('detail',$,(#5)) ;
#50=SHAPE_DEFINITION_REPRESENTATION(#40,#49) ;
#62=VERTEX_POINT('',#61) ;
#64=VERTEX_POINT('',#63) ;
#71=VERTEX_POINT('',#70) ;
#78=VERTEX_POINT('',#77) ;
#119=VERTEX_POINT('',#118) ;
#126=VERTEX_POINT('',#125) ;
#162=VERTEX_POINT('',#161) ;
#164=VERTEX_POINT('',#163) ;
#171=VERTEX_POINT('',#170) ;
#178=VERTEX_POINT('',#177) ;
#219=VERTEX_POINT('',#218) ;
#226=VERTEX_POINT('',#225) ;
#262=VERTEX_POINT('',#261) ;
#269=VERTEX_POINT('',#268) ;
#305=VERTEX_POINT('',#304) ;
#307=VERTEX_POINT('',#306) ;
#314=VERTEX_POINT('',#313) ;
#321=VERTEX_POINT('',#320) ;
#362=VERTEX_POINT('',#361) ;
#369=VERTEX_POINT('',#368) ;
#405=VERTEX_POINT('',#404) ;
#412=VERTEX_POINT('',#411) ;
#41=(LENGTH_UNIT()NAMED_UNIT(*)SI_UNIT(.MILLI.,.METRE.)) ;
#42=(NAMED_UNIT(*)PLANE_ANGLE_UNIT()SI_UNIT($,.RADIAN.)) ;
#44=(NAMED_UNIT(*)SI_UNIT($,.STERADIAN.)SOLID_ANGLE_UNIT()) ;
#46=(GEOMETRIC_REPRESENTATION_CONTEXT(3)GLOBAL_UNCERTAINTY_ASSIGNED_CONTEXT((#45))GLOBAL_UNIT_ASSIGNED_CONTEXT((#41,#42,#44))REPRESENTATION_CONTEXT(' ',' ')) ;
ENDSEC;
END-ISO-10303-21;
