ISO-10303-21;
HEADER;
/* Generated by software containing ST-Developer
 * from STEP Tools, Inc. (www.steptools.com) 
 */

FILE_DESCRIPTION(
/* description */ (''),
/* implementation_level */ '2;1');

FILE_NAME(
/* name */ 'D:\\Artisanat\\AutoDesk\\Travaux\\Baliste\\carter\\carter.
stp',
/* time_stamp */ '2020-04-28T02:31:58-07:00',
/* author */ ('elfem'),
/* organization */ (''),
/* preprocessor_version */ 'ST-DEVELOPER v16.13',
/* originating_system */ 'Autodesk Inventor 2018',
/* authorisation */ '');

FILE_SCHEMA (('AUTOMOTIVE_DESIGN { 1 0 10303 214 3 1 1 }'));
ENDSEC;

DATA;
#10=MECHANICAL_DESIGN_GEOMETRIC_PRESENTATION_REPRESENTATION('',(#13),#585);
#11=SHAPE_REPRESENTATION_RELATIONSHIP('SRR','None',#592,#12);
#12=ADVANCED_BREP_SHAPE_REPRESENTATION('',(#14),#584);
#13=STYLED_ITEM('',(#601),#14);
#14=MANIFOLD_SOLID_BREP('Solide1',#359);
#15=FACE_OUTER_BOUND('',#33,.T.);
#16=FACE_OUTER_BOUND('',#34,.T.);
#17=FACE_OUTER_BOUND('',#35,.T.);
#18=FACE_OUTER_BOUND('',#36,.T.);
#19=FACE_OUTER_BOUND('',#37,.T.);
#20=FACE_OUTER_BOUND('',#38,.T.);
#21=FACE_OUTER_BOUND('',#39,.T.);
#22=FACE_OUTER_BOUND('',#40,.T.);
#23=FACE_OUTER_BOUND('',#41,.T.);
#24=FACE_OUTER_BOUND('',#42,.T.);
#25=FACE_OUTER_BOUND('',#43,.T.);
#26=FACE_OUTER_BOUND('',#44,.T.);
#27=FACE_OUTER_BOUND('',#45,.T.);
#28=FACE_OUTER_BOUND('',#46,.T.);
#29=FACE_OUTER_BOUND('',#47,.T.);
#30=FACE_OUTER_BOUND('',#48,.T.);
#31=FACE_OUTER_BOUND('',#49,.T.);
#32=FACE_OUTER_BOUND('',#50,.T.);
#33=EDGE_LOOP('',(#227,#228,#229,#230));
#34=EDGE_LOOP('',(#231,#232,#233,#234));
#35=EDGE_LOOP('',(#235,#236,#237,#238));
#36=EDGE_LOOP('',(#239,#240,#241,#242));
#37=EDGE_LOOP('',(#243,#244,#245,#246));
#38=EDGE_LOOP('',(#247,#248,#249,#250));
#39=EDGE_LOOP('',(#251,#252,#253,#254));
#40=EDGE_LOOP('',(#255,#256,#257,#258));
#41=EDGE_LOOP('',(#259,#260,#261,#262,#263,#264,#265,#266,#267,#268,#269,
#270));
#42=EDGE_LOOP('',(#271,#272,#273,#274,#275,#276,#277,#278));
#43=EDGE_LOOP('',(#279,#280,#281,#282));
#44=EDGE_LOOP('',(#283,#284,#285,#286));
#45=EDGE_LOOP('',(#287,#288,#289,#290));
#46=EDGE_LOOP('',(#291,#292,#293,#294));
#47=EDGE_LOOP('',(#295,#296,#297,#298,#299,#300,#301,#302));
#48=EDGE_LOOP('',(#303,#304,#305,#306));
#49=EDGE_LOOP('',(#307,#308,#309,#310,#311,#312,#313,#314));
#50=EDGE_LOOP('',(#315,#316,#317,#318,#319,#320,#321,#322));
#51=LINE('',#487,#99);
#52=LINE('',#489,#100);
#53=LINE('',#491,#101);
#54=LINE('',#492,#102);
#55=LINE('',#496,#103);
#56=LINE('',#498,#104);
#57=LINE('',#500,#105);
#58=LINE('',#501,#106);
#59=LINE('',#505,#107);
#60=LINE('',#507,#108);
#61=LINE('',#509,#109);
#62=LINE('',#510,#110);
#63=LINE('',#514,#111);
#64=LINE('',#516,#112);
#65=LINE('',#518,#113);
#66=LINE('',#519,#114);
#67=LINE('',#522,#115);
#68=LINE('',#524,#116);
#69=LINE('',#525,#117);
#70=LINE('',#528,#118);
#71=LINE('',#530,#119);
#72=LINE('',#531,#120);
#73=LINE('',#534,#121);
#74=LINE('',#535,#122);
#75=LINE('',#538,#123);
#76=LINE('',#539,#124);
#77=LINE('',#542,#125);
#78=LINE('',#543,#126);
#79=LINE('',#544,#127);
#80=LINE('',#546,#128);
#81=LINE('',#547,#129);
#82=LINE('',#548,#130);
#83=LINE('',#551,#131);
#84=LINE('',#553,#132);
#85=LINE('',#555,#133);
#86=LINE('',#557,#134);
#87=LINE('',#558,#135);
#88=LINE('',#561,#136);
#89=LINE('',#562,#137);
#90=LINE('',#565,#138);
#91=LINE('',#566,#139);
#92=LINE('',#568,#140);
#93=LINE('',#570,#141);
#94=LINE('',#573,#142);
#95=LINE('',#575,#143);
#96=LINE('',#576,#144);
#97=LINE('',#578,#145);
#98=LINE('',#579,#146);
#99=VECTOR('',#401,10.);
#100=VECTOR('',#402,10.);
#101=VECTOR('',#403,10.);
#102=VECTOR('',#404,10.);
#103=VECTOR('',#407,10.);
#104=VECTOR('',#408,10.);
#105=VECTOR('',#409,10.);
#106=VECTOR('',#410,10.);
#107=VECTOR('',#413,10.);
#108=VECTOR('',#414,10.);
#109=VECTOR('',#415,10.);
#110=VECTOR('',#416,10.);
#111=VECTOR('',#419,10.);
#112=VECTOR('',#420,10.);
#113=VECTOR('',#421,10.);
#114=VECTOR('',#422,10.);
#115=VECTOR('',#425,10.);
#116=VECTOR('',#426,10.);
#117=VECTOR('',#427,10.);
#118=VECTOR('',#430,10.);
#119=VECTOR('',#431,10.);
#120=VECTOR('',#432,10.);
#121=VECTOR('',#435,10.);
#122=VECTOR('',#436,10.);
#123=VECTOR('',#439,10.);
#124=VECTOR('',#440,10.);
#125=VECTOR('',#443,10.);
#126=VECTOR('',#444,10.);
#127=VECTOR('',#445,10.);
#128=VECTOR('',#446,10.);
#129=VECTOR('',#447,10.);
#130=VECTOR('',#448,10.);
#131=VECTOR('',#451,10.);
#132=VECTOR('',#452,10.);
#133=VECTOR('',#453,10.);
#134=VECTOR('',#454,10.);
#135=VECTOR('',#455,10.);
#136=VECTOR('',#458,10.);
#137=VECTOR('',#459,10.);
#138=VECTOR('',#462,10.);
#139=VECTOR('',#463,10.);
#140=VECTOR('',#466,10.);
#141=VECTOR('',#469,10.);
#142=VECTOR('',#472,10.);
#143=VECTOR('',#473,10.);
#144=VECTOR('',#474,10.);
#145=VECTOR('',#477,10.);
#146=VECTOR('',#478,10.);
#147=VERTEX_POINT('',#485);
#148=VERTEX_POINT('',#486);
#149=VERTEX_POINT('',#488);
#150=VERTEX_POINT('',#490);
#151=VERTEX_POINT('',#494);
#152=VERTEX_POINT('',#495);
#153=VERTEX_POINT('',#497);
#154=VERTEX_POINT('',#499);
#155=VERTEX_POINT('',#503);
#156=VERTEX_POINT('',#504);
#157=VERTEX_POINT('',#506);
#158=VERTEX_POINT('',#508);
#159=VERTEX_POINT('',#512);
#160=VERTEX_POINT('',#513);
#161=VERTEX_POINT('',#515);
#162=VERTEX_POINT('',#517);
#163=VERTEX_POINT('',#521);
#164=VERTEX_POINT('',#523);
#165=VERTEX_POINT('',#527);
#166=VERTEX_POINT('',#529);
#167=VERTEX_POINT('',#533);
#168=VERTEX_POINT('',#537);
#169=VERTEX_POINT('',#541);
#170=VERTEX_POINT('',#545);
#171=VERTEX_POINT('',#550);
#172=VERTEX_POINT('',#552);
#173=VERTEX_POINT('',#554);
#174=VERTEX_POINT('',#556);
#175=VERTEX_POINT('',#560);
#176=VERTEX_POINT('',#564);
#177=VERTEX_POINT('',#572);
#178=VERTEX_POINT('',#574);
#179=EDGE_CURVE('',#147,#148,#51,.T.);
#180=EDGE_CURVE('',#147,#149,#52,.T.);
#181=EDGE_CURVE('',#150,#149,#53,.T.);
#182=EDGE_CURVE('',#148,#150,#54,.T.);
#183=EDGE_CURVE('',#151,#152,#55,.T.);
#184=EDGE_CURVE('',#153,#151,#56,.T.);
#185=EDGE_CURVE('',#154,#153,#57,.T.);
#186=EDGE_CURVE('',#154,#152,#58,.T.);
#187=EDGE_CURVE('',#155,#156,#59,.T.);
#188=EDGE_CURVE('',#157,#155,#60,.T.);
#189=EDGE_CURVE('',#158,#157,#61,.T.);
#190=EDGE_CURVE('',#156,#158,#62,.T.);
#191=EDGE_CURVE('',#159,#160,#63,.T.);
#192=EDGE_CURVE('',#161,#159,#64,.T.);
#193=EDGE_CURVE('',#162,#161,#65,.T.);
#194=EDGE_CURVE('',#160,#162,#66,.T.);
#195=EDGE_CURVE('',#163,#162,#67,.T.);
#196=EDGE_CURVE('',#164,#163,#68,.T.);
#197=EDGE_CURVE('',#164,#160,#69,.T.);
#198=EDGE_CURVE('',#151,#165,#70,.T.);
#199=EDGE_CURVE('',#166,#165,#71,.T.);
#200=EDGE_CURVE('',#153,#166,#72,.T.);
#201=EDGE_CURVE('',#167,#164,#73,.T.);
#202=EDGE_CURVE('',#167,#159,#74,.T.);
#203=EDGE_CURVE('',#152,#168,#75,.T.);
#204=EDGE_CURVE('',#165,#168,#76,.T.);
#205=EDGE_CURVE('',#147,#169,#77,.T.);
#206=EDGE_CURVE('',#168,#169,#78,.T.);
#207=EDGE_CURVE('',#161,#154,#79,.T.);
#208=EDGE_CURVE('',#170,#167,#80,.T.);
#209=EDGE_CURVE('',#170,#156,#81,.T.);
#210=EDGE_CURVE('',#149,#158,#82,.T.);
#211=EDGE_CURVE('',#171,#157,#83,.T.);
#212=EDGE_CURVE('',#172,#171,#84,.T.);
#213=EDGE_CURVE('',#172,#173,#85,.T.);
#214=EDGE_CURVE('',#174,#173,#86,.T.);
#215=EDGE_CURVE('',#150,#174,#87,.T.);
#216=EDGE_CURVE('',#175,#170,#88,.T.);
#217=EDGE_CURVE('',#175,#155,#89,.T.);
#218=EDGE_CURVE('',#148,#176,#90,.T.);
#219=EDGE_CURVE('',#169,#176,#91,.T.);
#220=EDGE_CURVE('',#171,#175,#92,.T.);
#221=EDGE_CURVE('',#176,#174,#93,.T.);
#222=EDGE_CURVE('',#177,#166,#94,.T.);
#223=EDGE_CURVE('',#178,#177,#95,.T.);
#224=EDGE_CURVE('',#163,#178,#96,.T.);
#225=EDGE_CURVE('',#178,#172,#97,.T.);
#226=EDGE_CURVE('',#173,#177,#98,.T.);
#227=ORIENTED_EDGE('',*,*,#179,.F.);
#228=ORIENTED_EDGE('',*,*,#180,.T.);
#229=ORIENTED_EDGE('',*,*,#181,.F.);
#230=ORIENTED_EDGE('',*,*,#182,.F.);
#231=ORIENTED_EDGE('',*,*,#183,.F.);
#232=ORIENTED_EDGE('',*,*,#184,.F.);
#233=ORIENTED_EDGE('',*,*,#185,.F.);
#234=ORIENTED_EDGE('',*,*,#186,.T.);
#235=ORIENTED_EDGE('',*,*,#187,.F.);
#236=ORIENTED_EDGE('',*,*,#188,.F.);
#237=ORIENTED_EDGE('',*,*,#189,.F.);
#238=ORIENTED_EDGE('',*,*,#190,.F.);
#239=ORIENTED_EDGE('',*,*,#191,.F.);
#240=ORIENTED_EDGE('',*,*,#192,.F.);
#241=ORIENTED_EDGE('',*,*,#193,.F.);
#242=ORIENTED_EDGE('',*,*,#194,.F.);
#243=ORIENTED_EDGE('',*,*,#194,.T.);
#244=ORIENTED_EDGE('',*,*,#195,.F.);
#245=ORIENTED_EDGE('',*,*,#196,.F.);
#246=ORIENTED_EDGE('',*,*,#197,.T.);
#247=ORIENTED_EDGE('',*,*,#184,.T.);
#248=ORIENTED_EDGE('',*,*,#198,.T.);
#249=ORIENTED_EDGE('',*,*,#199,.F.);
#250=ORIENTED_EDGE('',*,*,#200,.F.);
#251=ORIENTED_EDGE('',*,*,#191,.T.);
#252=ORIENTED_EDGE('',*,*,#197,.F.);
#253=ORIENTED_EDGE('',*,*,#201,.F.);
#254=ORIENTED_EDGE('',*,*,#202,.T.);
#255=ORIENTED_EDGE('',*,*,#183,.T.);
#256=ORIENTED_EDGE('',*,*,#203,.T.);
#257=ORIENTED_EDGE('',*,*,#204,.F.);
#258=ORIENTED_EDGE('',*,*,#198,.F.);
#259=ORIENTED_EDGE('',*,*,#205,.T.);
#260=ORIENTED_EDGE('',*,*,#206,.F.);
#261=ORIENTED_EDGE('',*,*,#203,.F.);
#262=ORIENTED_EDGE('',*,*,#186,.F.);
#263=ORIENTED_EDGE('',*,*,#207,.F.);
#264=ORIENTED_EDGE('',*,*,#192,.T.);
#265=ORIENTED_EDGE('',*,*,#202,.F.);
#266=ORIENTED_EDGE('',*,*,#208,.F.);
#267=ORIENTED_EDGE('',*,*,#209,.T.);
#268=ORIENTED_EDGE('',*,*,#190,.T.);
#269=ORIENTED_EDGE('',*,*,#210,.F.);
#270=ORIENTED_EDGE('',*,*,#180,.F.);
#271=ORIENTED_EDGE('',*,*,#181,.T.);
#272=ORIENTED_EDGE('',*,*,#210,.T.);
#273=ORIENTED_EDGE('',*,*,#189,.T.);
#274=ORIENTED_EDGE('',*,*,#211,.F.);
#275=ORIENTED_EDGE('',*,*,#212,.F.);
#276=ORIENTED_EDGE('',*,*,#213,.T.);
#277=ORIENTED_EDGE('',*,*,#214,.F.);
#278=ORIENTED_EDGE('',*,*,#215,.F.);
#279=ORIENTED_EDGE('',*,*,#187,.T.);
#280=ORIENTED_EDGE('',*,*,#209,.F.);
#281=ORIENTED_EDGE('',*,*,#216,.F.);
#282=ORIENTED_EDGE('',*,*,#217,.T.);
#283=ORIENTED_EDGE('',*,*,#179,.T.);
#284=ORIENTED_EDGE('',*,*,#218,.T.);
#285=ORIENTED_EDGE('',*,*,#219,.F.);
#286=ORIENTED_EDGE('',*,*,#205,.F.);
#287=ORIENTED_EDGE('',*,*,#188,.T.);
#288=ORIENTED_EDGE('',*,*,#217,.F.);
#289=ORIENTED_EDGE('',*,*,#220,.F.);
#290=ORIENTED_EDGE('',*,*,#211,.T.);
#291=ORIENTED_EDGE('',*,*,#182,.T.);
#292=ORIENTED_EDGE('',*,*,#215,.T.);
#293=ORIENTED_EDGE('',*,*,#221,.F.);
#294=ORIENTED_EDGE('',*,*,#218,.F.);
#295=ORIENTED_EDGE('',*,*,#185,.T.);
#296=ORIENTED_EDGE('',*,*,#200,.T.);
#297=ORIENTED_EDGE('',*,*,#222,.F.);
#298=ORIENTED_EDGE('',*,*,#223,.F.);
#299=ORIENTED_EDGE('',*,*,#224,.F.);
#300=ORIENTED_EDGE('',*,*,#195,.T.);
#301=ORIENTED_EDGE('',*,*,#193,.T.);
#302=ORIENTED_EDGE('',*,*,#207,.T.);
#303=ORIENTED_EDGE('',*,*,#225,.F.);
#304=ORIENTED_EDGE('',*,*,#223,.T.);
#305=ORIENTED_EDGE('',*,*,#226,.F.);
#306=ORIENTED_EDGE('',*,*,#213,.F.);
#307=ORIENTED_EDGE('',*,*,#212,.T.);
#308=ORIENTED_EDGE('',*,*,#220,.T.);
#309=ORIENTED_EDGE('',*,*,#216,.T.);
#310=ORIENTED_EDGE('',*,*,#208,.T.);
#311=ORIENTED_EDGE('',*,*,#201,.T.);
#312=ORIENTED_EDGE('',*,*,#196,.T.);
#313=ORIENTED_EDGE('',*,*,#224,.T.);
#314=ORIENTED_EDGE('',*,*,#225,.T.);
#315=ORIENTED_EDGE('',*,*,#214,.T.);
#316=ORIENTED_EDGE('',*,*,#226,.T.);
#317=ORIENTED_EDGE('',*,*,#222,.T.);
#318=ORIENTED_EDGE('',*,*,#199,.T.);
#319=ORIENTED_EDGE('',*,*,#204,.T.);
#320=ORIENTED_EDGE('',*,*,#206,.T.);
#321=ORIENTED_EDGE('',*,*,#219,.T.);
#322=ORIENTED_EDGE('',*,*,#221,.T.);
#323=PLANE('',#379);
#324=PLANE('',#380);
#325=PLANE('',#381);
#326=PLANE('',#382);
#327=PLANE('',#383);
#328=PLANE('',#384);
#329=PLANE('',#385);
#330=PLANE('',#386);
#331=PLANE('',#387);
#332=PLANE('',#388);
#333=PLANE('',#389);
#334=PLANE('',#390);
#335=PLANE('',#391);
#336=PLANE('',#392);
#337=PLANE('',#393);
#338=PLANE('',#394);
#339=PLANE('',#395);
#340=PLANE('',#396);
#341=ADVANCED_FACE('',(#15),#323,.F.);
#342=ADVANCED_FACE('',(#16),#324,.F.);
#343=ADVANCED_FACE('',(#17),#325,.F.);
#344=ADVANCED_FACE('',(#18),#326,.F.);
#345=ADVANCED_FACE('',(#19),#327,.T.);
#346=ADVANCED_FACE('',(#20),#328,.T.);
#347=ADVANCED_FACE('',(#21),#329,.T.);
#348=ADVANCED_FACE('',(#22),#330,.T.);
#349=ADVANCED_FACE('',(#23),#331,.T.);
#350=ADVANCED_FACE('',(#24),#332,.T.);
#351=ADVANCED_FACE('',(#25),#333,.T.);
#352=ADVANCED_FACE('',(#26),#334,.T.);
#353=ADVANCED_FACE('',(#27),#335,.T.);
#354=ADVANCED_FACE('',(#28),#336,.T.);
#355=ADVANCED_FACE('',(#29),#337,.T.);
#356=ADVANCED_FACE('',(#30),#338,.T.);
#357=ADVANCED_FACE('',(#31),#339,.F.);
#358=ADVANCED_FACE('',(#32),#340,.T.);
#359=CLOSED_SHELL('',(#341,#342,#343,#344,#345,#346,#347,#348,#349,#350,
#351,#352,#353,#354,#355,#356,#357,#358));
#360=DERIVED_UNIT_ELEMENT(#362,0.);
#361=DERIVED_UNIT_ELEMENT(#587,0.);
#362=(
MASS_UNIT()
NAMED_UNIT(*)
SI_UNIT($,.GRAM.)
);
#363=DERIVED_UNIT((#360,#361));
#364=MEASURE_REPRESENTATION_ITEM('density measure',
POSITIVE_RATIO_MEASURE(1.),#363);
#365=PROPERTY_DEFINITION_REPRESENTATION(#370,#367);
#366=PROPERTY_DEFINITION_REPRESENTATION(#371,#368);
#367=REPRESENTATION('material name',(#369),#584);
#368=REPRESENTATION('density',(#364),#584);
#369=DESCRIPTIVE_REPRESENTATION_ITEM('G\X\E9n\X\E9rique','G\X\E9n\X\E9
rique');
#370=PROPERTY_DEFINITION('material property','material name',#594);
#371=PROPERTY_DEFINITION('material property','density of part',#594);
#372=DATE_TIME_ROLE('creation_date');
#373=APPLIED_DATE_AND_TIME_ASSIGNMENT(#374,#372,(#594));
#374=DATE_AND_TIME(#375,#376);
#375=CALENDAR_DATE(2020,28,4);
#376=LOCAL_TIME(9,0,3.,#377);
#377=COORDINATED_UNIVERSAL_TIME_OFFSET(0,0,.BEHIND.);
#378=AXIS2_PLACEMENT_3D('placement',#483,#397,#398);
#379=AXIS2_PLACEMENT_3D('',#484,#399,#400);
#380=AXIS2_PLACEMENT_3D('',#493,#405,#406);
#381=AXIS2_PLACEMENT_3D('',#502,#411,#412);
#382=AXIS2_PLACEMENT_3D('',#511,#417,#418);
#383=AXIS2_PLACEMENT_3D('',#520,#423,#424);
#384=AXIS2_PLACEMENT_3D('',#526,#428,#429);
#385=AXIS2_PLACEMENT_3D('',#532,#433,#434);
#386=AXIS2_PLACEMENT_3D('',#536,#437,#438);
#387=AXIS2_PLACEMENT_3D('',#540,#441,#442);
#388=AXIS2_PLACEMENT_3D('',#549,#449,#450);
#389=AXIS2_PLACEMENT_3D('',#559,#456,#457);
#390=AXIS2_PLACEMENT_3D('',#563,#460,#461);
#391=AXIS2_PLACEMENT_3D('',#567,#464,#465);
#392=AXIS2_PLACEMENT_3D('',#569,#467,#468);
#393=AXIS2_PLACEMENT_3D('',#571,#470,#471);
#394=AXIS2_PLACEMENT_3D('',#577,#475,#476);
#395=AXIS2_PLACEMENT_3D('',#580,#479,#480);
#396=AXIS2_PLACEMENT_3D('',#581,#481,#482);
#397=DIRECTION('axis',(0.,0.,1.));
#398=DIRECTION('refdir',(1.,0.,0.));
#399=DIRECTION('center_axis',(0.,-1.48029736616688E-16,1.));
#400=DIRECTION('ref_axis',(-1.11022302462516E-16,1.,1.48029736616688E-16));
#401=DIRECTION('',(-4.07081775695891E-16,1.,1.48029736616688E-16));
#402=DIRECTION('',(-1.,0.,0.));
#403=DIRECTION('',(0.,-1.,-1.48029736616688E-16));
#404=DIRECTION('',(-1.,0.,0.));
#405=DIRECTION('center_axis',(0.,-1.48029736616688E-16,1.));
#406=DIRECTION('ref_axis',(-1.11022302462516E-16,1.,1.48029736616688E-16));
#407=DIRECTION('',(2.96059473233375E-16,-1.,-1.48029736616688E-16));
#408=DIRECTION('',(-1.,9.86864910777918E-16,1.46085352818706E-31));
#409=DIRECTION('',(-1.11022302462516E-16,1.,1.48029736616688E-16));
#410=DIRECTION('',(-1.,0.,0.));
#411=DIRECTION('center_axis',(0.,0.,-1.));
#412=DIRECTION('ref_axis',(1.11022302462516E-16,-1.,0.));
#413=DIRECTION('',(4.07081775695891E-16,-1.,0.));
#414=DIRECTION('',(1.,0.,0.));
#415=DIRECTION('',(0.,1.,0.));
#416=DIRECTION('',(-1.,0.,0.));
#417=DIRECTION('center_axis',(0.,0.,-1.));
#418=DIRECTION('ref_axis',(1.11022302462516E-16,-1.,0.));
#419=DIRECTION('',(-2.96059473233375E-16,1.,0.));
#420=DIRECTION('',(-1.,0.,0.));
#421=DIRECTION('',(1.11022302462516E-16,-1.,0.));
#422=DIRECTION('',(1.,-9.86864910777918E-16,0.));
#423=DIRECTION('center_axis',(9.86864910777918E-16,1.,0.));
#424=DIRECTION('ref_axis',(-1.,9.86864910777918E-16,0.));
#425=DIRECTION('',(0.,0.,1.));
#426=DIRECTION('',(1.,-9.86864910777918E-16,0.));
#427=DIRECTION('',(0.,0.,1.));
#428=DIRECTION('center_axis',(9.86864910777918E-16,1.,0.));
#429=DIRECTION('ref_axis',(-1.,9.86864910777918E-16,0.));
#430=DIRECTION('',(0.,0.,1.));
#431=DIRECTION('',(-1.,9.86864910777918E-16,0.));
#432=DIRECTION('',(0.,0.,1.));
#433=DIRECTION('center_axis',(-1.,-2.96059473233375E-16,0.));
#434=DIRECTION('ref_axis',(2.96059473233375E-16,-1.,0.));
#435=DIRECTION('',(-2.96059473233375E-16,1.,0.));
#436=DIRECTION('',(0.,0.,1.));
#437=DIRECTION('center_axis',(-1.,-2.96059473233375E-16,0.));
#438=DIRECTION('ref_axis',(2.96059473233375E-16,-1.,0.));
#439=DIRECTION('',(0.,0.,1.));
#440=DIRECTION('',(2.96059473233375E-16,-1.,0.));
#441=DIRECTION('center_axis',(-2.96059473233375E-16,1.,0.));
#442=DIRECTION('ref_axis',(-1.,-2.96059473233375E-16,0.));
#443=DIRECTION('',(0.,0.,1.));
#444=DIRECTION('',(-1.,-2.96059473233375E-16,0.));
#445=DIRECTION('',(0.,0.,1.));
#446=DIRECTION('',(1.,2.96059473233375E-16,0.));
#447=DIRECTION('',(0.,0.,1.));
#448=DIRECTION('',(0.,0.,-1.));
#449=DIRECTION('center_axis',(-1.,0.,0.));
#450=DIRECTION('ref_axis',(0.,-1.,0.));
#451=DIRECTION('',(0.,0.,1.));
#452=DIRECTION('',(0.,1.,0.));
#453=DIRECTION('',(0.,0.,1.));
#454=DIRECTION('',(0.,-1.,0.));
#455=DIRECTION('',(0.,0.,1.));
#456=DIRECTION('center_axis',(1.,4.07081775695891E-16,0.));
#457=DIRECTION('ref_axis',(-4.07081775695891E-16,1.,0.));
#458=DIRECTION('',(4.07081775695891E-16,-1.,0.));
#459=DIRECTION('',(0.,0.,1.));
#460=DIRECTION('center_axis',(1.,4.07081775695891E-16,0.));
#461=DIRECTION('ref_axis',(-4.07081775695891E-16,1.,0.));
#462=DIRECTION('',(0.,0.,1.));
#463=DIRECTION('',(-4.07081775695891E-16,1.,0.));
#464=DIRECTION('center_axis',(0.,1.,0.));
#465=DIRECTION('ref_axis',(-1.,0.,0.));
#466=DIRECTION('',(1.,0.,0.));
#467=DIRECTION('center_axis',(0.,1.,0.));
#468=DIRECTION('ref_axis',(-1.,0.,0.));
#469=DIRECTION('',(-1.,0.,0.));
#470=DIRECTION('center_axis',(1.,1.11022302462516E-16,0.));
#471=DIRECTION('ref_axis',(-1.11022302462516E-16,1.,0.));
#472=DIRECTION('',(-1.11022302462516E-16,1.,0.));
#473=DIRECTION('',(0.,0.,1.));
#474=DIRECTION('',(1.11022302462516E-16,-1.,0.));
#475=DIRECTION('center_axis',(1.83697019872103E-16,-1.,0.));
#476=DIRECTION('ref_axis',(1.,1.83697019872103E-16,0.));
#477=DIRECTION('',(-1.,-1.83697019872103E-16,0.));
#478=DIRECTION('',(1.,1.83697019872103E-16,0.));
#479=DIRECTION('center_axis',(0.,0.,1.));
#480=DIRECTION('ref_axis',(1.,0.,0.));
#481=DIRECTION('center_axis',(0.,0.,1.));
#482=DIRECTION('ref_axis',(1.,0.,0.));
#483=CARTESIAN_POINT('',(0.,0.,0.));
#484=CARTESIAN_POINT('Origin',(66.,20.,48.));
#485=CARTESIAN_POINT('',(18.,20.,48.));
#486=CARTESIAN_POINT('',(18.,80.,48.));
#487=CARTESIAN_POINT('',(18.,20.,48.));
#488=CARTESIAN_POINT('',(0.,20.,48.));
#489=CARTESIAN_POINT('',(66.,20.,48.));
#490=CARTESIAN_POINT('',(-8.88178419700125E-15,80.,48.));
#491=CARTESIAN_POINT('',(0.,50.,48.));
#492=CARTESIAN_POINT('',(42.,80.,48.));
#493=CARTESIAN_POINT('Origin',(66.,20.,48.));
#494=CARTESIAN_POINT('',(48.,80.,48.));
#495=CARTESIAN_POINT('',(48.,20.,48.));
#496=CARTESIAN_POINT('',(48.,50.,48.));
#497=CARTESIAN_POINT('',(66.,80.,48.));
#498=CARTESIAN_POINT('',(66.,80.,48.));
#499=CARTESIAN_POINT('',(66.,20.,48.));
#500=CARTESIAN_POINT('',(66.,10.,48.));
#501=CARTESIAN_POINT('',(66.,20.,48.));
#502=CARTESIAN_POINT('Origin',(66.,80.,18.));
#503=CARTESIAN_POINT('',(18.,80.,18.));
#504=CARTESIAN_POINT('',(18.,20.,18.));
#505=CARTESIAN_POINT('',(18.,50.,18.));
#506=CARTESIAN_POINT('',(-8.88178419700125E-15,80.,18.));
#507=CARTESIAN_POINT('',(42.,80.,18.));
#508=CARTESIAN_POINT('',(0.,20.,18.));
#509=CARTESIAN_POINT('',(0.,80.,18.));
#510=CARTESIAN_POINT('',(66.,20.,18.));
#511=CARTESIAN_POINT('Origin',(66.,80.,18.));
#512=CARTESIAN_POINT('',(48.,20.,18.));
#513=CARTESIAN_POINT('',(48.,80.,18.));
#514=CARTESIAN_POINT('',(48.,80.,18.));
#515=CARTESIAN_POINT('',(66.,20.,18.));
#516=CARTESIAN_POINT('',(66.,20.,18.));
#517=CARTESIAN_POINT('',(66.,80.,18.));
#518=CARTESIAN_POINT('',(66.,40.,18.));
#519=CARTESIAN_POINT('',(66.,80.,18.));
#520=CARTESIAN_POINT('Origin',(66.,80.,0.));
#521=CARTESIAN_POINT('',(66.,80.,0.));
#522=CARTESIAN_POINT('',(66.,80.,0.));
#523=CARTESIAN_POINT('',(48.,80.,0.));
#524=CARTESIAN_POINT('',(48.,80.,0.));
#525=CARTESIAN_POINT('',(48.,80.,0.));
#526=CARTESIAN_POINT('Origin',(66.,80.,0.));
#527=CARTESIAN_POINT('',(48.,80.,66.));
#528=CARTESIAN_POINT('',(48.,80.,0.));
#529=CARTESIAN_POINT('',(66.,80.,66.));
#530=CARTESIAN_POINT('',(48.,80.,66.));
#531=CARTESIAN_POINT('',(66.,80.,0.));
#532=CARTESIAN_POINT('Origin',(48.,80.,0.));
#533=CARTESIAN_POINT('',(48.,20.,0.));
#534=CARTESIAN_POINT('',(48.,20.,0.));
#535=CARTESIAN_POINT('',(48.,20.,0.));
#536=CARTESIAN_POINT('Origin',(48.,80.,0.));
#537=CARTESIAN_POINT('',(48.,20.,66.));
#538=CARTESIAN_POINT('',(48.,20.,0.));
#539=CARTESIAN_POINT('',(48.,20.,66.));
#540=CARTESIAN_POINT('Origin',(48.,20.,0.));
#541=CARTESIAN_POINT('',(18.,20.,66.));
#542=CARTESIAN_POINT('',(18.,20.,0.));
#543=CARTESIAN_POINT('',(18.,20.,66.));
#544=CARTESIAN_POINT('',(66.,20.,9.));
#545=CARTESIAN_POINT('',(18.,20.,0.));
#546=CARTESIAN_POINT('',(18.,20.,0.));
#547=CARTESIAN_POINT('',(18.,20.,0.));
#548=CARTESIAN_POINT('',(0.,20.,9.));
#549=CARTESIAN_POINT('Origin',(0.,80.,0.));
#550=CARTESIAN_POINT('',(0.,80.,0.));
#551=CARTESIAN_POINT('',(0.,80.,0.));
#552=CARTESIAN_POINT('',(0.,0.,0.));
#553=CARTESIAN_POINT('',(0.,0.,0.));
#554=CARTESIAN_POINT('',(0.,0.,66.));
#555=CARTESIAN_POINT('',(0.,0.,0.));
#556=CARTESIAN_POINT('',(0.,80.,66.));
#557=CARTESIAN_POINT('',(0.,0.,66.));
#558=CARTESIAN_POINT('',(0.,80.,0.));
#559=CARTESIAN_POINT('Origin',(18.,20.,0.));
#560=CARTESIAN_POINT('',(18.,80.,0.));
#561=CARTESIAN_POINT('',(18.,80.,0.));
#562=CARTESIAN_POINT('',(18.,80.,0.));
#563=CARTESIAN_POINT('Origin',(18.,20.,0.));
#564=CARTESIAN_POINT('',(18.,80.,66.));
#565=CARTESIAN_POINT('',(18.,80.,0.));
#566=CARTESIAN_POINT('',(18.,80.,66.));
#567=CARTESIAN_POINT('Origin',(18.,80.,0.));
#568=CARTESIAN_POINT('',(0.,80.,0.));
#569=CARTESIAN_POINT('Origin',(18.,80.,0.));
#570=CARTESIAN_POINT('',(0.,80.,66.));
#571=CARTESIAN_POINT('Origin',(66.,1.77635683940025E-14,0.));
#572=CARTESIAN_POINT('',(66.,1.21240033115588E-14,66.));
#573=CARTESIAN_POINT('',(66.,80.,66.));
#574=CARTESIAN_POINT('',(66.,1.21240033115588E-14,0.));
#575=CARTESIAN_POINT('',(66.,1.21240033115588E-14,0.));
#576=CARTESIAN_POINT('',(66.,80.,0.));
#577=CARTESIAN_POINT('Origin',(0.,0.,0.));
#578=CARTESIAN_POINT('',(66.,1.21240033115588E-14,0.));
#579=CARTESIAN_POINT('',(66.,1.21240033115588E-14,66.));
#580=CARTESIAN_POINT('Origin',(33.,38.5436893203884,0.));
#581=CARTESIAN_POINT('Origin',(33.,38.5436893203884,66.));
#582=UNCERTAINTY_MEASURE_WITH_UNIT(LENGTH_MEASURE(0.01),#586,
'DISTANCE_ACCURACY_VALUE',
'Maximum model space distance between geometric entities at asserted c
onnectivities');
#583=UNCERTAINTY_MEASURE_WITH_UNIT(LENGTH_MEASURE(0.01),#586,
'DISTANCE_ACCURACY_VALUE',
'Maximum model space distance between geometric entities at asserted c
onnectivities');
#584=(
GEOMETRIC_REPRESENTATION_CONTEXT(3)
GLOBAL_UNCERTAINTY_ASSIGNED_CONTEXT((#582))
GLOBAL_UNIT_ASSIGNED_CONTEXT((#586,#589,#588))
REPRESENTATION_CONTEXT('','3D')
);
#585=(
GEOMETRIC_REPRESENTATION_CONTEXT(3)
GLOBAL_UNCERTAINTY_ASSIGNED_CONTEXT((#583))
GLOBAL_UNIT_ASSIGNED_CONTEXT((#586,#589,#588))
REPRESENTATION_CONTEXT('','3D')
);
#586=(
LENGTH_UNIT()
NAMED_UNIT(*)
SI_UNIT(.MILLI.,.METRE.)
);
#587=(
LENGTH_UNIT()
NAMED_UNIT(*)
SI_UNIT(.CENTI.,.METRE.)
);
#588=(
NAMED_UNIT(*)
SI_UNIT($,.STERADIAN.)
SOLID_ANGLE_UNIT()
);
#589=(
NAMED_UNIT(*)
PLANE_ANGLE_UNIT()
SI_UNIT($,.RADIAN.)
);
#590=SHAPE_DEFINITION_REPRESENTATION(#591,#592);
#591=PRODUCT_DEFINITION_SHAPE('',$,#594);
#592=SHAPE_REPRESENTATION('',(#378),#584);
#593=PRODUCT_DEFINITION_CONTEXT('part definition',#598,'design');
#594=PRODUCT_DEFINITION('carter','carter',#595,#593);
#595=PRODUCT_DEFINITION_FORMATION('',$,#600);
#596=PRODUCT_RELATED_PRODUCT_CATEGORY('carter','carter',(#600));
#597=APPLICATION_PROTOCOL_DEFINITION('international standard',
'automotive_design',2009,#598);
#598=APPLICATION_CONTEXT(
'Core Data for Automotive Mechanical Design Process');
#599=PRODUCT_CONTEXT('part definition',#598,'mechanical');
#600=PRODUCT('carter','carter',$,(#599));
#601=PRESENTATION_STYLE_ASSIGNMENT((#602));
#602=SURFACE_STYLE_USAGE(.BOTH.,#603);
#603=SURFACE_SIDE_STYLE('',(#604));
#604=SURFACE_STYLE_FILL_AREA(#605);
#605=FILL_AREA_STYLE('',(#606));
#606=FILL_AREA_STYLE_COLOUR('',#607);
#607=COLOUR_RGB('',0.749019607843137,0.749019607843137,0.749019607843137);
ENDSEC;
END-ISO-10303-21;
