ISO-10303-21;
HEADER;
FILE_DESCRIPTION(('FreeCAD Model'),'2;1');
FILE_NAME(
'/home/ludovic/Personnel/materiel/raboteuse/retrofit/poulie_moteur_
revA.step','2020-04-23T22:36:13',('LEAU-MERCIER LUDOVIC'),('LPSC - CNRS'
    ),'Open CASCADE STEP processor 7.4','FreeCAD','Unknown');
FILE_SCHEMA(('AUTOMOTIVE_DESIGN { 1 0 10303 214 1 1 1 1 }'));
ENDSEC;
DATA;
#1 = APPLICATION_PROTOCOL_DEFINITION('international standard',
  'automotive_design',2000,#2);
#2 = APPLICATION_CONTEXT(
  'core data for automotive mechanical design processes');
#3 = SHAPE_DEFINITION_REPRESENTATION(#4,#10);
#4 = PRODUCT_DEFINITION_SHAPE('','',#5);
#5 = PRODUCT_DEFINITION('design','',#6,#9);
#6 = PRODUCT_DEFINITION_FORMATION('','',#7);
#7 = PRODUCT('PoulieMoteur','PoulieMoteur','',(#8));
#8 = PRODUCT_CONTEXT('',#2,'mechanical');
#9 = PRODUCT_DEFINITION_CONTEXT('part definition',#2,'design');
#10 = ADVANCED_BREP_SHAPE_REPRESENTATION('',(#11,#15),#277);
#11 = AXIS2_PLACEMENT_3D('',#12,#13,#14);
#12 = CARTESIAN_POINT('',(0.,0.,0.));
#13 = DIRECTION('',(0.,0.,1.));
#14 = DIRECTION('',(1.,0.,-0.));
#15 = MANIFOLD_SOLID_BREP('',#16);
#16 = CLOSED_SHELL('',(#17,#45,#70,#95,#120,#140,#165,#190,#215,#240,
    #265));
#17 = ADVANCED_FACE('',(#18,#29),#40,.F.);
#18 = FACE_BOUND('',#19,.T.);
#19 = EDGE_LOOP('',(#20));
#20 = ORIENTED_EDGE('',*,*,#21,.F.);
#21 = EDGE_CURVE('',#22,#22,#24,.T.);
#22 = VERTEX_POINT('',#23);
#23 = CARTESIAN_POINT('',(19.5,1.9E-14,28.));
#24 = CIRCLE('',#25,28.);
#25 = AXIS2_PLACEMENT_3D('',#26,#27,#28);
#26 = CARTESIAN_POINT('',(19.5,0.,0.));
#27 = DIRECTION('',(1.,0.,-0.));
#28 = DIRECTION('',(0.,3.3E-16,1.));
#29 = FACE_BOUND('',#30,.T.);
#30 = EDGE_LOOP('',(#31));
#31 = ORIENTED_EDGE('',*,*,#32,.F.);
#32 = EDGE_CURVE('',#33,#33,#35,.T.);
#33 = VERTEX_POINT('',#34);
#34 = CARTESIAN_POINT('',(19.5,-3.3,1.E-15));
#35 = CIRCLE('',#36,3.3);
#36 = AXIS2_PLACEMENT_3D('',#37,#38,#39);
#37 = CARTESIAN_POINT('',(19.5,0.,0.));
#38 = DIRECTION('',(-1.,0.,-2.2E-16));
#39 = DIRECTION('',(-4.84E-32,-1.,2.2E-16));
#40 = PLANE('',#41);
#41 = AXIS2_PLACEMENT_3D('',#42,#43,#44);
#42 = CARTESIAN_POINT('',(19.5,0.,0.));
#43 = DIRECTION('',(1.,0.,0.));
#44 = DIRECTION('',(0.,3.3E-16,1.));
#45 = ADVANCED_FACE('',(#46),#65,.T.);
#46 = FACE_BOUND('',#47,.T.);
#47 = EDGE_LOOP('',(#48,#49,#57,#64));
#48 = ORIENTED_EDGE('',*,*,#21,.T.);
#49 = ORIENTED_EDGE('',*,*,#50,.T.);
#50 = EDGE_CURVE('',#22,#51,#53,.T.);
#51 = VERTEX_POINT('',#52);
#52 = CARTESIAN_POINT('',(24.95,1.9E-14,28.));
#53 = LINE('',#54,#55);
#54 = CARTESIAN_POINT('',(19.5,6.22E-15,28.));
#55 = VECTOR('',#56,1.);
#56 = DIRECTION('',(1.,0.,0.));
#57 = ORIENTED_EDGE('',*,*,#58,.F.);
#58 = EDGE_CURVE('',#51,#51,#59,.T.);
#59 = CIRCLE('',#60,28.);
#60 = AXIS2_PLACEMENT_3D('',#61,#62,#63);
#61 = CARTESIAN_POINT('',(24.95,0.,0.));
#62 = DIRECTION('',(1.,0.,-0.));
#63 = DIRECTION('',(0.,3.3E-16,1.));
#64 = ORIENTED_EDGE('',*,*,#50,.F.);
#65 = CYLINDRICAL_SURFACE('',#66,28.);
#66 = AXIS2_PLACEMENT_3D('',#67,#68,#69);
#67 = CARTESIAN_POINT('',(19.5,0.,0.));
#68 = DIRECTION('',(1.,0.,0.));
#69 = DIRECTION('',(0.,3.3E-16,1.));
#70 = ADVANCED_FACE('',(#71),#90,.F.);
#71 = FACE_BOUND('',#72,.T.);
#72 = EDGE_LOOP('',(#73,#81,#82,#83));
#73 = ORIENTED_EDGE('',*,*,#74,.F.);
#74 = EDGE_CURVE('',#33,#75,#77,.T.);
#75 = VERTEX_POINT('',#76);
#76 = CARTESIAN_POINT('',(23.,-3.3,2.E-15));
#77 = LINE('',#78,#79);
#78 = CARTESIAN_POINT('',(19.5,-3.3,7.3E-16));
#79 = VECTOR('',#80,1.);
#80 = DIRECTION('',(1.,6.E-17,2.2E-16));
#81 = ORIENTED_EDGE('',*,*,#32,.T.);
#82 = ORIENTED_EDGE('',*,*,#74,.T.);
#83 = ORIENTED_EDGE('',*,*,#84,.T.);
#84 = EDGE_CURVE('',#75,#75,#85,.T.);
#85 = CIRCLE('',#86,3.3);
#86 = AXIS2_PLACEMENT_3D('',#87,#88,#89);
#87 = CARTESIAN_POINT('',(23.,0.,7.8E-16));
#88 = DIRECTION('',(1.,0.,2.2E-16));
#89 = DIRECTION('',(-4.84E-32,-1.,2.2E-16));
#90 = CYLINDRICAL_SURFACE('',#91,3.3);
#91 = AXIS2_PLACEMENT_3D('',#92,#93,#94);
#92 = CARTESIAN_POINT('',(19.5,0.,0.));
#93 = DIRECTION('',(1.,0.,2.2E-16));
#94 = DIRECTION('',(-4.84E-32,-1.,2.2E-16));
#95 = ADVANCED_FACE('',(#96),#115,.T.);
#96 = FACE_BOUND('',#97,.T.);
#97 = EDGE_LOOP('',(#98,#99,#107,#114));
#98 = ORIENTED_EDGE('',*,*,#58,.T.);
#99 = ORIENTED_EDGE('',*,*,#100,.T.);
#100 = EDGE_CURVE('',#51,#101,#103,.T.);
#101 = VERTEX_POINT('',#102);
#102 = CARTESIAN_POINT('',(27.704620906317,1.3E-14,20.));
#103 = LINE('',#104,#105);
#104 = CARTESIAN_POINT('',(24.95,6.22E-15,28.));
#105 = VECTOR('',#106,1.);
#106 = DIRECTION('',(0.325568154457,-2.1E-16,-0.945518575599));
#107 = ORIENTED_EDGE('',*,*,#108,.F.);
#108 = EDGE_CURVE('',#101,#101,#109,.T.);
#109 = CIRCLE('',#110,20.);
#110 = AXIS2_PLACEMENT_3D('',#111,#112,#113);
#111 = CARTESIAN_POINT('',(27.704620906317,0.,0.));
#112 = DIRECTION('',(1.,0.,-0.));
#113 = DIRECTION('',(0.,3.3E-16,1.));
#114 = ORIENTED_EDGE('',*,*,#100,.F.);
#115 = CONICAL_SURFACE('',#116,28.,1.239183768916);
#116 = AXIS2_PLACEMENT_3D('',#117,#118,#119);
#117 = CARTESIAN_POINT('',(24.95,0.,0.));
#118 = DIRECTION('',(-1.,-0.,-0.));
#119 = DIRECTION('',(0.,3.3E-16,1.));
#120 = ADVANCED_FACE('',(#121,#132),#135,.T.);
#121 = FACE_BOUND('',#122,.T.);
#122 = EDGE_LOOP('',(#123));
#123 = ORIENTED_EDGE('',*,*,#124,.T.);
#124 = EDGE_CURVE('',#125,#125,#127,.T.);
#125 = VERTEX_POINT('',#126);
#126 = CARTESIAN_POINT('',(23.,9.E-15,14.));
#127 = CIRCLE('',#128,14.);
#128 = AXIS2_PLACEMENT_3D('',#129,#130,#131);
#129 = CARTESIAN_POINT('',(23.,0.,0.));
#130 = DIRECTION('',(1.,0.,-0.));
#131 = DIRECTION('',(0.,3.3E-16,1.));
#132 = FACE_BOUND('',#133,.T.);
#133 = EDGE_LOOP('',(#134));
#134 = ORIENTED_EDGE('',*,*,#84,.F.);
#135 = PLANE('',#136);
#136 = AXIS2_PLACEMENT_3D('',#137,#138,#139);
#137 = CARTESIAN_POINT('',(23.,0.,0.));
#138 = DIRECTION('',(1.,0.,0.));
#139 = DIRECTION('',(0.,3.3E-16,1.));
#140 = ADVANCED_FACE('',(#141),#160,.T.);
#141 = FACE_BOUND('',#142,.T.);
#142 = EDGE_LOOP('',(#143,#144,#152,#159));
#143 = ORIENTED_EDGE('',*,*,#108,.T.);
#144 = ORIENTED_EDGE('',*,*,#145,.T.);
#145 = EDGE_CURVE('',#101,#146,#148,.T.);
#146 = VERTEX_POINT('',#147);
#147 = CARTESIAN_POINT('',(31.895379093683,1.3E-14,20.));
#148 = LINE('',#149,#150);
#149 = CARTESIAN_POINT('',(27.704620906317,4.44E-15,20.));
#150 = VECTOR('',#151,1.);
#151 = DIRECTION('',(1.,0.,0.));
#152 = ORIENTED_EDGE('',*,*,#153,.F.);
#153 = EDGE_CURVE('',#146,#146,#154,.T.);
#154 = CIRCLE('',#155,20.);
#155 = AXIS2_PLACEMENT_3D('',#156,#157,#158);
#156 = CARTESIAN_POINT('',(31.895379093683,0.,0.));
#157 = DIRECTION('',(1.,0.,-0.));
#158 = DIRECTION('',(0.,3.3E-16,1.));
#159 = ORIENTED_EDGE('',*,*,#145,.F.);
#160 = CYLINDRICAL_SURFACE('',#161,20.);
#161 = AXIS2_PLACEMENT_3D('',#162,#163,#164);
#162 = CARTESIAN_POINT('',(27.704620906317,0.,0.));
#163 = DIRECTION('',(1.,0.,0.));
#164 = DIRECTION('',(0.,3.3E-16,1.));
#165 = ADVANCED_FACE('',(#166),#185,.F.);
#166 = FACE_BOUND('',#167,.T.);
#167 = EDGE_LOOP('',(#168,#177,#183,#184));
#168 = ORIENTED_EDGE('',*,*,#169,.T.);
#169 = EDGE_CURVE('',#170,#170,#172,.T.);
#170 = VERTEX_POINT('',#171);
#171 = CARTESIAN_POINT('',(28.,9.E-15,14.));
#172 = CIRCLE('',#173,14.);
#173 = AXIS2_PLACEMENT_3D('',#174,#175,#176);
#174 = CARTESIAN_POINT('',(28.,0.,0.));
#175 = DIRECTION('',(1.,0.,-0.));
#176 = DIRECTION('',(0.,3.3E-16,1.));
#177 = ORIENTED_EDGE('',*,*,#178,.T.);
#178 = EDGE_CURVE('',#170,#125,#179,.T.);
#179 = LINE('',#180,#181);
#180 = CARTESIAN_POINT('',(28.,3.11E-15,14.));
#181 = VECTOR('',#182,1.);
#182 = DIRECTION('',(-1.,0.,0.));
#183 = ORIENTED_EDGE('',*,*,#124,.F.);
#184 = ORIENTED_EDGE('',*,*,#178,.F.);
#185 = CYLINDRICAL_SURFACE('',#186,14.);
#186 = AXIS2_PLACEMENT_3D('',#187,#188,#189);
#187 = CARTESIAN_POINT('',(28.,0.,0.));
#188 = DIRECTION('',(-1.,0.,0.));
#189 = DIRECTION('',(0.,3.3E-16,1.));
#190 = ADVANCED_FACE('',(#191),#210,.T.);
#191 = FACE_BOUND('',#192,.T.);
#192 = EDGE_LOOP('',(#193,#194,#202,#209));
#193 = ORIENTED_EDGE('',*,*,#153,.T.);
#194 = ORIENTED_EDGE('',*,*,#195,.T.);
#195 = EDGE_CURVE('',#146,#196,#198,.T.);
#196 = VERTEX_POINT('',#197);
#197 = CARTESIAN_POINT('',(34.65,1.9E-14,28.));
#198 = LINE('',#199,#200);
#199 = CARTESIAN_POINT('',(31.895379093683,4.44E-15,20.));
#200 = VECTOR('',#201,1.);
#201 = DIRECTION('',(0.325568154457,2.1E-16,0.945518575599));
#202 = ORIENTED_EDGE('',*,*,#203,.F.);
#203 = EDGE_CURVE('',#196,#196,#204,.T.);
#204 = CIRCLE('',#205,28.);
#205 = AXIS2_PLACEMENT_3D('',#206,#207,#208);
#206 = CARTESIAN_POINT('',(34.65,0.,0.));
#207 = DIRECTION('',(1.,0.,-0.));
#208 = DIRECTION('',(0.,3.3E-16,1.));
#209 = ORIENTED_EDGE('',*,*,#195,.F.);
#210 = CONICAL_SURFACE('',#211,20.,1.239183768916);
#211 = AXIS2_PLACEMENT_3D('',#212,#213,#214);
#212 = CARTESIAN_POINT('',(31.895379093683,0.,0.));
#213 = DIRECTION('',(1.,0.,0.));
#214 = DIRECTION('',(0.,3.3E-16,1.));
#215 = ADVANCED_FACE('',(#216),#235,.F.);
#216 = FACE_BOUND('',#217,.T.);
#217 = EDGE_LOOP('',(#218,#227,#233,#234));
#218 = ORIENTED_EDGE('',*,*,#219,.T.);
#219 = EDGE_CURVE('',#220,#220,#222,.T.);
#220 = VERTEX_POINT('',#221);
#221 = CARTESIAN_POINT('',(44.5,1.E-14,14.5));
#222 = CIRCLE('',#223,14.5);
#223 = AXIS2_PLACEMENT_3D('',#224,#225,#226);
#224 = CARTESIAN_POINT('',(44.5,0.,0.));
#225 = DIRECTION('',(1.,0.,-0.));
#226 = DIRECTION('',(0.,3.3E-16,1.));
#227 = ORIENTED_EDGE('',*,*,#228,.T.);
#228 = EDGE_CURVE('',#220,#170,#229,.T.);
#229 = LINE('',#230,#231);
#230 = CARTESIAN_POINT('',(44.5,3.22E-15,14.5));
#231 = VECTOR('',#232,1.);
#232 = DIRECTION('',(-0.999541179145,-1.E-17,-3.028912664077E-02));
#233 = ORIENTED_EDGE('',*,*,#169,.F.);
#234 = ORIENTED_EDGE('',*,*,#228,.F.);
#235 = CONICAL_SURFACE('',#236,14.5,3.029375991878E-02);
#236 = AXIS2_PLACEMENT_3D('',#237,#238,#239);
#237 = CARTESIAN_POINT('',(44.5,0.,0.));
#238 = DIRECTION('',(1.,0.,0.));
#239 = DIRECTION('',(0.,3.3E-16,1.));
#240 = ADVANCED_FACE('',(#241),#260,.T.);
#241 = FACE_BOUND('',#242,.T.);
#242 = EDGE_LOOP('',(#243,#244,#252,#259));
#243 = ORIENTED_EDGE('',*,*,#203,.T.);
#244 = ORIENTED_EDGE('',*,*,#245,.T.);
#245 = EDGE_CURVE('',#196,#246,#248,.T.);
#246 = VERTEX_POINT('',#247);
#247 = CARTESIAN_POINT('',(44.5,1.9E-14,28.));
#248 = LINE('',#249,#250);
#249 = CARTESIAN_POINT('',(34.65,6.22E-15,28.));
#250 = VECTOR('',#251,1.);
#251 = DIRECTION('',(1.,0.,0.));
#252 = ORIENTED_EDGE('',*,*,#253,.F.);
#253 = EDGE_CURVE('',#246,#246,#254,.T.);
#254 = CIRCLE('',#255,28.);
#255 = AXIS2_PLACEMENT_3D('',#256,#257,#258);
#256 = CARTESIAN_POINT('',(44.5,0.,0.));
#257 = DIRECTION('',(1.,0.,-0.));
#258 = DIRECTION('',(0.,3.3E-16,1.));
#259 = ORIENTED_EDGE('',*,*,#245,.F.);
#260 = CYLINDRICAL_SURFACE('',#261,28.);
#261 = AXIS2_PLACEMENT_3D('',#262,#263,#264);
#262 = CARTESIAN_POINT('',(34.65,0.,0.));
#263 = DIRECTION('',(1.,0.,0.));
#264 = DIRECTION('',(0.,3.3E-16,1.));
#265 = ADVANCED_FACE('',(#266,#269),#272,.T.);
#266 = FACE_BOUND('',#267,.T.);
#267 = EDGE_LOOP('',(#268));
#268 = ORIENTED_EDGE('',*,*,#253,.T.);
#269 = FACE_BOUND('',#270,.T.);
#270 = EDGE_LOOP('',(#271));
#271 = ORIENTED_EDGE('',*,*,#219,.F.);
#272 = PLANE('',#273);
#273 = AXIS2_PLACEMENT_3D('',#274,#275,#276);
#274 = CARTESIAN_POINT('',(44.5,0.,0.));
#275 = DIRECTION('',(1.,0.,0.));
#276 = DIRECTION('',(0.,3.3E-16,1.));
#277 = ( GEOMETRIC_REPRESENTATION_CONTEXT(3) 
GLOBAL_UNCERTAINTY_ASSIGNED_CONTEXT((#281)) GLOBAL_UNIT_ASSIGNED_CONTEXT
((#278,#279,#280)) REPRESENTATION_CONTEXT('Context #1',
  '3D Context with UNIT and UNCERTAINTY') );
#278 = ( LENGTH_UNIT() NAMED_UNIT(*) SI_UNIT(.MILLI.,.METRE.) );
#279 = ( NAMED_UNIT(*) PLANE_ANGLE_UNIT() SI_UNIT($,.RADIAN.) );
#280 = ( NAMED_UNIT(*) SI_UNIT($,.STERADIAN.) SOLID_ANGLE_UNIT() );
#281 = UNCERTAINTY_MEASURE_WITH_UNIT(LENGTH_MEASURE(1.E-07),#278,
  'distance_accuracy_value','confusion accuracy');
#282 = PRODUCT_RELATED_PRODUCT_CATEGORY('part',$,(#7));
#283 = MECHANICAL_DESIGN_GEOMETRIC_PRESENTATION_REPRESENTATION('',(#284)
  ,#277);
#284 = STYLED_ITEM('color',(#285),#15);
#285 = PRESENTATION_STYLE_ASSIGNMENT((#286,#292));
#286 = SURFACE_STYLE_USAGE(.BOTH.,#287);
#287 = SURFACE_SIDE_STYLE('',(#288));
#288 = SURFACE_STYLE_FILL_AREA(#289);
#289 = FILL_AREA_STYLE('',(#290));
#290 = FILL_AREA_STYLE_COLOUR('',#291);
#291 = COLOUR_RGB('',0.235294118524,0.831372559071,7.058823853731E-02);
#292 = CURVE_STYLE('',#293,POSITIVE_LENGTH_MEASURE(0.1),#294);
#293 = DRAUGHTING_PRE_DEFINED_CURVE_FONT('continuous');
#294 = COLOUR_RGB('',9.803921729326E-02,9.803921729326E-02,
  9.803921729326E-02);
ENDSEC;
END-ISO-10303-21;
