ISO-10303-21;
HEADER;
/* Generated by software containing ST-Developer
 * from STEP Tools, Inc. (www.steptools.com) 
 */

FILE_DESCRIPTION(
/* description */ (''),
/* implementation_level */ '2;1');

FILE_NAME(
/* name */ 'C:/Users/Riko.Riko-PC/Documents/AxeAcier.step',
/* time_stamp */ '2020-04-14T05:30:52+02:00',
/* author */ (''),
/* organization */ (''),
/* preprocessor_version */ 'ST-DEVELOPER v18',
/* originating_system */ 'Autodesk Translation Framework v8.12.0.6',
/* authorisation */ '');

FILE_SCHEMA (('AUTOMOTIVE_DESIGN { 1 0 10303 214 3 1 1 }'));
ENDSEC;

DATA;
#10=MECHANICAL_DESIGN_GEOMETRIC_PRESENTATION_REPRESENTATION('',(#13),#241);
#11=SHAPE_REPRESENTATION_RELATIONSHIP('SRR','None',#248,#12);
#12=ADVANCED_BREP_SHAPE_REPRESENTATION('',(#14),#240);
#13=STYLED_ITEM('',(#258),#14);
#14=MANIFOLD_SOLID_BREP(
'Axe 12mm, M10 (1) (1) (2) (1) (1) (1) (1) (1) (1) (1) (1) (1) (1)',#127);
#15=LINE('',#218,#19);
#16=LINE('',#224,#20);
#17=LINE('',#235,#21);
#18=LINE('',#237,#22);
#19=VECTOR('',#178,9.99999999999996);
#20=VECTOR('',#185,12.9000000000001);
#21=VECTOR('',#200,5.99999999999994);
#22=VECTOR('',#203,5.);
#23=CYLINDRICAL_SURFACE('',#146,9.99999999999996);
#24=CYLINDRICAL_SURFACE('',#151,12.9000000000001);
#25=CYLINDRICAL_SURFACE('',#158,5.99999999999994);
#26=CYLINDRICAL_SURFACE('',#159,5.);
#27=FACE_BOUND('',#40,.T.);
#28=FACE_BOUND('',#44,.T.);
#29=FACE_BOUND('',#47,.T.);
#30=FACE_OUTER_BOUND('',#39,.T.);
#31=FACE_OUTER_BOUND('',#41,.T.);
#32=FACE_OUTER_BOUND('',#42,.T.);
#33=FACE_OUTER_BOUND('',#43,.T.);
#34=FACE_OUTER_BOUND('',#45,.T.);
#35=FACE_OUTER_BOUND('',#46,.T.);
#36=FACE_OUTER_BOUND('',#48,.T.);
#37=FACE_OUTER_BOUND('',#49,.T.);
#38=FACE_OUTER_BOUND('',#50,.T.);
#39=EDGE_LOOP('',(#85));
#40=EDGE_LOOP('',(#86));
#41=EDGE_LOOP('',(#87));
#42=EDGE_LOOP('',(#88,#89,#90,#91,#92));
#43=EDGE_LOOP('',(#93));
#44=EDGE_LOOP('',(#94,#95));
#45=EDGE_LOOP('',(#96,#97,#98,#99,#100));
#46=EDGE_LOOP('',(#101,#102));
#47=EDGE_LOOP('',(#103));
#48=EDGE_LOOP('',(#104));
#49=EDGE_LOOP('',(#105,#106,#107,#108));
#50=EDGE_LOOP('',(#109,#110,#111,#112));
#51=CIRCLE('',#142,5.99999999999994);
#52=CIRCLE('',#143,5.);
#53=CIRCLE('',#145,9.99999999999996);
#54=CIRCLE('',#147,9.99999999999996);
#55=CIRCLE('',#148,9.99999999999996);
#56=CIRCLE('',#150,12.9000000000001);
#57=CIRCLE('',#152,12.9000000000001);
#58=CIRCLE('',#153,12.9000000000001);
#59=CIRCLE('',#155,5.99999999999994);
#60=CIRCLE('',#157,5.);
#61=VERTEX_POINT('',#206);
#62=VERTEX_POINT('',#208);
#63=VERTEX_POINT('',#211);
#64=VERTEX_POINT('',#214);
#65=VERTEX_POINT('',#215);
#66=VERTEX_POINT('',#220);
#67=VERTEX_POINT('',#223);
#68=VERTEX_POINT('',#225);
#69=VERTEX_POINT('',#229);
#70=VERTEX_POINT('',#232);
#71=EDGE_CURVE('',#61,#61,#51,.T.);
#72=EDGE_CURVE('',#62,#62,#52,.T.);
#73=EDGE_CURVE('',#63,#63,#53,.T.);
#74=EDGE_CURVE('',#64,#65,#54,.T.);
#75=EDGE_CURVE('',#65,#64,#55,.T.);
#76=EDGE_CURVE('',#65,#63,#15,.T.);
#77=EDGE_CURVE('',#66,#66,#56,.T.);
#78=EDGE_CURVE('',#66,#67,#16,.T.);
#79=EDGE_CURVE('',#67,#68,#57,.T.);
#80=EDGE_CURVE('',#68,#67,#58,.T.);
#81=EDGE_CURVE('',#69,#69,#59,.T.);
#82=EDGE_CURVE('',#70,#70,#60,.T.);
#83=EDGE_CURVE('',#61,#69,#17,.T.);
#84=EDGE_CURVE('',#70,#62,#18,.T.);
#85=ORIENTED_EDGE('',*,*,#71,.F.);
#86=ORIENTED_EDGE('',*,*,#72,.F.);
#87=ORIENTED_EDGE('',*,*,#73,.T.);
#88=ORIENTED_EDGE('',*,*,#74,.F.);
#89=ORIENTED_EDGE('',*,*,#75,.F.);
#90=ORIENTED_EDGE('',*,*,#76,.T.);
#91=ORIENTED_EDGE('',*,*,#73,.F.);
#92=ORIENTED_EDGE('',*,*,#76,.F.);
#93=ORIENTED_EDGE('',*,*,#77,.F.);
#94=ORIENTED_EDGE('',*,*,#74,.T.);
#95=ORIENTED_EDGE('',*,*,#75,.T.);
#96=ORIENTED_EDGE('',*,*,#77,.T.);
#97=ORIENTED_EDGE('',*,*,#78,.T.);
#98=ORIENTED_EDGE('',*,*,#79,.T.);
#99=ORIENTED_EDGE('',*,*,#80,.T.);
#100=ORIENTED_EDGE('',*,*,#78,.F.);
#101=ORIENTED_EDGE('',*,*,#80,.F.);
#102=ORIENTED_EDGE('',*,*,#79,.F.);
#103=ORIENTED_EDGE('',*,*,#81,.F.);
#104=ORIENTED_EDGE('',*,*,#82,.F.);
#105=ORIENTED_EDGE('',*,*,#71,.T.);
#106=ORIENTED_EDGE('',*,*,#83,.T.);
#107=ORIENTED_EDGE('',*,*,#81,.T.);
#108=ORIENTED_EDGE('',*,*,#83,.F.);
#109=ORIENTED_EDGE('',*,*,#82,.T.);
#110=ORIENTED_EDGE('',*,*,#84,.T.);
#111=ORIENTED_EDGE('',*,*,#72,.T.);
#112=ORIENTED_EDGE('',*,*,#84,.F.);
#113=PLANE('',#141);
#114=PLANE('',#144);
#115=PLANE('',#149);
#116=PLANE('',#154);
#117=PLANE('',#156);
#118=ADVANCED_FACE('',(#30,#27),#113,.F.);
#119=ADVANCED_FACE('',(#31),#114,.F.);
#120=ADVANCED_FACE('',(#32),#23,.T.);
#121=ADVANCED_FACE('',(#33,#28),#115,.T.);
#122=ADVANCED_FACE('',(#34),#24,.T.);
#123=ADVANCED_FACE('',(#35,#29),#116,.F.);
#124=ADVANCED_FACE('',(#36),#117,.F.);
#125=ADVANCED_FACE('',(#37),#25,.T.);
#126=ADVANCED_FACE('',(#38),#26,.T.);
#127=CLOSED_SHELL('',(#118,#119,#120,#121,#122,#123,#124,#125,#126));
#128=DERIVED_UNIT_ELEMENT(#130,1.);
#129=DERIVED_UNIT_ELEMENT(#243,3.);
#130=(
MASS_UNIT()
NAMED_UNIT(*)
SI_UNIT(.KILO.,.GRAM.)
);
#131=DERIVED_UNIT((#128,#129));
#132=MEASURE_REPRESENTATION_ITEM('density measure',
POSITIVE_RATIO_MEASURE(7850.),#131);
#133=PROPERTY_DEFINITION_REPRESENTATION(#138,#135);
#134=PROPERTY_DEFINITION_REPRESENTATION(#139,#136);
#135=REPRESENTATION('material name',(#137),#240);
#136=REPRESENTATION('density',(#132),#240);
#137=DESCRIPTIVE_REPRESENTATION_ITEM('Steel','Steel');
#138=PROPERTY_DEFINITION('material property','material name',#250);
#139=PROPERTY_DEFINITION('material property','density of part',#250);
#140=AXIS2_PLACEMENT_3D('placement',#204,#160,#161);
#141=AXIS2_PLACEMENT_3D('',#205,#162,#163);
#142=AXIS2_PLACEMENT_3D('',#207,#164,#165);
#143=AXIS2_PLACEMENT_3D('',#209,#166,#167);
#144=AXIS2_PLACEMENT_3D('',#210,#168,#169);
#145=AXIS2_PLACEMENT_3D('',#212,#170,#171);
#146=AXIS2_PLACEMENT_3D('',#213,#172,#173);
#147=AXIS2_PLACEMENT_3D('',#216,#174,#175);
#148=AXIS2_PLACEMENT_3D('',#217,#176,#177);
#149=AXIS2_PLACEMENT_3D('',#219,#179,#180);
#150=AXIS2_PLACEMENT_3D('',#221,#181,#182);
#151=AXIS2_PLACEMENT_3D('',#222,#183,#184);
#152=AXIS2_PLACEMENT_3D('',#226,#186,#187);
#153=AXIS2_PLACEMENT_3D('',#227,#188,#189);
#154=AXIS2_PLACEMENT_3D('',#228,#190,#191);
#155=AXIS2_PLACEMENT_3D('',#230,#192,#193);
#156=AXIS2_PLACEMENT_3D('',#231,#194,#195);
#157=AXIS2_PLACEMENT_3D('',#233,#196,#197);
#158=AXIS2_PLACEMENT_3D('',#234,#198,#199);
#159=AXIS2_PLACEMENT_3D('',#236,#201,#202);
#160=DIRECTION('axis',(0.,0.,1.));
#161=DIRECTION('refdir',(1.,0.,0.));
#162=DIRECTION('center_axis',(-1.,-1.29850009000721E-13,3.64486197044522E-14));
#163=DIRECTION('ref_axis',(1.29850009000721E-13,-1.,-3.78742429200895E-27));
#164=DIRECTION('center_axis',(-1.,-1.29850009000721E-13,3.64486197044522E-14));
#165=DIRECTION('ref_axis',(1.2933755324874E-13,-1.,-3.76840992792377E-27));
#166=DIRECTION('center_axis',(1.,1.29850009000721E-13,-3.64486197044522E-14));
#167=DIRECTION('ref_axis',(1.2660469657274E-13,-1.,-3.66700891597443E-27));
#168=DIRECTION('center_axis',(1.,1.29850009000721E-13,-3.64486197044522E-14));
#169=DIRECTION('ref_axis',(-1.30677716328488E-13,0.866025403784439,-0.5));
#170=DIRECTION('center_axis',(-1.,-1.29850009000721E-13,3.64486197044522E-14));
#171=DIRECTION('ref_axis',(-1.31072462292799E-13,0.866025403784439,-0.5));
#172=DIRECTION('center_axis',(1.,1.30191869033855E-13,-3.66459926866077E-14));
#173=DIRECTION('ref_axis',(-1.31072462292799E-13,0.866025403784439,-0.5));
#174=DIRECTION('center_axis',(1.,1.29850009000721E-13,-3.64486197044522E-14));
#175=DIRECTION('ref_axis',(-1.31072462292799E-13,0.866025403784439,-0.5));
#176=DIRECTION('center_axis',(1.,1.29850009000721E-13,-3.64486197044522E-14));
#177=DIRECTION('ref_axis',(-1.31072462292799E-13,0.866025403784439,-0.5));
#178=DIRECTION('',(-1.,-1.30191869033855E-13,3.66459926866077E-14));
#179=DIRECTION('center_axis',(-1.,-1.29850009000721E-13,3.64486197044522E-14));
#180=DIRECTION('ref_axis',(1.30677716328488E-13,-0.866025403784439,0.5));
#181=DIRECTION('center_axis',(1.,1.29850009000721E-13,-3.64486197044522E-14));
#182=DIRECTION('ref_axis',(-1.2933755324874E-13,1.,3.76840992792377E-27));
#183=DIRECTION('center_axis',(-1.,-1.2933755324874E-13,3.71044017199401E-14));
#184=DIRECTION('ref_axis',(-1.2933755324874E-13,1.,3.76840992792377E-27));
#185=DIRECTION('',(1.,1.2933755324874E-13,-3.71044017199401E-14));
#186=DIRECTION('center_axis',(-1.,-1.29850009000721E-13,3.64486197044522E-14));
#187=DIRECTION('ref_axis',(-1.2933755324874E-13,1.,3.76840992792377E-27));
#188=DIRECTION('center_axis',(-1.,-1.29850009000721E-13,3.64486197044522E-14));
#189=DIRECTION('ref_axis',(-1.2933755324874E-13,1.,3.76840992792377E-27));
#190=DIRECTION('center_axis',(-1.,-1.29850009000721E-13,3.64486197044522E-14));
#191=DIRECTION('ref_axis',(1.30677716328488E-13,-0.866025403784439,0.5));
#192=DIRECTION('center_axis',(1.,1.29850009000721E-13,-3.64486197044522E-14));
#193=DIRECTION('ref_axis',(1.2933755324874E-13,-1.,-3.76840992792377E-27));
#194=DIRECTION('center_axis',(-1.,-1.29850009000721E-13,3.64486197044522E-14));
#195=DIRECTION('ref_axis',(1.29850009000721E-13,-1.,-3.78742429200895E-27));
#196=DIRECTION('center_axis',(-1.,-1.29850009000721E-13,3.64486197044522E-14));
#197=DIRECTION('ref_axis',(1.2660469657274E-13,-1.,-3.66700891597443E-27));
#198=DIRECTION('center_axis',(-1.,-1.2933755324874E-13,3.71044017199401E-14));
#199=DIRECTION('ref_axis',(1.2933755324874E-13,-1.,-3.76840992792377E-27));
#200=DIRECTION('',(-1.,-1.2933755324874E-13,3.71044017199401E-14));
#201=DIRECTION('center_axis',(-1.,-1.2660469657274E-13,3.71044017199401E-14));
#202=DIRECTION('ref_axis',(1.2660469657274E-13,-1.,-3.66700891597443E-27));
#203=DIRECTION('',(-1.,-1.2660469657274E-13,3.71044017199401E-14));
#204=CARTESIAN_POINT('',(0.,0.,0.));
#205=CARTESIAN_POINT('Origin',(1387.74418923157,-1179.62209163425,541.923375665024));
#206=CARTESIAN_POINT('',(1387.74418923157,-1173.62209163425,541.923375665024));
#207=CARTESIAN_POINT('Origin',(1387.74418923157,-1179.62209163425,541.923375665024));
#208=CARTESIAN_POINT('',(1387.74418923157,-1174.62209163425,541.923375665024));
#209=CARTESIAN_POINT('Origin',(1387.74418923157,-1179.62209163425,541.923375665024));
#210=CARTESIAN_POINT('Origin',(1283.74418923157,-1179.62790730952,541.926733346701));
#211=CARTESIAN_POINT('',(1283.74418923157,-1188.28234567211,546.923375665029));
#212=CARTESIAN_POINT('Origin',(1283.74418923157,-1179.62209163426,541.923375665029));
#213=CARTESIAN_POINT('Origin',(1313.74418923157,-1179.62209163426,541.923375665027));
#214=CARTESIAN_POINT('',(1313.74418923157,-1170.96183759641,536.923375665027));
#215=CARTESIAN_POINT('',(1313.74418923157,-1188.2823456721,546.923375665027));
#216=CARTESIAN_POINT('Origin',(1313.74418923157,-1179.62209163426,541.923375665027));
#217=CARTESIAN_POINT('Origin',(1313.74418923157,-1179.62209163426,541.923375665027));
#218=CARTESIAN_POINT('',(1313.74418923157,-1188.2823456721,546.923375665027));
#219=CARTESIAN_POINT('Origin',(1313.74418923157,-1179.62209163426,541.923375665027));
#220=CARTESIAN_POINT('',(1313.74418923157,-1192.52209163426,541.923375665027));
#221=CARTESIAN_POINT('Origin',(1313.74418923157,-1179.62209163426,541.923375665027));
#222=CARTESIAN_POINT('Origin',(1283.74418923157,-1179.62209163426,541.923375665029));
#223=CARTESIAN_POINT('',(1334.74418923157,-1192.52209163426,541.923375665027));
#224=CARTESIAN_POINT('',(1283.74418923157,-1192.52209163426,541.923375665029));
#225=CARTESIAN_POINT('',(1334.74418923157,-1181.67953451394,554.658246249247));
#226=CARTESIAN_POINT('Origin',(1334.74418923157,-1179.62209163426,541.923375665027));
#227=CARTESIAN_POINT('Origin',(1334.74418923157,-1179.62209163426,541.923375665027));
#228=CARTESIAN_POINT('Origin',(1334.74418923157,-1179.62209163426,541.923375665027));
#229=CARTESIAN_POINT('',(1334.74418923157,-1173.62209163426,541.923375665026));
#230=CARTESIAN_POINT('Origin',(1334.74418923157,-1179.62209163426,541.923375665026));
#231=CARTESIAN_POINT('Origin',(1397.74418923157,-1179.62209163425,541.923375665023));
#232=CARTESIAN_POINT('',(1397.74418923157,-1174.62209163425,541.923375665023));
#233=CARTESIAN_POINT('Origin',(1397.74418923157,-1179.62209163425,541.923375665023));
#234=CARTESIAN_POINT('Origin',(1335.74418923157,-1179.62209163426,541.923375665026));
#235=CARTESIAN_POINT('',(1335.74418923157,-1173.62209163426,541.923375665026));
#236=CARTESIAN_POINT('Origin',(1387.74418923157,-1179.62209163425,541.923375665024));
#237=CARTESIAN_POINT('',(1387.74418923157,-1174.62209163425,541.923375665024));
#238=UNCERTAINTY_MEASURE_WITH_UNIT(LENGTH_MEASURE(0.01),#242,
'DISTANCE_ACCURACY_VALUE',
'Maximum model space distance between geometric entities at asserted c
onnectivities');
#239=UNCERTAINTY_MEASURE_WITH_UNIT(LENGTH_MEASURE(0.01),#242,
'DISTANCE_ACCURACY_VALUE',
'Maximum model space distance between geometric entities at asserted c
onnectivities');
#240=(
GEOMETRIC_REPRESENTATION_CONTEXT(3)
GLOBAL_UNCERTAINTY_ASSIGNED_CONTEXT((#238))
GLOBAL_UNIT_ASSIGNED_CONTEXT((#242,#244,#245))
REPRESENTATION_CONTEXT('','3D')
);
#241=(
GEOMETRIC_REPRESENTATION_CONTEXT(3)
GLOBAL_UNCERTAINTY_ASSIGNED_CONTEXT((#239))
GLOBAL_UNIT_ASSIGNED_CONTEXT((#242,#244,#245))
REPRESENTATION_CONTEXT('','3D')
);
#242=(
LENGTH_UNIT()
NAMED_UNIT(*)
SI_UNIT(.MILLI.,.METRE.)
);
#243=(
LENGTH_UNIT()
NAMED_UNIT(*)
SI_UNIT($,.METRE.)
);
#244=(
NAMED_UNIT(*)
PLANE_ANGLE_UNIT()
SI_UNIT($,.RADIAN.)
);
#245=(
NAMED_UNIT(*)
SI_UNIT($,.STERADIAN.)
SOLID_ANGLE_UNIT()
);
#246=SHAPE_DEFINITION_REPRESENTATION(#247,#248);
#247=PRODUCT_DEFINITION_SHAPE('',$,#250);
#248=SHAPE_REPRESENTATION('',(#140),#240);
#249=PRODUCT_DEFINITION_CONTEXT('part definition',#254,'design');
#250=PRODUCT_DEFINITION(
'Axe 12mm, M10 (1) (1) (2) (1) (1) (1) (1) (1) (1) (1) (1) (1) (1)',
'Axe 12mm, M10 (1) (1) (2) (1) (1) (1) (1) (1) (1) (1) (1) (1) (1)',#251,
#249);
#251=PRODUCT_DEFINITION_FORMATION('',$,#256);
#252=PRODUCT_RELATED_PRODUCT_CATEGORY(
'Axe 12mm, M10 (1) (1) (2) (1) (1) (1) (1) (1) (1) (1) (1) (1) (1)',
'Axe 12mm, M10 (1) (1) (2) (1) (1) (1) (1) (1) (1) (1) (1) (1) (1)',(#256));
#253=APPLICATION_PROTOCOL_DEFINITION('international standard',
'automotive_design',2009,#254);
#254=APPLICATION_CONTEXT(
'Core Data for Automotive Mechanical Design Process');
#255=PRODUCT_CONTEXT('part definition',#254,'mechanical');
#256=PRODUCT(
'Axe 12mm, M10 (1) (1) (2) (1) (1) (1) (1) (1) (1) (1) (1) (1) (1)',
'Axe 12mm, M10 (1) (1) (2) (1) (1) (1) (1) (1) (1) (1) (1) (1) (1)',$,(#255));
#257=PRESENTATION_STYLE_ASSIGNMENT((#259));
#258=PRESENTATION_STYLE_ASSIGNMENT((#260));
#259=SURFACE_STYLE_USAGE(.BOTH.,#261);
#260=SURFACE_STYLE_USAGE(.BOTH.,#262);
#261=SURFACE_SIDE_STYLE('',(#263));
#262=SURFACE_SIDE_STYLE('',(#264));
#263=SURFACE_STYLE_FILL_AREA(#265);
#264=SURFACE_STYLE_FILL_AREA(#266);
#265=FILL_AREA_STYLE('Steel - Satin',(#267));
#266=FILL_AREA_STYLE('Steel - Satin',(#268));
#267=FILL_AREA_STYLE_COLOUR('Steel - Satin',#269);
#268=FILL_AREA_STYLE_COLOUR('Steel - Satin',#270);
#269=COLOUR_RGB('Steel - Satin',0.627450980392157,0.627450980392157,0.627450980392157);
#270=COLOUR_RGB('Steel - Satin',0.470588235294118,0.470588235294118,0.470588235294118);
ENDSEC;
END-ISO-10303-21;
