ISO-10303-21;
HEADER;
FILE_DESCRIPTION (( 'STEP AP203' ),
    '1' );
FILE_NAME ('Pivot.STEP',
    '2020-04-10T21:08:59',
    ( '' ),
    ( '' ),
    'SwSTEP 2.0',
    'SolidWorks 2018',
    '' );
FILE_SCHEMA (( 'CONFIG_CONTROL_DESIGN' ));
ENDSEC;

DATA;
#1 = DIRECTION ( 'NONE',  ( 0.9902680687415712502, 0.0000000000000000000, -0.1391731009600587210 ) ) ;
#2 = ORIENTED_EDGE ( 'NONE', *, *, #328, .T. ) ;
#3 = CARTESIAN_POINT ( 'NONE',  ( -112.5000000000000000, 0.0000000000000000000, 9.000000000000000000 ) ) ;
#4 = DIRECTION ( 'NONE',  ( -1.000000000000000000, -0.0000000000000000000, -0.0000000000000000000 ) ) ;
#5 = CARTESIAN_POINT ( 'NONE',  ( 112.5000000000000142, 0.0000000000000000000, 8.999999999999976907 ) ) ;
#6 = APPLICATION_CONTEXT ( 'configuration controlled 3d designs of mechanical parts and assemblies' ) ;
#7 = APPROVAL_PERSON_ORGANIZATION ( #146, #196, #186 ) ;
#8 = CONICAL_SURFACE ( 'NONE', #79, 9.999999999999998224, 0.1825598531309066963 ) ;
#9 = CARTESIAN_POINT ( 'NONE',  ( -127.5000000000000000, 0.0000000000000000000, 0.0000000000000000000 ) ) ;
#10 = CALENDAR_DATE ( 2020, 10, 4 ) ;
#11 = EDGE_LOOP ( 'NONE', ( #266 ) ) ;
#12 = AXIS2_PLACEMENT_3D ( 'NONE', #21, #148, #95 ) ;
#13 = VERTEX_POINT ( 'NONE', #5 ) ;
#14 = DIRECTION ( 'NONE',  ( 0.0000000000000000000, 0.0000000000000000000, -1.000000000000000000 ) ) ;
#15 = FACE_OUTER_BOUND ( 'NONE', #327, .T. ) ;
#16 = ORIENTED_EDGE ( 'NONE', *, *, #113, .F. ) ;
#17 = CARTESIAN_POINT ( 'NONE',  ( 112.4999999999999858, 0.0000000000000000000, 0.0000000000000000000 ) ) ;
#18 = DIRECTION ( 'NONE',  ( 0.1391731009600587210, 0.0000000000000000000, 0.9902680687415712502 ) ) ;
#19 = PERSON_AND_ORGANIZATION ( #202, #105 ) ;
#20 = ORIENTED_EDGE ( 'NONE', *, *, #22, .T. ) ;
#21 = CARTESIAN_POINT ( 'NONE',  ( -25.00000000000000711, -16.00000000000000000, -16.00000000000000000 ) ) ;
#22 = EDGE_CURVE ( 'NONE', #194, #194, #137, .T. ) ;
#23 = FACE_OUTER_BOUND ( 'NONE', #114, .T. ) ;
#24 = ORIENTED_EDGE ( 'NONE', *, *, #276, .T. ) ;
#25 = ORIENTED_EDGE ( 'NONE', *, *, #328, .F. ) ;
#26 = CARTESIAN_POINT ( 'NONE',  ( -24.32207967892065170, -16.00000000000000000, -11.17634627320274276 ) ) ;
#27 = EDGE_CURVE ( 'NONE', #221, #221, #30, .T. ) ;
#28 = CARTESIAN_POINT ( 'NONE',  ( 112.5000000000000142, 7.999999999999992895, 0.0000000000000000000 ) ) ;
#29 =( LENGTH_UNIT ( ) NAMED_UNIT ( * ) SI_UNIT ( .MILLI., .METRE. ) );
#30 = CIRCLE ( 'NONE', #232, 9.000000000000000000 ) ;
#31 = VERTEX_POINT ( 'NONE', #33 ) ;
#32 = DATE_TIME_ROLE ( 'creation_date' ) ;
#33 = CARTESIAN_POINT ( 'NONE',  ( -24.32207967892065170, 11.44942286674166532, -11.17634627320274276 ) ) ;
#34 = CC_DESIGN_APPROVAL ( #313, ( #257 ) ) ;
#35 = VERTEX_POINT ( 'NONE', #184 ) ;
#36 = DIRECTION ( 'NONE',  ( -1.000000000000000000, -0.0000000000000000000, -0.0000000000000000000 ) ) ;
#37 = PLANE ( 'NONE',  #69 ) ;
#38 = LOCAL_TIME ( 23, 8, 59.00000000000000000, #244 ) ;
#39 = CONICAL_SURFACE ( 'NONE', #240, 10.22641509433963236, 0.7853981633974482790 ) ;
#40 = DIRECTION ( 'NONE',  ( -0.0000000000000000000, 0.0000000000000000000, 1.000000000000000000 ) ) ;
#41 = EDGE_LOOP ( 'NONE', ( #16 ) ) ;
#42 = EDGE_CURVE ( 'NONE', #267, #31, #166, .T. ) ;
#43 = DATE_AND_TIME ( #10, #258 ) ;
#44 = FACE_OUTER_BOUND ( 'NONE', #201, .T. ) ;
#45 = ADVANCED_FACE ( 'NONE', ( #337, #247, #88 ), #242, .T. ) ;
#46 = AXIS2_PLACEMENT_3D ( 'NONE', #138, #260, #83 ) ;
#47 = ADVANCED_FACE ( 'NONE', ( #118 ), #53, .F. ) ;
#48 = DIRECTION ( 'NONE',  ( 0.0000000000000000000, 0.0000000000000000000, 1.000000000000000000 ) ) ;
#49 = APPLICATION_PROTOCOL_DEFINITION ( 'international standard', 'config_control_design', 1994, #6 ) ;
#50 = PERSON_AND_ORGANIZATION ( #202, #105 ) ;
#51 = EDGE_LOOP ( 'NONE', ( #24 ) ) ;
#52 =( NAMED_UNIT ( * ) SI_UNIT ( $, .STERADIAN. ) SOLID_ANGLE_UNIT ( ) );
#53 = PLANE ( 'NONE',  #273 ) ;
#54 = DIRECTION ( 'NONE',  ( 0.0000000000000000000, 0.0000000000000000000, 1.000000000000000000 ) ) ;
#55 = PERSON_AND_ORGANIZATION_ROLE ( 'classification_officer' ) ;
#56 = VERTEX_POINT ( 'NONE', #106 ) ;
#57 = ORIENTED_EDGE ( 'NONE', *, *, #175, .F. ) ;
#58 = APPROVAL ( #213, 'UNSPECIFIED' ) ;
#59 = CIRCLE ( 'NONE', #301, 9.804277596548503837 ) ;
#60 = EDGE_CURVE ( 'NONE', #178, #178, #297, .T. ) ;
#61 = CARTESIAN_POINT ( 'NONE',  ( -80.00000000000000000, 0.0000000000000000000, 0.0000000000000000000 ) ) ;
#62 = CARTESIAN_POINT ( 'NONE',  ( -112.5000000000000000, 0.0000000000000000000, 0.0000000000000000000 ) ) ;
#63 = APPROVAL_DATE_TIME ( #291, #313 ) ;
#64 = CC_DESIGN_PERSON_AND_ORGANIZATION_ASSIGNMENT ( #70, #189, ( #151 ) ) ;
#65 = FACE_BOUND ( 'NONE', #155, .T. ) ;
#66 = DIRECTION ( 'NONE',  ( -1.000000000000000000, 0.0000000000000000000, -0.0000000000000000000 ) ) ;
#67 = EDGE_LOOP ( 'NONE', ( #165, #229 ) ) ;
#68 = CARTESIAN_POINT ( 'NONE',  ( -24.32207967892065170, 11.44942286674166532, -11.17634627320274276 ) ) ;
#69 = AXIS2_PLACEMENT_3D ( 'NONE', #323, #18, #1 ) ;
#70 = PERSON_AND_ORGANIZATION ( #202, #105 ) ;
#71 = CIRCLE ( 'NONE', #203, 9.000000000000000000 ) ;
#72 = CC_DESIGN_DATE_AND_TIME_ASSIGNMENT ( #235, #255, ( #257 ) ) ;
#73 = DATE_AND_TIME ( #225, #205 ) ;
#74 = DIRECTION ( 'NONE',  ( 0.0000000000000000000, 0.0000000000000000000, 1.000000000000000000 ) ) ;
#75 = ORIENTED_EDGE ( 'NONE', *, *, #27, .T. ) ;
#76 = AXIS2_PLACEMENT_3D ( 'NONE', #134, #104, #74 ) ;
#77 = APPROVAL_STATUS ( 'not_yet_approved' ) ;
#78 = DIRECTION ( 'NONE',  ( 1.000000000000000000, 0.0000000000000000000, 0.0000000000000000000 ) ) ;
#79 = AXIS2_PLACEMENT_3D ( 'NONE', #143, #90, #54 ) ;
#80 = CARTESIAN_POINT ( 'NONE',  ( 112.5000000000000142, 0.0000000000000000000, 0.0000000000000000000 ) ) ;
#81 = COORDINATED_UNIVERSAL_TIME_OFFSET ( 1, 0, .AHEAD. ) ;
#82 = ORIENTED_EDGE ( 'NONE', *, *, #42, .F. ) ;
#83 = DIRECTION ( 'NONE',  ( 0.0000000000000000000, 0.0000000000000000000, -1.000000000000000000 ) ) ;
#84 = PRODUCT_RELATED_PRODUCT_CATEGORY ( 'detail', '', ( #279 ) ) ;
#85 = ORIENTED_EDGE ( 'NONE', *, *, #27, .F. ) ;
#86 = DIRECTION ( 'NONE',  ( 0.0000000000000000000, 0.0000000000000000000, 1.000000000000000000 ) ) ;
#87 = EDGE_CURVE ( 'NONE', #31, #267, #316, .T. ) ;
#88 = FACE_OUTER_BOUND ( 'NONE', #51, .T. ) ;
#89 = EDGE_LOOP ( 'NONE', ( #57 ) ) ;
#90 = DIRECTION ( 'NONE',  ( -1.000000000000000000, -0.0000000000000000000, -0.0000000000000000000 ) ) ;
#91 = AXIS2_PLACEMENT_3D ( 'NONE', #311, #66, #40 ) ;
#92 = DIRECTION ( 'NONE',  ( 0.0000000000000000000, 0.0000000000000000000, -1.000000000000000000 ) ) ;
#93 = EDGE_LOOP ( 'NONE', ( #20 ) ) ;
#94 = ADVANCED_BREP_SHAPE_REPRESENTATION ( 'Pivot', ( #303, #272 ), #256 ) ;
#95 = DIRECTION ( 'NONE',  ( 0.1391731009600590263, 0.0000000000000000000, 0.9902680687415712502 ) ) ;
#96 = COORDINATED_UNIVERSAL_TIME_OFFSET ( 1, 0, .AHEAD. ) ;
#97 = VERTEX_POINT ( 'NONE', #289 ) ;
#98 = ORIENTED_EDGE ( 'NONE', *, *, #60, .F. ) ;
#99 = ADVANCED_FACE ( 'NONE', ( #182, #190 ), #280, .F. ) ;
#100 = FACE_BOUND ( 'NONE', #93, .T. ) ;
#101 = ORIENTED_EDGE ( 'NONE', *, *, #175, .T. ) ;
#102 = APPROVAL_STATUS ( 'not_yet_approved' ) ;
#103 = APPLICATION_PROTOCOL_DEFINITION ( 'international standard', 'config_control_design', 1994, #132 ) ;
#104 = DIRECTION ( 'NONE',  ( 1.000000000000000000, 0.0000000000000000000, 0.0000000000000000000 ) ) ;
#105 = ORGANIZATION ( 'UNSPECIFIED', 'UNSPECIFIED', '' ) ;
#106 = CARTESIAN_POINT ( 'NONE',  ( 112.4999999999999858, 0.0000000000000000000, 7.999999999999992895 ) ) ;
#107 = VERTEX_POINT ( 'NONE', #310 ) ;
#108 = DIRECTION ( 'NONE',  ( 0.0000000000000000000, 0.0000000000000000000, -1.000000000000000000 ) ) ;
#109 = CARTESIAN_POINT ( 'NONE',  ( -127.5000000000000000, 0.0000000000000000000, 0.0000000000000000000 ) ) ;
#110 = FACE_OUTER_BOUND ( 'NONE', #296, .T. ) ;
#111 = EDGE_LOOP ( 'NONE', ( #25 ) ) ;
#112 = AXIS2_PLACEMENT_3D ( 'NONE', #9, #4, #192 ) ;
#113 = EDGE_CURVE ( 'NONE', #35, #35, #71, .T. ) ;
#114 = EDGE_LOOP ( 'NONE', ( #294 ) ) ;
#115 = AXIS2_PLACEMENT_3D ( 'NONE', #28, #162, #261 ) ;
#116 = AXIS2_PLACEMENT_3D ( 'NONE', #62, #268, #14 ) ;
#117 = PRODUCT_DEFINITION_FORMATION_WITH_SPECIFIED_SOURCE ( 'ANY', '', #279, .NOT_KNOWN. ) ;
#118 = FACE_OUTER_BOUND ( 'NONE', #191, .T. ) ;
#119 = DIRECTION ( 'NONE',  ( -1.000000000000000000, -0.0000000000000000000, -0.0000000000000000000 ) ) ;
#120 = COORDINATED_UNIVERSAL_TIME_OFFSET ( 1, 0, .AHEAD. ) ;
#121 = FACE_BOUND ( 'NONE', #111, .T. ) ;
#122 = ADVANCED_FACE ( 'NONE', ( #228 ), #177, .F. ) ;
#123 = CARTESIAN_POINT ( 'NONE',  ( -25.28281521888315453, -4.776477313716952722, -18.01233484547069352 ) ) ;
#124 = CONICAL_SURFACE ( 'NONE', #116, 9.804277596548503837, 0.9380474917927116296 ) ;
#125 = EDGE_LOOP ( 'NONE', ( #2 ) ) ;
#126 = ADVANCED_FACE ( 'NONE', ( #110 ), #224, .F. ) ;
#127 = DIRECTION ( 'NONE',  ( -1.000000000000000000, -0.0000000000000000000, -0.0000000000000000000 ) ) ;
#128 = ADVANCED_FACE ( 'NONE', ( #308, #293 ), #174, .T. ) ;
#129 = APPROVAL_ROLE ( '' ) ;
#130 = APPROVAL_ROLE ( '' ) ;
#131 = CYLINDRICAL_SURFACE ( 'NONE', #324, 9.000000000000000000 ) ;
#132 = APPLICATION_CONTEXT ( 'configuration controlled 3d designs of mechanical parts and assemblies' ) ;
#133 = CARTESIAN_POINT ( 'NONE',  ( 80.00000000000001421, 0.0000000000000000000, 0.0000000000000000000 ) ) ;
#134 = CARTESIAN_POINT ( 'NONE',  ( -111.5116283023493366, 0.0000000000000000000, 0.0000000000000000000 ) ) ;
#135 = CC_DESIGN_PERSON_AND_ORGANIZATION_ASSIGNMENT ( #304, #55, ( #257 ) ) ;
#136 = LOCAL_TIME ( 23, 8, 59.00000000000000000, #96 ) ;
#137 = CIRCLE ( 'NONE', #46, 10.22641509433963414 ) ;
#138 = CARTESIAN_POINT ( 'NONE',  ( 111.2735849056603570, 0.0000000000000000000, 0.0000000000000000000 ) ) ;
#139 = DIRECTION ( 'NONE',  ( -1.000000000000000000, -0.0000000000000000000, -0.0000000000000000000 ) ) ;
#140 = CC_DESIGN_PERSON_AND_ORGANIZATION_ASSIGNMENT ( #269, #234, ( #117 ) ) ;
#141 = EDGE_LOOP ( 'NONE', ( #101 ) ) ;
#142 = CC_DESIGN_PERSON_AND_ORGANIZATION_ASSIGNMENT ( #281, #212, ( #279 ) ) ;
#143 = CARTESIAN_POINT ( 'NONE',  ( 112.5000000000000426, 0.0000000000000000000, 0.0000000000000000000 ) ) ;
#144 = CALENDAR_DATE ( 2020, 10, 4 ) ;
#145 = EDGE_LOOP ( 'NONE', ( #219 ) ) ;
#146 = PERSON_AND_ORGANIZATION ( #202, #105 ) ;
#147 = ORIENTED_EDGE ( 'NONE', *, *, #87, .T. ) ;
#148 = DIRECTION ( 'NONE',  ( -0.9902680687415712502, 0.0000000000000000000, 0.1391731009600590263 ) ) ;
#149 = DIRECTION ( 'NONE',  ( 0.0000000000000000000, 0.0000000000000000000, 1.000000000000000000 ) ) ;
#150 = CC_DESIGN_PERSON_AND_ORGANIZATION_ASSIGNMENT ( #317, #314, ( #117 ) ) ;
#151 = PRODUCT_DEFINITION ( 'UNKNOWN', '', #117, #180 ) ;
#152 = DATE_AND_TIME ( #144, #249 ) ;
#153 = CARTESIAN_POINT ( 'NONE',  ( -24.32207967892065170, -11.44942286674167775, -11.17634627320274276 ) ) ;
#154 = VECTOR ( 'NONE', #340, 1000.000000000000000 ) ;
#155 = EDGE_LOOP ( 'NONE', ( #222 ) ) ;
#156 = CALENDAR_DATE ( 2020, 10, 4 ) ;
#157 = DIRECTION ( 'NONE',  ( 0.0000000000000000000, 0.0000000000000000000, 1.000000000000000000 ) ) ;
#158 = CARTESIAN_POINT ( 'NONE',  ( 0.0000000000000000000, 0.0000000000000000000, 0.0000000000000000000 ) ) ;
#159 = PRODUCT_DEFINITION_SHAPE ( 'NONE', 'NONE',  #151 ) ;
#160 = CARTESIAN_POINT ( 'NONE',  ( -111.5116283023493366, 0.0000000000000000000, 11.15205718425394821 ) ) ;
#161 = CARTESIAN_POINT ( 'NONE',  ( -24.32207967892065170, 11.44942286674166532, -11.17634627320274276 ) ) ;
#162 = DIRECTION ( 'NONE',  ( -1.000000000000000000, 0.0000000000000000000, -0.0000000000000000000 ) ) ;
#163 = CALENDAR_DATE ( 2020, 10, 4 ) ;
#164 = ORIENTED_EDGE ( 'NONE', *, *, #299, .F. ) ;
#165 = ORIENTED_EDGE ( 'NONE', *, *, #87, .F. ) ;
#166 =( BOUNDED_CURVE ( )  B_SPLINE_CURVE ( 3, ( #265, #326, #320, #161 ),
 .UNSPECIFIED., .F., .T. ) 
 B_SPLINE_CURVE_WITH_KNOTS ( ( 4, 4 ),
 ( 2.344125802778453949, 3.939059504401131839 ),
 .UNSPECIFIED. ) 
 CURVE ( )  GEOMETRIC_REPRESENTATION_ITEM ( )  RATIONAL_B_SPLINE_CURVE ( ( 1.000000000000000000, 0.7990144280501143559, 0.7990144280501143559, 1.000000000000000000 ) ) 
 REPRESENTATION_ITEM ( '' )  );
#167 = FACE_BOUND ( 'NONE', #145, .T. ) ;
#168 = ORIENTED_EDGE ( 'NONE', *, *, #169, .F. ) ;
#169 = EDGE_CURVE ( 'NONE', #56, #56, #245, .T. ) ;
#170 = DIRECTION ( 'NONE',  ( -1.000000000000000000, -0.0000000000000000000, -0.0000000000000000000 ) ) ;
#171 = FACE_OUTER_BOUND ( 'NONE', #227, .T. ) ;
#172 = CC_DESIGN_APPROVAL ( #196, ( #117 ) ) ;
#173 = DIRECTION ( 'NONE',  ( 1.000000000000000000, 0.0000000000000000000, 0.0000000000000000000 ) ) ;
#174 = CONICAL_SURFACE ( 'NONE', #252, 16.00000000000000000, 0.1526493283952651825 ) ;
#175 = EDGE_CURVE ( 'NONE', #305, #305, #259, .T. ) ;
#176 = CARTESIAN_POINT ( 'NONE',  ( 111.2735849056603570, 0.0000000000000000000, 0.0000000000000000000 ) ) ;
#177 = PLANE ( 'NONE',  #12 ) ;
#178 = VERTEX_POINT ( 'NONE', #214 ) ;
#179 = CC_DESIGN_DATE_AND_TIME_ASSIGNMENT ( #73, #32, ( #151 ) ) ;
#180 = DESIGN_CONTEXT ( 'detailed design', #6, 'design' ) ;
#181 = AXIS2_PLACEMENT_3D ( 'NONE', #80, #78, #48 ) ;
#182 = FACE_OUTER_BOUND ( 'NONE', #338, .T. ) ;
#183 = ADVANCED_FACE ( 'NONE', ( #171, #167 ), #124, .T. ) ;
#184 = CARTESIAN_POINT ( 'NONE',  ( -127.5000000000000000, 0.0000000000000000000, 9.000000000000000000 ) ) ;
#185 = ADVANCED_FACE ( 'NONE', ( #100, #23 ), #8, .T. ) ;
#186 = APPROVAL_ROLE ( '' ) ;
#187 = ORIENTED_EDGE ( 'NONE', *, *, #290, .T. ) ;
#188 = CARTESIAN_POINT ( 'NONE',  ( -127.5000000000000000, 0.0000000000000000000, 0.0000000000000000000 ) ) ;
#189 = PERSON_AND_ORGANIZATION_ROLE ( 'creator' ) ;
#190 = FACE_BOUND ( 'NONE', #298, .T. ) ;
#191 = EDGE_LOOP ( 'NONE', ( #325 ) ) ;
#192 = DIRECTION ( 'NONE',  ( 0.0000000000000000000, 0.0000000000000000000, 1.000000000000000000 ) ) ;
#193 = APPROVAL_PERSON_ORGANIZATION ( #19, #58, #130 ) ;
#194 = VERTEX_POINT ( 'NONE', #263 ) ;
#195 = DIRECTION ( 'NONE',  ( 0.0000000000000000000, 0.0000000000000000000, 1.000000000000000000 ) ) ;
#196 = APPROVAL ( #77, 'UNSPECIFIED' ) ;
#197 = DIRECTION ( 'NONE',  ( 0.0000000000000000000, 0.0000000000000000000, 1.000000000000000000 ) ) ;
#198 = FACE_OUTER_BOUND ( 'NONE', #41, .T. ) ;
#199 = EDGE_LOOP ( 'NONE', ( #211 ) ) ;
#200 = DIRECTION ( 'NONE',  ( 0.0000000000000000000, 0.0000000000000000000, 1.000000000000000000 ) ) ;
#201 = EDGE_LOOP ( 'NONE', ( #168 ) ) ;
#202 = PERSON ( 'UNSPECIFIED', 'UNSPECIFIED', 'UNSPECIFIED', ('UNSPECIFIED'), ('UNSPECIFIED'), ('UNSPECIFIED') ) ;
#203 = AXIS2_PLACEMENT_3D ( 'NONE', #278, #248, #149 ) ;
#204 = AXIS2_PLACEMENT_3D ( 'NONE', #188, #237, #238 ) ;
#205 = LOCAL_TIME ( 23, 8, 59.00000000000000000, #120 ) ;
#206 = LINE ( 'NONE', #26, #154 ) ;
#207 = ADVANCED_FACE ( 'NONE', ( #44, #15 ), #329, .T. ) ;
#208 = DIRECTION ( 'NONE',  ( 1.000000000000000000, 0.0000000000000000000, 0.0000000000000000000 ) ) ;
#209 = ADVANCED_FACE ( 'NONE', ( #121, #264 ), #39, .T. ) ;
#210 = CARTESIAN_POINT ( 'NONE',  ( -112.5000000000000000, 0.0000000000000000000, 0.0000000000000000000 ) ) ;
#211 = ORIENTED_EDGE ( 'NONE', *, *, #22, .F. ) ;
#212 = PERSON_AND_ORGANIZATION_ROLE ( 'design_owner' ) ;
#213 = APPROVAL_STATUS ( 'not_yet_approved' ) ;
#214 = CARTESIAN_POINT ( 'NONE',  ( 127.5000000000000000, 0.0000000000000000000, 7.999999999999992895 ) ) ;
#215 = COORDINATED_UNIVERSAL_TIME_OFFSET ( 1, 0, .AHEAD. ) ;
#216 = SECURITY_CLASSIFICATION_LEVEL ( 'unclassified' ) ;
#217 = CIRCLE ( 'NONE', #181, 8.999999999999976907 ) ;
#218 = CC_DESIGN_SECURITY_CLASSIFICATION ( #257, ( #117 ) ) ;
#219 = ORIENTED_EDGE ( 'NONE', *, *, #290, .F. ) ;
#220 = AXIS2_PLACEMENT_3D ( 'NONE', #17, #170, #195 ) ;
#221 = VERTEX_POINT ( 'NONE', #3 ) ;
#222 = ORIENTED_EDGE ( 'NONE', *, *, #169, .T. ) ;
#223 = DIRECTION ( 'NONE',  ( 0.0000000000000000000, 0.0000000000000000000, -1.000000000000000000 ) ) ;
#224 = PLANE ( 'NONE',  #91 ) ;
#225 = CALENDAR_DATE ( 2020, 10, 4 ) ;
#226 = FACE_OUTER_BOUND ( 'NONE', #254, .T. ) ;
#227 = EDGE_LOOP ( 'NONE', ( #164 ) ) ;
#228 = FACE_OUTER_BOUND ( 'NONE', #67, .T. ) ;
#229 = ORIENTED_EDGE ( 'NONE', *, *, #306, .F. ) ;
#230 = DIRECTION ( 'NONE',  ( 1.000000000000000000, 0.0000000000000000000, 0.0000000000000000000 ) ) ;
#231 = DIRECTION ( 'NONE',  ( 0.0000000000000000000, 0.0000000000000000000, -1.000000000000000000 ) ) ;
#232 = AXIS2_PLACEMENT_3D ( 'NONE', #233, #139, #295 ) ;
#233 = CARTESIAN_POINT ( 'NONE',  ( -112.5000000000000000, 0.0000000000000000000, 0.0000000000000000000 ) ) ;
#234 = PERSON_AND_ORGANIZATION_ROLE ( 'design_supplier' ) ;
#235 = DATE_AND_TIME ( #156, #38 ) ;
#236 = SHAPE_DEFINITION_REPRESENTATION ( #159, #94 ) ;
#237 = DIRECTION ( 'NONE',  ( -1.000000000000000000, -0.0000000000000000000, -0.0000000000000000000 ) ) ;
#238 = DIRECTION ( 'NONE',  ( 0.0000000000000000000, 0.0000000000000000000, 1.000000000000000000 ) ) ;
#239 = DIRECTION ( 'NONE',  ( -1.000000000000000000, -0.0000000000000000000, -0.0000000000000000000 ) ) ;
#240 = AXIS2_PLACEMENT_3D ( 'NONE', #176, #119, #330 ) ;
#241 = CARTESIAN_POINT ( 'NONE',  ( -127.5000000000000000, 0.0000000000000000000, 0.0000000000000000000 ) ) ;
#242 = CYLINDRICAL_SURFACE ( 'NONE', #112, 16.00000000000000000 ) ;
#243 = CLOSED_SHELL ( 'NONE', ( #126, #207, #312, #185, #45, #128, #99, #284, #47, #183, #209, #287, #122 ) ) ;
#244 = COORDINATED_UNIVERSAL_TIME_OFFSET ( 1, 0, .AHEAD. ) ;
#245 = CIRCLE ( 'NONE', #220, 7.999999999999992895 ) ;
#246 = DIRECTION ( 'NONE',  ( -1.000000000000000000, -0.0000000000000000000, -0.0000000000000000000 ) ) ;
#247 = FACE_OUTER_BOUND ( 'NONE', #89, .T. ) ;
#248 = DIRECTION ( 'NONE',  ( -1.000000000000000000, -0.0000000000000000000, -0.0000000000000000000 ) ) ;
#249 = LOCAL_TIME ( 23, 8, 59.00000000000000000, #215 ) ;
#250 = CARTESIAN_POINT ( 'NONE',  ( -25.28281521888315453, 4.776477313716942064, -18.01233484547070063 ) ) ;
#251 = DIRECTION ( 'NONE',  ( -1.000000000000000000, -0.0000000000000000000, -0.0000000000000000000 ) ) ;
#252 = AXIS2_PLACEMENT_3D ( 'NONE', #61, #173, #92 ) ;
#253 = VERTEX_POINT ( 'NONE', #160 ) ;
#254 = EDGE_LOOP ( 'NONE', ( #75 ) ) ;
#255 = DATE_TIME_ROLE ( 'classification_date' ) ;
#256 =( GEOMETRIC_REPRESENTATION_CONTEXT ( 3 ) GLOBAL_UNCERTAINTY_ASSIGNED_CONTEXT ( ( #283 ) ) GLOBAL_UNIT_ASSIGNED_CONTEXT ( ( #29, #321, #52 ) ) REPRESENTATION_CONTEXT ( 'NONE', 'WORKASPACE' ) );
#257 = SECURITY_CLASSIFICATION ( '', '', #216 ) ;
#258 = LOCAL_TIME ( 23, 8, 59.00000000000000000, #81 ) ;
#259 = CIRCLE ( 'NONE', #307, 16.00000000000000000 ) ;
#260 = DIRECTION ( 'NONE',  ( -1.000000000000000000, -0.0000000000000000000, -0.0000000000000000000 ) ) ;
#261 = DIRECTION ( 'NONE',  ( -0.0000000000000000000, 0.0000000000000000000, 1.000000000000000000 ) ) ;
#262 = DIRECTION ( 'NONE',  ( 1.000000000000000000, 0.0000000000000000000, 0.0000000000000000000 ) ) ;
#263 = CARTESIAN_POINT ( 'NONE',  ( 111.2735849056603570, 0.0000000000000000000, -10.22641509433963414 ) ) ;
#264 = FACE_OUTER_BOUND ( 'NONE', #199, .T. ) ;
#265 = CARTESIAN_POINT ( 'NONE',  ( -24.32207967892065170, -11.44942286674167775, -11.17634627320274276 ) ) ;
#266 = ORIENTED_EDGE ( 'NONE', *, *, #299, .T. ) ;
#267 = VERTEX_POINT ( 'NONE', #322 ) ;
#268 = DIRECTION ( 'NONE',  ( 1.000000000000000000, 0.0000000000000000000, 0.0000000000000000000 ) ) ;
#269 = PERSON_AND_ORGANIZATION ( #202, #105 ) ;
#270 = CARTESIAN_POINT ( 'NONE',  ( -80.00000000000000000, 0.0000000000000000000, 0.0000000000000000000 ) ) ;
#271 = CC_DESIGN_APPROVAL ( #58, ( #151 ) ) ;
#272 = AXIS2_PLACEMENT_3D ( 'NONE', #158, #157, #230 ) ;
#273 = AXIS2_PLACEMENT_3D ( 'NONE', #241, #262, #108 ) ;
#274 = APPROVAL_PERSON_ORGANIZATION ( #50, #313, #129 ) ;
#275 = ORIENTED_EDGE ( 'NONE', *, *, #42, .T. ) ;
#276 = EDGE_CURVE ( 'NONE', #107, #107, #319, .T. ) ;
#277 = AXIS2_PLACEMENT_3D ( 'NONE', #133, #36, #197 ) ;
#278 = CARTESIAN_POINT ( 'NONE',  ( -127.5000000000000000, 0.0000000000000000000, 0.0000000000000000000 ) ) ;
#279 = PRODUCT ( 'Pivot', 'Pivot', '', ( #288 ) ) ;
#280 = PLANE ( 'NONE',  #318 ) ;
#281 = PERSON_AND_ORGANIZATION ( #202, #105 ) ;
#282 = FACE_OUTER_BOUND ( 'NONE', #125, .T. ) ;
#283 = UNCERTAINTY_MEASURE_WITH_UNIT (LENGTH_MEASURE( 1.000000000000000082E-05 ), #29, 'distance_accuracy_value', 'NONE');
#284 = ADVANCED_FACE ( 'NONE', ( #198, #226 ), #131, .T. ) ;
#285 = APPROVAL_DATE_TIME ( #43, #196 ) ;
#286 = EDGE_LOOP ( 'NONE', ( #147, #275 ) ) ;
#287 = ADVANCED_FACE ( 'NONE', ( #300 ), #37, .F. ) ;
#288 = MECHANICAL_CONTEXT ( 'NONE', #132, 'mechanical' ) ;
#289 = CARTESIAN_POINT ( 'NONE',  ( -112.5000000000000000, 0.0000000000000000000, -9.804277596548503837 ) ) ;
#290 = EDGE_CURVE ( 'NONE', #97, #97, #59, .T. ) ;
#291 = DATE_AND_TIME ( #163, #136 ) ;
#292 = PLANE ( 'NONE',  #115 ) ;
#293 = FACE_OUTER_BOUND ( 'NONE', #141, .T. ) ;
#294 = ORIENTED_EDGE ( 'NONE', *, *, #276, .F. ) ;
#295 = DIRECTION ( 'NONE',  ( 0.0000000000000000000, 0.0000000000000000000, 1.000000000000000000 ) ) ;
#296 = EDGE_LOOP ( 'NONE', ( #98 ) ) ;
#297 = CIRCLE ( 'NONE', #339, 7.999999999999992895 ) ;
#298 = EDGE_LOOP ( 'NONE', ( #85 ) ) ;
#299 = EDGE_CURVE ( 'NONE', #253, #253, #334, .T. ) ;
#300 = FACE_OUTER_BOUND ( 'NONE', #309, .T. ) ;
#301 = AXIS2_PLACEMENT_3D ( 'NONE', #210, #239, #231 ) ;
#302 = ORIENTED_EDGE ( 'NONE', *, *, #60, .T. ) ;
#303 = MANIFOLD_SOLID_BREP ( 'Enlèv. mat.-Extru.1', #243 ) ;
#304 = PERSON_AND_ORGANIZATION ( #202, #105 ) ;
#305 = VERTEX_POINT ( 'NONE', #315 ) ;
#306 = EDGE_CURVE ( 'NONE', #267, #31, #206, .T. ) ;
#307 = AXIS2_PLACEMENT_3D ( 'NONE', #270, #246, #86 ) ;
#308 = FACE_BOUND ( 'NONE', #11, .T. ) ;
#309 = EDGE_LOOP ( 'NONE', ( #332, #82 ) ) ;
#310 = CARTESIAN_POINT ( 'NONE',  ( 80.00000000000001421, 0.0000000000000000000, 16.00000000000000000 ) ) ;
#311 = CARTESIAN_POINT ( 'NONE',  ( 127.5000000000000000, 0.0000000000000000000, 0.0000000000000000000 ) ) ;
#312 = ADVANCED_FACE ( 'NONE', ( #282, #65 ), #292, .F. ) ;
#313 = APPROVAL ( #102, 'UNSPECIFIED' ) ;
#314 = PERSON_AND_ORGANIZATION_ROLE ( 'creator' ) ;
#315 = CARTESIAN_POINT ( 'NONE',  ( -80.00000000000000000, 0.0000000000000000000, 16.00000000000000000 ) ) ;
#316 =( BOUNDED_CURVE ( )  B_SPLINE_CURVE ( 3, ( #68, #250, #123, #153 ),
 .UNSPECIFIED., .F., .F. ) 
 B_SPLINE_CURVE_WITH_KNOTS ( ( 4, 4 ),
 ( 5.485718456368247509, 7.080652157990925843 ),
 .UNSPECIFIED. ) 
 CURVE ( )  GEOMETRIC_REPRESENTATION_ITEM ( )  RATIONAL_B_SPLINE_CURVE ( ( 1.000000000000000000, 0.7990144280501142449, 0.7990144280501142449, 1.000000000000000000 ) ) 
 REPRESENTATION_ITEM ( '' )  );
#317 = PERSON_AND_ORGANIZATION ( #202, #105 ) ;
#318 = AXIS2_PLACEMENT_3D ( 'NONE', #336, #208, #223 ) ;
#319 = CIRCLE ( 'NONE', #277, 16.00000000000000000 ) ;
#320 = CARTESIAN_POINT ( 'NONE',  ( 24.31850643076163010, 4.776477313716941175, -18.01233484547069708 ) ) ;
#321 =( NAMED_UNIT ( * ) PLANE_ANGLE_UNIT ( ) SI_UNIT ( $, .RADIAN. ) );
#322 = CARTESIAN_POINT ( 'NONE',  ( -24.32207967892065170, -11.44942286674167775, -11.17634627320274276 ) ) ;
#323 = CARTESIAN_POINT ( 'NONE',  ( -24.32207967892065170, -16.00000000000000000, -11.17634627320274276 ) ) ;
#324 = AXIS2_PLACEMENT_3D ( 'NONE', #109, #127, #331 ) ;
#325 = ORIENTED_EDGE ( 'NONE', *, *, #113, .T. ) ;
#326 = CARTESIAN_POINT ( 'NONE',  ( 24.31850643076160878, -4.776477313716950057, -18.01233484547069708 ) ) ;
#327 = EDGE_LOOP ( 'NONE', ( #302 ) ) ;
#328 = EDGE_CURVE ( 'NONE', #13, #13, #217, .T. ) ;
#329 = CYLINDRICAL_SURFACE ( 'NONE', #204, 7.999999999999992895 ) ;
#330 = DIRECTION ( 'NONE',  ( 0.0000000000000000000, 0.0000000000000000000, 1.000000000000000000 ) ) ;
#331 = DIRECTION ( 'NONE',  ( 0.0000000000000000000, 0.0000000000000000000, 1.000000000000000000 ) ) ;
#332 = ORIENTED_EDGE ( 'NONE', *, *, #306, .T. ) ;
#333 = APPROVAL_DATE_TIME ( #152, #58 ) ;
#334 = CIRCLE ( 'NONE', #76, 11.15205718425394821 ) ;
#335 = CARTESIAN_POINT ( 'NONE',  ( 127.5000000000000000, 0.0000000000000000000, 0.0000000000000000000 ) ) ;
#336 = CARTESIAN_POINT ( 'NONE',  ( -112.5000000000000000, 9.000000000000000000, 0.0000000000000000000 ) ) ;
#337 = FACE_BOUND ( 'NONE', #286, .T. ) ;
#338 = EDGE_LOOP ( 'NONE', ( #187 ) ) ;
#339 = AXIS2_PLACEMENT_3D ( 'NONE', #335, #251, #200 ) ;
#340 = DIRECTION ( 'NONE',  ( -0.0000000000000000000, 1.000000000000000000, -0.0000000000000000000 ) ) ;
ENDSEC;
END-ISO-10303-21;
