ISO-10303-21;
HEADER;
FILE_DESCRIPTION (( 'STEP AP214' ),
    '1' );
FILE_NAME ('Renforts taquets.STEP',
    '2020-03-04T17:26:08',
    ( 'Olivier' ),
    ( 'Microsoft' ),
    'SwSTEP 2.0',
    'SolidWorks 2010',
    '' );
FILE_SCHEMA (( 'AUTOMOTIVE_DESIGN' ));
ENDSEC;

DATA;
#1 = EDGE_CURVE ( 'NONE', #180, #175, #80, .T. ) ;
#2 = EDGE_CURVE ( 'NONE', #178, #182, #82, .T. ) ;
#3 = EDGE_CURVE ( 'NONE', #199, #165, #76, .T. ) ;
#4 = AXIS2_PLACEMENT_3D ( 'NONE', #204, #164, #124 ) ;
#5 = EDGE_CURVE ( 'NONE', #176, #179, #115, .T. ) ;
#6 = EDGE_CURVE ( 'NONE', #177, #200, #86, .T. ) ;
#7 = EDGE_CURVE ( 'NONE', #186, #185, #45, .T. ) ;
#8 = EDGE_CURVE ( 'NONE', #200, #177, #47, .T. ) ;
#9 = EDGE_CURVE ( 'NONE', #183, #199, #46, .T. ) ;
#10 = EDGE_CURVE ( 'NONE', #182, #178, #54, .T. ) ;
#11 = EDGE_CURVE ( 'NONE', #184, #183, #90, .T. ) ;
#12 = EDGE_CURVE ( 'NONE', #199, #180, #55, .T. ) ;
#13 = AXIS2_PLACEMENT_3D ( 'NONE', #189, #187, #188 ) ;
#14 = EDGE_CURVE ( 'NONE', #166, #181, #59, .T. ) ;
#15 =( GEOMETRIC_REPRESENTATION_CONTEXT ( 3 ) GLOBAL_UNCERTAINTY_ASSIGNED_CONTEXT ( ( #353 ) ) GLOBAL_UNIT_ASSIGNED_CONTEXT ( ( #261, #231, #228 ) ) REPRESENTATION_CONTEXT ( 'NONE', 'WORKASPACE' ) );
#16 = COLOUR_RGB ( '',0.7921568627450980000, 0.8196078431372548800, 0.9333333333333333500 ) ;
#17 = SURFACE_STYLE_FILL_AREA ( #227 ) ;
#18 = PRESENTATION_STYLE_ASSIGNMENT (( #225 ) ) ;
#19 = VECTOR ( 'NONE', #170, 1000.000000000000000 ) ;
#20 = CLOSED_SHELL ( 'NONE', ( #367, #368, #365, #361, #363, #366, #369, #362, #364, #360 ) ) ;
#21 = VECTOR ( 'NONE', #203, 1000.000000000000000 ) ;
#22 = LINE ( 'NONE', #291, #30 ) ;
#23 = ORIENTED_EDGE ( 'NONE', *, *, #306, .F. ) ;
#24 = COLOUR_RGB ( '',0.7921568627450980000, 0.8196078431372548800, 0.9333333333333333500 ) ;
#25 = ORIENTED_EDGE ( 'NONE', *, *, #1, .T. ) ;
#26 = ORIENTED_EDGE ( 'NONE', *, *, #312, .T. ) ;
#27 = EDGE_LOOP ( 'NONE', ( #91, #72, #81, #73 ) ) ;
#28 = ORIENTED_EDGE ( 'NONE', *, *, #308, .F. ) ;
#29 = ORIENTED_EDGE ( 'NONE', *, *, #5, .T. ) ;
#30 = VECTOR ( 'NONE', #159, 1000.000000000000000 ) ;
#31 = LINE ( 'NONE', #267, #36 ) ;
#32 = EDGE_LOOP ( 'NONE', ( #108, #106, #100, #40 ) ) ;
#33 = EDGE_LOOP ( 'NONE', ( #105, #26, #97, #87 ) ) ;
#34 = COLOUR_RGB ( '',0.7921568627450980000, 0.8196078431372548800, 0.9333333333333333500 ) ;
#35 = VECTOR ( 'NONE', #269, 1000.000000000000000 ) ;
#36 = VECTOR ( 'NONE', #264, 1000.000000000000000 ) ;
#37 = FACE_OUTER_BOUND ( 'NONE', #112, .T. ) ;
#38 = EDGE_LOOP ( 'NONE', ( #25, #69, #104, #84 ) ) ;
#39 = ORIENTED_EDGE ( 'NONE', *, *, #9, .F. ) ;
#40 = ORIENTED_EDGE ( 'NONE', *, *, #307, .T. ) ;
#41 = ORIENTED_EDGE ( 'NONE', *, *, #312, .F. ) ;
#42 = CIRCLE ( 'NONE', #342, 2.500000000000000900 ) ;
#43 = ORIENTED_EDGE ( 'NONE', *, *, #308, .T. ) ;
#44 = LINE ( 'NONE', #294, #52 ) ;
#45 = CIRCLE ( 'NONE', #327, 2.500000000000000900 ) ;
#46 = LINE ( 'NONE', #171, #85 ) ;
#47 = CIRCLE ( 'NONE', #321, 2.500000000000000900 ) ;
#48 = ORIENTED_EDGE ( 'NONE', *, *, #326, .F. ) ;
#49 = VECTOR ( 'NONE', #131, 1000.000000000000000 ) ;
#50 = ORIENTED_EDGE ( 'NONE', *, *, #1, .F. ) ;
#51 = VECTOR ( 'NONE', #299, 1000.000000000000000 ) ;
#52 = VECTOR ( 'NONE', #273, 1000.000000000000000 ) ;
#53 = ORIENTED_EDGE ( 'NONE', *, *, #333, .T. ) ;
#54 = CIRCLE ( 'NONE', #323, 2.500000000000002200 ) ;
#55 = LINE ( 'NONE', #136, #56 ) ;
#56 = VECTOR ( 'NONE', #143, 1000.000000000000000 ) ;
#57 = LINE ( 'NONE', #128, #49 ) ;
#58 = LINE ( 'NONE', #156, #61 ) ;
#59 = CIRCLE ( 'NONE', #319, 2.500000000000002200 ) ;
#60 = LINE ( 'NONE', #150, #62 ) ;
#61 = VECTOR ( 'NONE', #149, 1000.000000000000000 ) ;
#62 = VECTOR ( 'NONE', #139, 1000.000000000000000 ) ;
#63 = CIRCLE ( 'NONE', #344, 2.500000000000002200 ) ;
#64 = LINE ( 'NONE', #155, #65 ) ;
#65 = VECTOR ( 'NONE', #133, 1000.000000000000000 ) ;
#66 = LINE ( 'NONE', #286, #35 ) ;
#67 = ORIENTED_EDGE ( 'NONE', *, *, #333, .F. ) ;
#68 = EDGE_LOOP ( 'NONE', ( #29, #23, #71, #43 ) ) ;
#69 = ORIENTED_EDGE ( 'NONE', *, *, #316, .F. ) ;
#70 = LINE ( 'NONE', #157, #51 ) ;
#71 = ORIENTED_EDGE ( 'NONE', *, *, #11, .F. ) ;
#72 = ORIENTED_EDGE ( 'NONE', *, *, #313, .T. ) ;
#73 = ORIENTED_EDGE ( 'NONE', *, *, #10, .F. ) ;
#74 = ORIENTED_EDGE ( 'NONE', *, *, #7, .T. ) ;
#75 = ORIENTED_EDGE ( 'NONE', *, *, #304, .T. ) ;
#76 = LINE ( 'NONE', #174, #19 ) ;
#77 = ORIENTED_EDGE ( 'NONE', *, *, #6, .T. ) ;
#78 = ORIENTED_EDGE ( 'NONE', *, *, #14, .F. ) ;
#79 = VECTOR ( 'NONE', #169, 1000.000000000000000 ) ;
#80 = LINE ( 'NONE', #173, #21 ) ;
#81 = ORIENTED_EDGE ( 'NONE', *, *, #326, .T. ) ;
#82 = CIRCLE ( 'NONE', #4, 2.500000000000002200 ) ;
#83 = VECTOR ( 'NONE', #195, 1000.000000000000000 ) ;
#84 = ORIENTED_EDGE ( 'NONE', *, *, #12, .T. ) ;
#85 = VECTOR ( 'NONE', #198, 1000.000000000000000 ) ;
#86 = CIRCLE ( 'NONE', #13, 2.500000000000000900 ) ;
#87 = ORIENTED_EDGE ( 'NONE', *, *, #304, .F. ) ;
#88 = ORIENTED_EDGE ( 'NONE', *, *, #313, .F. ) ;
#89 = ORIENTED_EDGE ( 'NONE', *, *, #318, .F. ) ;
#90 = LINE ( 'NONE', #193, #83 ) ;
#91 = ORIENTED_EDGE ( 'NONE', *, *, #315, .F. ) ;
#92 = ORIENTED_EDGE ( 'NONE', *, *, #5, .F. ) ;
#93 = ORIENTED_EDGE ( 'NONE', *, *, #10, .T. ) ;
#94 = ORIENTED_EDGE ( 'NONE', *, *, #318, .T. ) ;
#95 = ORIENTED_EDGE ( 'NONE', *, *, #2, .T. ) ;
#96 = ORIENTED_EDGE ( 'NONE', *, *, #6, .F. ) ;
#97 = ORIENTED_EDGE ( 'NONE', *, *, #7, .F. ) ;
#98 = ORIENTED_EDGE ( 'NONE', *, *, #8, .F. ) ;
#99 = ORIENTED_EDGE ( 'NONE', *, *, #340, .F. ) ;
#100 = ORIENTED_EDGE ( 'NONE', *, *, #3, .T. ) ;
#101 = EDGE_LOOP ( 'NONE', ( #95, #93 ) ) ;
#102 = ORIENTED_EDGE ( 'NONE', *, *, #12, .F. ) ;
#103 = ORIENTED_EDGE ( 'NONE', *, *, #306, .T. ) ;
#104 = ORIENTED_EDGE ( 'NONE', *, *, #3, .F. ) ;
#105 = ORIENTED_EDGE ( 'NONE', *, *, #8, .T. ) ;
#106 = ORIENTED_EDGE ( 'NONE', *, *, #9, .T. ) ;
#107 = EDGE_LOOP ( 'NONE', ( #116, #119, #121, #48 ) ) ;
#108 = ORIENTED_EDGE ( 'NONE', *, *, #11, .T. ) ;
#109 = EDGE_LOOP ( 'NONE', ( #53, #102, #39, #103 ) ) ;
#110 = EDGE_LOOP ( 'NONE', ( #122, #28, #120, #118 ) ) ;
#111 = EDGE_LOOP ( 'NONE', ( #92, #99, #50, #67 ) ) ;
#112 = EDGE_LOOP ( 'NONE', ( #41, #77, #75, #89 ) ) ;
#113 = EDGE_LOOP ( 'NONE', ( #74, #94 ) ) ;
#114 = EDGE_LOOP ( 'NONE', ( #78, #88 ) ) ;
#115 = LINE ( 'NONE', #168, #79 ) ;
#116 = ORIENTED_EDGE ( 'NONE', *, *, #14, .T. ) ;
#117 = EDGE_LOOP ( 'NONE', ( #98, #96 ) ) ;
#118 = ORIENTED_EDGE ( 'NONE', *, *, #316, .T. ) ;
#119 = ORIENTED_EDGE ( 'NONE', *, *, #315, .T. ) ;
#120 = ORIENTED_EDGE ( 'NONE', *, *, #307, .F. ) ;
#121 = ORIENTED_EDGE ( 'NONE', *, *, #2, .F. ) ;
#122 = ORIENTED_EDGE ( 'NONE', *, *, #340, .T. ) ;
#123 = PRODUCT ( 'Renforts taquets', 'Renforts taquets', '', ( #216 ) ) ;
#124 = DIRECTION ( 'NONE',  ( 1.000000000000000000, 0.0000000000000000000, 0.0000000000000000000 ) ) ;
#125 = PLANE ( 'NONE',  #330 ) ;
#126 = DIRECTION ( 'NONE',  ( -0.0000000000000000000, -0.0000000000000000000, -1.000000000000000000 ) ) ;
#127 = CARTESIAN_POINT ( 'NONE',  ( 1.621902091457116300, 32.48792298716453100, 5.000000000000000000 ) ) ;
#128 = CARTESIAN_POINT ( 'NONE',  ( -3.378097908542885700, 32.48792298716453100, 5.000000000000000000 ) ) ;
#129 = CARTESIAN_POINT ( 'NONE',  ( -3.378097908542885700, 32.48792298716453100, 5.000000000000000000 ) ) ;
#130 = CARTESIAN_POINT ( 'NONE',  ( -48.37809790854289100, 47.48792298716453100, 0.0000000000000000000 ) ) ;
#131 = DIRECTION ( 'NONE',  ( -0.0000000000000000000, -0.0000000000000000000, -1.000000000000000000 ) ) ;
#132 = CARTESIAN_POINT ( 'NONE',  ( 11.62190209145710900, 47.48792298716453100, 5.000000000000000000 ) ) ;
#133 = DIRECTION ( 'NONE',  ( -0.0000000000000000000, -0.0000000000000000000, -1.000000000000000000 ) ) ;
#134 = CARTESIAN_POINT ( 'NONE',  ( -48.37809790854289100, 47.48792298716453100, 5.000000000000000000 ) ) ;
#135 = CARTESIAN_POINT ( 'NONE',  ( -35.87809790854289100, 32.48792298716453100, 5.000000000000000000 ) ) ;
#136 = CARTESIAN_POINT ( 'NONE',  ( 11.62190209145710900, 17.48792298716453400, 5.000000000000000000 ) ) ;
#137 = CARTESIAN_POINT ( 'NONE',  ( 11.62190209145710900, 47.48792298716453100, 0.0000000000000000000 ) ) ;
#138 = CARTESIAN_POINT ( 'NONE',  ( -38.37809790854289100, 32.48792298716453100, 0.0000000000000000000 ) ) ;
#139 = DIRECTION ( 'NONE',  ( -1.000000000000000000, -0.0000000000000000000, -0.0000000000000000000 ) ) ;
#140 = DIRECTION ( 'NONE',  ( 0.0000000000000000000, 0.0000000000000000000, 1.000000000000000000 ) ) ;
#141 = FILL_AREA_STYLE_COLOUR ( '', #34 ) ;
#142 = CARTESIAN_POINT ( 'NONE',  ( 1.621902091457116300, 32.48792298716453100, 0.0000000000000000000 ) ) ;
#143 = DIRECTION ( 'NONE',  ( -0.0000000000000000000, -0.0000000000000000000, -1.000000000000000000 ) ) ;
#144 = CARTESIAN_POINT ( 'NONE',  ( -33.37809790854289100, 32.48792298716453100, 0.0000000000000000000 ) ) ;
#145 = CARTESIAN_POINT ( 'NONE',  ( -48.37809790854289100, 47.48792298716453100, 5.000000000000000000 ) ) ;
#146 = CARTESIAN_POINT ( 'NONE',  ( 11.62190209145710900, 17.48792298716453400, 0.0000000000000000000 ) ) ;
#147 = CARTESIAN_POINT ( 'NONE',  ( -3.378097908542885700, 32.48792298716453100, 0.0000000000000000000 ) ) ;
#148 = CARTESIAN_POINT ( 'NONE',  ( -38.37809790854289100, 32.48792298716453100, 5.000000000000000000 ) ) ;
#149 = DIRECTION ( 'NONE',  ( -0.0000000000000000000, -0.0000000000000000000, -1.000000000000000000 ) ) ;
#150 = CARTESIAN_POINT ( 'NONE',  ( -48.37809790854289100, 47.48792298716453100, 5.000000000000000000 ) ) ;
#151 = CARTESIAN_POINT ( 'NONE',  ( -48.37809790854289100, 17.48792298716453400, 0.0000000000000000000 ) ) ;
#152 = DIRECTION ( 'NONE',  ( 1.000000000000000000, 0.0000000000000000000, 0.0000000000000000000 ) ) ;
#153 = CARTESIAN_POINT ( 'NONE',  ( -48.37809790854289100, 17.48792298716453400, 5.000000000000000000 ) ) ;
#154 = CARTESIAN_POINT ( 'NONE',  ( 11.62190209145710900, 17.48792298716453400, 5.000000000000000000 ) ) ;
#155 = CARTESIAN_POINT ( 'NONE',  ( -48.37809790854289100, 47.48792298716453100, 5.000000000000000000 ) ) ;
#156 = CARTESIAN_POINT ( 'NONE',  ( -48.37809790854289100, 17.48792298716453400, 5.000000000000000000 ) ) ;
#157 = CARTESIAN_POINT ( 'NONE',  ( -33.37809790854289100, 32.48792298716453100, 5.000000000000000000 ) ) ;
#158 = PLANE ( 'NONE',  #310 ) ;
#159 = DIRECTION ( 'NONE',  ( -0.0000000000000000000, -0.0000000000000000000, -1.000000000000000000 ) ) ;
#160 = CARTESIAN_POINT ( 'NONE',  ( -0.8780979085428846100, 32.48792298716453100, 5.000000000000000000 ) ) ;
#161 = DIRECTION ( 'NONE',  ( 0.0000000000000000000, 0.0000000000000000000, 1.000000000000000000 ) ) ;
#162 = DIRECTION ( 'NONE',  ( 1.000000000000000000, 0.0000000000000000000, 0.0000000000000000000 ) ) ;
#163 =( NAMED_UNIT ( * ) SI_UNIT ( $, .STERADIAN. ) SOLID_ANGLE_UNIT ( ) );
#164 = DIRECTION ( 'NONE',  ( 0.0000000000000000000, 0.0000000000000000000, 1.000000000000000000 ) ) ;
#165 = VERTEX_POINT ( 'NONE', #132 ) ;
#166 = VERTEX_POINT ( 'NONE', #148 ) ;
#167 =( NAMED_UNIT ( * ) PLANE_ANGLE_UNIT ( ) SI_UNIT ( $, .RADIAN. ) );
#168 = CARTESIAN_POINT ( 'NONE',  ( -48.37809790854289100, 17.48792298716453400, 0.0000000000000000000 ) ) ;
#169 = DIRECTION ( 'NONE',  ( -0.0000000000000000000, -1.000000000000000000, -0.0000000000000000000 ) ) ;
#170 = DIRECTION ( 'NONE',  ( 0.0000000000000000000, 1.000000000000000000, 0.0000000000000000000 ) ) ;
#171 = CARTESIAN_POINT ( 'NONE',  ( -48.37809790854289100, 17.48792298716453400, 5.000000000000000000 ) ) ;
#172 = CARTESIAN_POINT ( 'NONE',  ( -35.87809790854289100, 32.48792298716453100, 5.000000000000000000 ) ) ;
#173 = CARTESIAN_POINT ( 'NONE',  ( 11.62190209145710900, 17.48792298716453400, 0.0000000000000000000 ) ) ;
#174 = CARTESIAN_POINT ( 'NONE',  ( 11.62190209145710900, 17.48792298716453400, 5.000000000000000000 ) ) ;
#175 = VERTEX_POINT ( 'NONE', #137 ) ;
#176 = VERTEX_POINT ( 'NONE', #130 ) ;
#177 = VERTEX_POINT ( 'NONE', #127 ) ;
#178 = VERTEX_POINT ( 'NONE', #138 ) ;
#179 = VERTEX_POINT ( 'NONE', #151 ) ;
#180 = VERTEX_POINT ( 'NONE', #146 ) ;
#181 = VERTEX_POINT ( 'NONE', #194 ) ;
#182 = VERTEX_POINT ( 'NONE', #144 ) ;
#183 = VERTEX_POINT ( 'NONE', #153 ) ;
#184 = VERTEX_POINT ( 'NONE', #145 ) ;
#185 = VERTEX_POINT ( 'NONE', #142 ) ;
#186 = VERTEX_POINT ( 'NONE', #147 ) ;
#187 = DIRECTION ( 'NONE',  ( 0.0000000000000000000, 0.0000000000000000000, 1.000000000000000000 ) ) ;
#188 = DIRECTION ( 'NONE',  ( 1.000000000000000000, 0.0000000000000000000, 0.0000000000000000000 ) ) ;
#189 = CARTESIAN_POINT ( 'NONE',  ( -0.8780979085428846100, 32.48792298716453100, 5.000000000000000000 ) ) ;
#190 = DIRECTION ( 'NONE',  ( 1.000000000000000000, 0.0000000000000000000, 0.0000000000000000000 ) ) ;
#191 = DIRECTION ( 'NONE',  ( 0.0000000000000000000, 0.0000000000000000000, 1.000000000000000000 ) ) ;
#192 = DIRECTION ( 'NONE',  ( 1.000000000000000000, 0.0000000000000000000, 0.0000000000000000000 ) ) ;
#193 = CARTESIAN_POINT ( 'NONE',  ( -48.37809790854289100, 17.48792298716453400, 5.000000000000000000 ) ) ;
#194 = CARTESIAN_POINT ( 'NONE',  ( -33.37809790854289100, 32.48792298716453100, 5.000000000000000000 ) ) ;
#195 = DIRECTION ( 'NONE',  ( -0.0000000000000000000, -1.000000000000000000, -0.0000000000000000000 ) ) ;
#196 = DIRECTION ( 'NONE',  ( 0.0000000000000000000, 0.0000000000000000000, 1.000000000000000000 ) ) ;
#197 = CARTESIAN_POINT ( 'NONE',  ( -35.87809790854289100, 32.48792298716453100, 0.0000000000000000000 ) ) ;
#198 = DIRECTION ( 'NONE',  ( 1.000000000000000000, 0.0000000000000000000, 0.0000000000000000000 ) ) ;
#199 = VERTEX_POINT ( 'NONE', #154 ) ;
#200 = VERTEX_POINT ( 'NONE', #129 ) ;
#201 = DIRECTION ( 'NONE',  ( 0.0000000000000000000, 0.0000000000000000000, 1.000000000000000000 ) ) ;
#202 = DIRECTION ( 'NONE',  ( 1.000000000000000000, 0.0000000000000000000, 0.0000000000000000000 ) ) ;
#203 = DIRECTION ( 'NONE',  ( 0.0000000000000000000, 1.000000000000000000, 0.0000000000000000000 ) ) ;
#204 = CARTESIAN_POINT ( 'NONE',  ( -35.87809790854289100, 32.48792298716453100, 0.0000000000000000000 ) ) ;
#205 = CARTESIAN_POINT ( 'NONE',  ( -0.8780979085428846100, 32.48792298716453100, 5.000000000000000000 ) ) ;
#206 = CARTESIAN_POINT ( 'NONE',  ( -0.8780979085428846100, 32.48792298716453100, 0.0000000000000000000 ) ) ;
#207 =( LENGTH_UNIT ( ) NAMED_UNIT ( * ) SI_UNIT ( .MILLI., .METRE. ) );
#208 = SURFACE_STYLE_USAGE ( .BOTH. , #209 ) ;
#209 = SURFACE_SIDE_STYLE ('',( #382 ) ) ;
#210 = FILL_AREA_STYLE ('',( #211 ) ) ;
#211 = FILL_AREA_STYLE_COLOUR ( '', #24 ) ;
#212 = DIRECTION ( 'NONE',  ( -1.000000000000000000, 0.0000000000000000000, 0.0000000000000000000 ) ) ;
#213 = PLANE ( 'NONE',  #305 ) ;
#214 = APPLICATION_PROTOCOL_DEFINITION ( 'draft international standard', 'automotive_design', 1998, #215 ) ;
#215 = APPLICATION_CONTEXT ( 'automotive_design' ) ;
#216 = PRODUCT_CONTEXT ( 'NONE', #218, 'mechanical' ) ;
#217 = APPLICATION_PROTOCOL_DEFINITION ( 'draft international standard', 'automotive_design', 1998, #218 ) ;
#218 = APPLICATION_CONTEXT ( 'automotive_design' ) ;
#219 = DIRECTION ( 'NONE',  ( 1.000000000000000000, 0.0000000000000000000, 0.0000000000000000000 ) ) ;
#220 = DIRECTION ( 'NONE',  ( 0.0000000000000000000, 0.0000000000000000000, 1.000000000000000000 ) ) ;
#221 = CARTESIAN_POINT ( 'NONE',  ( 0.0000000000000000000, 0.0000000000000000000, 0.0000000000000000000 ) ) ;
#222 =( NAMED_UNIT ( * ) SI_UNIT ( $, .STERADIAN. ) SOLID_ANGLE_UNIT ( ) );
#223 =( NAMED_UNIT ( * ) PLANE_ANGLE_UNIT ( ) SI_UNIT ( $, .RADIAN. ) );
#224 =( LENGTH_UNIT ( ) NAMED_UNIT ( * ) SI_UNIT ( .MILLI., .METRE. ) );
#225 = SURFACE_STYLE_USAGE ( .BOTH. , #226 ) ;
#226 = SURFACE_SIDE_STYLE ('',( #17 ) ) ;
#227 = FILL_AREA_STYLE ('',( #234 ) ) ;
#228 =( NAMED_UNIT ( * ) SI_UNIT ( $, .STERADIAN. ) SOLID_ANGLE_UNIT ( ) );
#229 = DIRECTION ( 'NONE',  ( 0.0000000000000000000, 0.0000000000000000000, 1.000000000000000000 ) ) ;
#230 = DIRECTION ( 'NONE',  ( -1.000000000000000000, 0.0000000000000000000, 0.0000000000000000000 ) ) ;
#231 =( NAMED_UNIT ( * ) PLANE_ANGLE_UNIT ( ) SI_UNIT ( $, .RADIAN. ) );
#232 = PLANE ( 'NONE',  #328 ) ;
#233 = CARTESIAN_POINT ( 'NONE',  ( 11.62190209145710900, 17.48792298716453400, 5.000000000000000000 ) ) ;
#234 = FILL_AREA_STYLE_COLOUR ( '', #16 ) ;
#235 =( NAMED_UNIT ( * ) SI_UNIT ( $, .STERADIAN. ) SOLID_ANGLE_UNIT ( ) );
#236 =( NAMED_UNIT ( * ) PLANE_ANGLE_UNIT ( ) SI_UNIT ( $, .RADIAN. ) );
#237 = CARTESIAN_POINT ( 'NONE',  ( -35.87809790854289100, 32.48792298716453100, 5.000000000000000000 ) ) ;
#238 =( NAMED_UNIT ( * ) SI_UNIT ( $, .STERADIAN. ) SOLID_ANGLE_UNIT ( ) );
#239 =( LENGTH_UNIT ( ) NAMED_UNIT ( * ) SI_UNIT ( .MILLI., .METRE. ) );
#240 =( NAMED_UNIT ( * ) PLANE_ANGLE_UNIT ( ) SI_UNIT ( $, .RADIAN. ) );
#241 =( LENGTH_UNIT ( ) NAMED_UNIT ( * ) SI_UNIT ( .MILLI., .METRE. ) );
#242 = SURFACE_STYLE_USAGE ( .BOTH. , #244 ) ;
#243 = SURFACE_STYLE_USAGE ( .BOTH. , #247 ) ;
#244 = SURFACE_SIDE_STYLE ('',( #379 ) ) ;
#245 = FILL_AREA_STYLE ('',( #246 ) ) ;
#246 = FILL_AREA_STYLE_COLOUR ( '', #410 ) ;
#247 = SURFACE_SIDE_STYLE ('',( #377 ) ) ;
#248 = DIRECTION ( 'NONE',  ( -0.0000000000000000000, -0.0000000000000000000, -1.000000000000000000 ) ) ;
#249 = FILL_AREA_STYLE ('',( #141 ) ) ;
#250 = DIRECTION ( 'NONE',  ( -1.000000000000000000, 0.0000000000000000000, 0.0000000000000000000 ) ) ;
#251 = CARTESIAN_POINT ( 'NONE',  ( -0.8780979085428846100, 32.48792298716453100, 5.000000000000000000 ) ) ;
#252 = DIRECTION ( 'NONE',  ( -1.000000000000000000, -0.0000000000000000000, -0.0000000000000000000 ) ) ;
#253 =( NAMED_UNIT ( * ) SI_UNIT ( $, .STERADIAN. ) SOLID_ANGLE_UNIT ( ) );
#254 =( NAMED_UNIT ( * ) PLANE_ANGLE_UNIT ( ) SI_UNIT ( $, .RADIAN. ) );
#255 =( LENGTH_UNIT ( ) NAMED_UNIT ( * ) SI_UNIT ( .MILLI., .METRE. ) );
#256 = SURFACE_STYLE_USAGE ( .BOTH. , #257 ) ;
#257 = SURFACE_SIDE_STYLE ('',( #397 ) ) ;
#258 = FILL_AREA_STYLE ('',( #260 ) ) ;
#259 = CARTESIAN_POINT ( 'NONE',  ( -48.37809790854289100, 47.48792298716453100, 0.0000000000000000000 ) ) ;
#260 = FILL_AREA_STYLE_COLOUR ( '', #378 ) ;
#261 =( LENGTH_UNIT ( ) NAMED_UNIT ( * ) SI_UNIT ( .MILLI., .METRE. ) );
#262 = DIRECTION ( 'NONE',  ( 0.0000000000000000000, -0.0000000000000000000, 1.000000000000000000 ) ) ;
#263 = DIRECTION ( 'NONE',  ( 0.0000000000000000000, 1.000000000000000000, 0.0000000000000000000 ) ) ;
#264 = DIRECTION ( 'NONE',  ( 1.000000000000000000, 0.0000000000000000000, 0.0000000000000000000 ) ) ;
#265 = DIRECTION ( 'NONE',  ( -1.000000000000000000, 0.0000000000000000000, 0.0000000000000000000 ) ) ;
#266 = DIRECTION ( 'NONE',  ( -1.000000000000000000, 0.0000000000000000000, -0.0000000000000000000 ) ) ;
#267 = CARTESIAN_POINT ( 'NONE',  ( -48.37809790854289100, 17.48792298716453400, 0.0000000000000000000 ) ) ;
#268 = DIRECTION ( 'NONE',  ( 0.0000000000000000000, 0.0000000000000000000, -1.000000000000000000 ) ) ;
#269 = DIRECTION ( 'NONE',  ( -0.0000000000000000000, -0.0000000000000000000, -1.000000000000000000 ) ) ;
#270 = CARTESIAN_POINT ( 'NONE',  ( -48.37809790854289100, 47.48792298716453100, 5.000000000000000000 ) ) ;
#271 = PLANE ( 'NONE',  #331 ) ;
#272 = CARTESIAN_POINT ( 'NONE',  ( -48.37809790854289100, 17.48792298716453400, 5.000000000000000000 ) ) ;
#273 = DIRECTION ( 'NONE',  ( -0.0000000000000000000, -0.0000000000000000000, -1.000000000000000000 ) ) ;
#274 = DIRECTION ( 'NONE',  ( -0.0000000000000000000, -0.0000000000000000000, -1.000000000000000000 ) ) ;
#275 = CARTESIAN_POINT ( 'NONE',  ( -35.87809790854289100, 32.48792298716453100, 5.000000000000000000 ) ) ;
#276 = CARTESIAN_POINT ( 'NONE',  ( -0.8780979085428846100, 32.48792298716453100, 0.0000000000000000000 ) ) ;
#277 =( NAMED_UNIT ( * ) SI_UNIT ( $, .STERADIAN. ) SOLID_ANGLE_UNIT ( ) );
#278 =( NAMED_UNIT ( * ) PLANE_ANGLE_UNIT ( ) SI_UNIT ( $, .RADIAN. ) );
#279 =( LENGTH_UNIT ( ) NAMED_UNIT ( * ) SI_UNIT ( .MILLI., .METRE. ) );
#280 = SURFACE_STYLE_USAGE ( .BOTH. , #282 ) ;
#281 = DIRECTION ( 'NONE',  ( 1.000000000000000000, 0.0000000000000000000, 0.0000000000000000000 ) ) ;
#282 = SURFACE_SIDE_STYLE ('',( #398 ) ) ;
#283 = FILL_AREA_STYLE ('',( #284 ) ) ;
#284 = FILL_AREA_STYLE_COLOUR ( '', #396 ) ;
#285 = PLANE ( 'NONE',  #311 ) ;
#286 = CARTESIAN_POINT ( 'NONE',  ( 1.621902091457116300, 32.48792298716453100, 5.000000000000000000 ) ) ;
#287 = DIRECTION ( 'NONE',  ( 0.0000000000000000000, 0.0000000000000000000, -1.000000000000000000 ) ) ;
#288 = DIRECTION ( 'NONE',  ( 1.000000000000000000, 0.0000000000000000000, 0.0000000000000000000 ) ) ;
#289 = DIRECTION ( 'NONE',  ( 0.0000000000000000000, 0.0000000000000000000, 1.000000000000000000 ) ) ;
#290 = DIRECTION ( 'NONE',  ( -1.000000000000000000, 0.0000000000000000000, 0.0000000000000000000 ) ) ;
#291 = CARTESIAN_POINT ( 'NONE',  ( 11.62190209145710900, 47.48792298716453100, 5.000000000000000000 ) ) ;
#292 = DIRECTION ( 'NONE',  ( 0.0000000000000000000, -0.0000000000000000000, -1.000000000000000000 ) ) ;
#293 = DIRECTION ( 'NONE',  ( 0.0000000000000000000, -1.000000000000000000, 0.0000000000000000000 ) ) ;
#294 = CARTESIAN_POINT ( 'NONE',  ( -38.37809790854289100, 32.48792298716453100, 5.000000000000000000 ) ) ;
#295 = DIRECTION ( 'NONE',  ( -0.0000000000000000000, -0.0000000000000000000, -1.000000000000000000 ) ) ;
#296 = CARTESIAN_POINT ( 'NONE',  ( -48.37809790854289100, 17.48792298716453400, 5.000000000000000000 ) ) ;
#297 = DIRECTION ( 'NONE',  ( -1.000000000000000000, 0.0000000000000000000, -0.0000000000000000000 ) ) ;
#298 = DIRECTION ( 'NONE',  ( 0.0000000000000000000, 0.0000000000000000000, -1.000000000000000000 ) ) ;
#299 = DIRECTION ( 'NONE',  ( -0.0000000000000000000, -0.0000000000000000000, -1.000000000000000000 ) ) ;
#300 = CARTESIAN_POINT ( 'NONE',  ( -48.37809790854289100, 47.48792298716453100, 0.0000000000000000000 ) ) ;
#301 = STYLED_ITEM ( 'NONE', ( #18 ), #359 ) ;
#302 =( GEOMETRIC_REPRESENTATION_CONTEXT ( 3 ) GLOBAL_UNCERTAINTY_ASSIGNED_CONTEXT ( ( #358 ) ) GLOBAL_UNIT_ASSIGNED_CONTEXT ( ( #224, #223, #222 ) ) REPRESENTATION_CONTEXT ( 'NONE', 'WORKASPACE' ) );
#303 = SHAPE_DEFINITION_REPRESENTATION ( #349, #359 ) ;
#304 = EDGE_CURVE ( 'NONE', #200, #186, #57, .T. ) ;
#305 = AXIS2_PLACEMENT_3D ( 'NONE', #300, #298, #297 ) ;
#306 = EDGE_CURVE ( 'NONE', #183, #179, #58, .T. ) ;
#307 = EDGE_CURVE ( 'NONE', #165, #184, #60, .T. ) ;
#308 = EDGE_CURVE ( 'NONE', #184, #176, #64, .T. ) ;
#309 = AXIS2_PLACEMENT_3D ( 'NONE', #221, #220, #219 ) ;
#310 = AXIS2_PLACEMENT_3D ( 'NONE', #296, #288, #287 ) ;
#311 = AXIS2_PLACEMENT_3D ( 'NONE', #270, #268, #266 ) ;
#312 = EDGE_CURVE ( 'NONE', #177, #185, #66, .T. ) ;
#313 = EDGE_CURVE ( 'NONE', #181, #166, #63, .T. ) ;
#314 = MECHANICAL_DESIGN_GEOMETRIC_PRESENTATION_REPRESENTATION (  '', ( #381 ), #405 ) ;
#315 = EDGE_CURVE ( 'NONE', #181, #182, #70, .T. ) ;
#316 = EDGE_CURVE ( 'NONE', #165, #175, #22, .T. ) ;
#317 = AXIS2_PLACEMENT_3D ( 'NONE', #237, #248, #250 ) ;
#318 = EDGE_CURVE ( 'NONE', #185, #186, #42, .T. ) ;
#319 = AXIS2_PLACEMENT_3D ( 'NONE', #172, #140, #152 ) ;
#320 = MECHANICAL_DESIGN_GEOMETRIC_PRESENTATION_REPRESENTATION (  '', ( #371 ), #385 ) ;
#321 = AXIS2_PLACEMENT_3D ( 'NONE', #205, #196, #190 ) ;
#322 = PRESENTATION_LAYER_ASSIGNMENT (  '', '', ( #374 ) ) ;
#323 = AXIS2_PLACEMENT_3D ( 'NONE', #197, #191, #192 ) ;
#324 = PRESENTATION_LAYER_ASSIGNMENT (  '', '', ( #301 ) ) ;
#325 = AXIS2_PLACEMENT_3D ( 'NONE', #160, #126, #212 ) ;
#326 = EDGE_CURVE ( 'NONE', #166, #178, #44, .T. ) ;
#327 = AXIS2_PLACEMENT_3D ( 'NONE', #206, #201, #202 ) ;
#328 = AXIS2_PLACEMENT_3D ( 'NONE', #233, #230, #229 ) ;
#329 = PRODUCT_RELATED_PRODUCT_CATEGORY ( 'part', '', ( #123 ) ) ;
#330 = AXIS2_PLACEMENT_3D ( 'NONE', #134, #293, #292 ) ;
#331 = AXIS2_PLACEMENT_3D ( 'NONE', #272, #263, #262 ) ;
#332 = MECHANICAL_DESIGN_GEOMETRIC_PRESENTATION_REPRESENTATION (  '', ( #409 ), #407 ) ;
#333 = EDGE_CURVE ( 'NONE', #179, #180, #31, .T. ) ;
#334 = PRESENTATION_LAYER_ASSIGNMENT (  '', '', ( #394 ) ) ;
#335 = MECHANICAL_DESIGN_GEOMETRIC_PRESENTATION_REPRESENTATION (  '', ( #301 ), #302 ) ;
#336 = PRESENTATION_LAYER_ASSIGNMENT (  '', '', ( #371 ) ) ;
#337 = AXIS2_PLACEMENT_3D ( 'NONE', #251, #274, #265 ) ;
#338 = MECHANICAL_DESIGN_GEOMETRIC_PRESENTATION_REPRESENTATION (  '', ( #394 ), #393 ) ;
#339 = PRESENTATION_LAYER_ASSIGNMENT (  '', '', ( #381 ) ) ;
#340 = EDGE_CURVE ( 'NONE', #175, #176, #372, .T. ) ;
#341 = AXIS2_PLACEMENT_3D ( 'NONE', #275, #295, #290 ) ;
#342 = AXIS2_PLACEMENT_3D ( 'NONE', #276, #161, #281 ) ;
#343 = PRESENTATION_LAYER_ASSIGNMENT (  '', '', ( #409 ) ) ;
#344 = AXIS2_PLACEMENT_3D ( 'NONE', #135, #289, #162 ) ;
#345 = PRODUCT_DEFINITION_FORMATION_WITH_SPECIFIED_SOURCE ( 'ANY', '', #123, .NOT_KNOWN. ) ;
#346 = MECHANICAL_DESIGN_GEOMETRIC_PRESENTATION_REPRESENTATION (  '', ( #374 ), #348 ) ;
#347 = PRODUCT_DEFINITION ( 'UNKNOWN', '', #345, #350 ) ;
#348 =( GEOMETRIC_REPRESENTATION_CONTEXT ( 3 ) GLOBAL_UNCERTAINTY_ASSIGNED_CONTEXT ( ( #354 ) ) GLOBAL_UNIT_ASSIGNED_CONTEXT ( ( #255, #254, #253 ) ) REPRESENTATION_CONTEXT ( 'NONE', 'WORKASPACE' ) );
#349 = PRODUCT_DEFINITION_SHAPE ( 'NONE', 'NONE',  #347 ) ;
#350 = PRODUCT_DEFINITION_CONTEXT ( 'detailed design', #215, 'design' ) ;
#351 = UNCERTAINTY_MEASURE_WITH_UNIT (LENGTH_MEASURE( 1.000000000000000100E-005 ), #239, 'distance_accuracy_value', 'NONE');
#352 = MANIFOLD_SOLID_BREP ( 'Boss.-Extru.1', #20 ) ;
#353 = UNCERTAINTY_MEASURE_WITH_UNIT (LENGTH_MEASURE( 1.000000000000000100E-005 ), #261, 'distance_accuracy_value', 'NONE');
#354 = UNCERTAINTY_MEASURE_WITH_UNIT (LENGTH_MEASURE( 1.000000000000000100E-005 ), #255, 'distance_accuracy_value', 'NONE');
#355 = UNCERTAINTY_MEASURE_WITH_UNIT (LENGTH_MEASURE( 1.000000000000000100E-005 ), #279, 'distance_accuracy_value', 'NONE');
#356 = UNCERTAINTY_MEASURE_WITH_UNIT (LENGTH_MEASURE( 1.000000000000000100E-005 ), #207, 'distance_accuracy_value', 'NONE');
#357 = UNCERTAINTY_MEASURE_WITH_UNIT (LENGTH_MEASURE( 1.000000000000000100E-005 ), #241, 'distance_accuracy_value', 'NONE');
#358 = UNCERTAINTY_MEASURE_WITH_UNIT (LENGTH_MEASURE( 1.000000000000000100E-005 ), #224, 'distance_accuracy_value', 'NONE');
#359 = ADVANCED_BREP_SHAPE_REPRESENTATION ( 'Renforts taquets', ( #352, #309 ), #15 ) ;
#360 = ADVANCED_FACE ( 'NONE', ( #37 ), #383, .F. ) ;
#361 = ADVANCED_FACE ( 'NONE', ( #373, #403, #401 ), #213, .T. ) ;
#362 = ADVANCED_FACE ( 'NONE', ( #400 ), #125, .F. ) ;
#363 = ADVANCED_FACE ( 'NONE', ( #404 ), #158, .F. ) ;
#364 = ADVANCED_FACE ( 'NONE', ( #384 ), #399, .F. ) ;
#365 = ADVANCED_FACE ( 'NONE', ( #370, #390, #387 ), #285, .F. ) ;
#366 = ADVANCED_FACE ( 'NONE', ( #386 ), #271, .F. ) ;
#367 = ADVANCED_FACE ( 'NONE', ( #392 ), #389, .F. ) ;
#368 = ADVANCED_FACE ( 'NONE', ( #402 ), #380, .F. ) ;
#369 = ADVANCED_FACE ( 'NONE', ( #406 ), #232, .F. ) ;
#370 = FACE_BOUND ( 'NONE', #114, .T. ) ;
#371 = STYLED_ITEM ( 'NONE', ( #376 ), #352 ) ;
#372 = LINE ( 'NONE', #259, #388 ) ;
#373 = FACE_BOUND ( 'NONE', #101, .T. ) ;
#374 = STYLED_ITEM ( 'NONE', ( #375 ), #367 ) ;
#375 = PRESENTATION_STYLE_ASSIGNMENT (( #256 ) ) ;
#376 = PRESENTATION_STYLE_ASSIGNMENT (( #243 ) ) ;
#377 = SURFACE_STYLE_FILL_AREA ( #249 ) ;
#378 = COLOUR_RGB ( '',0.7921568627450980000, 0.8196078431372548800, 0.9333333333333333500 ) ;
#379 = SURFACE_STYLE_FILL_AREA ( #245 ) ;
#380 = CYLINDRICAL_SURFACE ( 'NONE', #317, 2.500000000000002200 ) ;
#381 = STYLED_ITEM ( 'NONE', ( #391 ), #360 ) ;
#382 = SURFACE_STYLE_FILL_AREA ( #210 ) ;
#383 = CYLINDRICAL_SURFACE ( 'NONE', #325, 2.500000000000000900 ) ;
#384 = FACE_OUTER_BOUND ( 'NONE', #27, .T. ) ;
#385 =( GEOMETRIC_REPRESENTATION_CONTEXT ( 3 ) GLOBAL_UNCERTAINTY_ASSIGNED_CONTEXT ( ( #351 ) ) GLOBAL_UNIT_ASSIGNED_CONTEXT ( ( #239, #236, #235 ) ) REPRESENTATION_CONTEXT ( 'NONE', 'WORKASPACE' ) );
#386 = FACE_OUTER_BOUND ( 'NONE', #109, .T. ) ;
#387 = FACE_BOUND ( 'NONE', #117, .T. ) ;
#388 = VECTOR ( 'NONE', #252, 1000.000000000000000 ) ;
#389 = CYLINDRICAL_SURFACE ( 'NONE', #337, 2.500000000000000900 ) ;
#390 = FACE_OUTER_BOUND ( 'NONE', #32, .T. ) ;
#391 = PRESENTATION_STYLE_ASSIGNMENT (( #208 ) ) ;
#392 = FACE_OUTER_BOUND ( 'NONE', #33, .T. ) ;
#393 =( GEOMETRIC_REPRESENTATION_CONTEXT ( 3 ) GLOBAL_UNCERTAINTY_ASSIGNED_CONTEXT ( ( #355 ) ) GLOBAL_UNIT_ASSIGNED_CONTEXT ( ( #279, #278, #277 ) ) REPRESENTATION_CONTEXT ( 'NONE', 'WORKASPACE' ) );
#394 = STYLED_ITEM ( 'NONE', ( #395 ), #364 ) ;
#395 = PRESENTATION_STYLE_ASSIGNMENT (( #280 ) ) ;
#396 = COLOUR_RGB ( '',0.7921568627450980000, 0.8196078431372548800, 0.9333333333333333500 ) ;
#397 = SURFACE_STYLE_FILL_AREA ( #258 ) ;
#398 = SURFACE_STYLE_FILL_AREA ( #283 ) ;
#399 = CYLINDRICAL_SURFACE ( 'NONE', #341, 2.500000000000002200 ) ;
#400 = FACE_OUTER_BOUND ( 'NONE', #110, .T. ) ;
#401 = FACE_BOUND ( 'NONE', #113, .T. ) ;
#402 = FACE_OUTER_BOUND ( 'NONE', #107, .T. ) ;
#403 = FACE_OUTER_BOUND ( 'NONE', #111, .T. ) ;
#404 = FACE_OUTER_BOUND ( 'NONE', #68, .T. ) ;
#405 =( GEOMETRIC_REPRESENTATION_CONTEXT ( 3 ) GLOBAL_UNCERTAINTY_ASSIGNED_CONTEXT ( ( #356 ) ) GLOBAL_UNIT_ASSIGNED_CONTEXT ( ( #207, #167, #163 ) ) REPRESENTATION_CONTEXT ( 'NONE', 'WORKASPACE' ) );
#406 = FACE_OUTER_BOUND ( 'NONE', #38, .T. ) ;
#407 =( GEOMETRIC_REPRESENTATION_CONTEXT ( 3 ) GLOBAL_UNCERTAINTY_ASSIGNED_CONTEXT ( ( #357 ) ) GLOBAL_UNIT_ASSIGNED_CONTEXT ( ( #241, #240, #238 ) ) REPRESENTATION_CONTEXT ( 'NONE', 'WORKASPACE' ) );
#408 = PRESENTATION_STYLE_ASSIGNMENT (( #242 ) ) ;
#409 = STYLED_ITEM ( 'NONE', ( #408 ), #368 ) ;
#410 = COLOUR_RGB ( '',0.7921568627450980000, 0.8196078431372548800, 0.9333333333333333500 ) ;
ENDSEC;
END-ISO-10303-21;
