ISO-10303-21;
HEADER;
FILE_DESCRIPTION (( 'STEP AP214' ),
    '1' );
FILE_NAME ('Renfort anneau tractage.STEP',
    '2020-03-04T17:17:32',
    ( 'Olivier' ),
    ( 'Microsoft' ),
    'SwSTEP 2.0',
    'SolidWorks 2010',
    '' );
FILE_SCHEMA (( 'AUTOMOTIVE_DESIGN' ));
ENDSEC;

DATA;
#1 = DIRECTION ( 'NONE',  ( -1.000000000000000000, -0.0000000000000000000, -0.0000000000000000000 ) ) ;
#2 = CARTESIAN_POINT ( 'NONE',  ( 107.6681097927406400, -26.07427071178529200, 0.0000000000000000000 ) ) ;
#3 = DIRECTION ( 'NONE',  ( -0.0000000000000000000, -0.0000000000000000000, -1.000000000000000000 ) ) ;
#4 = CARTESIAN_POINT ( 'NONE',  ( -42.33189020725936300, 63.92572928821470400, 5.000000000000000000 ) ) ;
#5 = CARTESIAN_POINT ( 'NONE',  ( -42.33189020725936300, 63.92572928821470400, 5.000000000000000000 ) ) ;
#6 = VERTEX_POINT ( 'NONE', #20 ) ;
#7 = CARTESIAN_POINT ( 'NONE',  ( 107.6681097927406400, 63.92572928821470400, 5.000000000000000000 ) ) ;
#8 = VERTEX_POINT ( 'NONE', #26 ) ;
#9 = CARTESIAN_POINT ( 'NONE',  ( -42.33189020725936300, -26.07427071178529200, 0.0000000000000000000 ) ) ;
#10 = VERTEX_POINT ( 'NONE', #23 ) ;
#11 = VERTEX_POINT ( 'NONE', #22 ) ;
#12 = VERTEX_POINT ( 'NONE', #27 ) ;
#13 = VERTEX_POINT ( 'NONE', #9 ) ;
#14 = VERTEX_POINT ( 'NONE', #15 ) ;
#15 = CARTESIAN_POINT ( 'NONE',  ( 107.6681097927406400, -26.07427071178529200, 5.000000000000000000 ) ) ;
#16 = VERTEX_POINT ( 'NONE', #25 ) ;
#17 = VERTEX_POINT ( 'NONE', #2 ) ;
#18 = VERTEX_POINT ( 'NONE', #28 ) ;
#19 = VERTEX_POINT ( 'NONE', #21 ) ;
#20 = CARTESIAN_POINT ( 'NONE',  ( 38.66810979274064400, 18.92572928821469000, 5.000000000000000000 ) ) ;
#21 = CARTESIAN_POINT ( 'NONE',  ( 26.66810979274063700, 18.92572928821469000, 0.0000000000000000000 ) ) ;
#22 = CARTESIAN_POINT ( 'NONE',  ( 38.66810979274064400, 18.92572928821469000, 0.0000000000000000000 ) ) ;
#23 = CARTESIAN_POINT ( 'NONE',  ( -42.33189020725936300, -26.07427071178529200, 5.000000000000000000 ) ) ;
#24 = VERTEX_POINT ( 'NONE', #7 ) ;
#25 = CARTESIAN_POINT ( 'NONE',  ( -42.33189020725936300, 63.92572928821470400, 0.0000000000000000000 ) ) ;
#26 = CARTESIAN_POINT ( 'NONE',  ( 107.6681097927406400, 63.92572928821470400, 0.0000000000000000000 ) ) ;
#27 = CARTESIAN_POINT ( 'NONE',  ( 26.66810979274063700, 18.92572928821469000, 5.000000000000000000 ) ) ;
#28 = CARTESIAN_POINT ( 'NONE',  ( -42.33189020725936300, 63.92572928821470400, 5.000000000000000000 ) ) ;
#29 = CARTESIAN_POINT ( 'NONE',  ( 107.6681097927406400, -26.07427071178529200, 5.000000000000000000 ) ) ;
#30 = AXIS2_PLACEMENT_3D ( 'NONE', #251, #268, #252 ) ;
#31 = AXIS2_PLACEMENT_3D ( 'NONE', #209, #248, #205 ) ;
#32 = EDGE_CURVE ( 'NONE', #24, #18, #80, .T. ) ;
#33 = PRESENTATION_LAYER_ASSIGNMENT (  '', '', ( #79 ) ) ;
#34 = AXIS2_PLACEMENT_3D ( 'NONE', #231, #221, #244 ) ;
#35 = PRODUCT_DEFINITION ( 'UNKNOWN', '', #64, #276 ) ;
#36 = AXIS2_PLACEMENT_3D ( 'NONE', #199, #198, #240 ) ;
#37 = MECHANICAL_DESIGN_GEOMETRIC_PRESENTATION_REPRESENTATION (  '', ( #79 ), #177 ) ;
#38 = AXIS2_PLACEMENT_3D ( 'NONE', #243, #242, #216 ) ;
#39 = MECHANICAL_DESIGN_GEOMETRIC_PRESENTATION_REPRESENTATION (  '', ( #165 ), #91 ) ;
#40 = EDGE_CURVE ( 'NONE', #14, #17, #149, .T. ) ;
#41 = EDGE_CURVE ( 'NONE', #18, #16, #81, .T. ) ;
#42 = EDGE_CURVE ( 'NONE', #17, #8, #170, .T. ) ;
#43 = EDGE_CURVE ( 'NONE', #13, #17, #178, .T. ) ;
#44 = EDGE_CURVE ( 'NONE', #11, #19, #84, .T. ) ;
#45 = EDGE_CURVE ( 'NONE', #10, #14, #93, .T. ) ;
#46 = EDGE_CURVE ( 'NONE', #10, #13, #142, .T. ) ;
#47 = EDGE_CURVE ( 'NONE', #24, #8, #85, .T. ) ;
#48 = EDGE_CURVE ( 'NONE', #12, #6, #139, .T. ) ;
#49 = EDGE_CURVE ( 'NONE', #8, #16, #129, .T. ) ;
#50 = EDGE_CURVE ( 'NONE', #14, #24, #102, .T. ) ;
#51 = EDGE_CURVE ( 'NONE', #12, #19, #106, .T. ) ;
#52 = EDGE_CURVE ( 'NONE', #6, #12, #108, .T. ) ;
#53 = EDGE_CURVE ( 'NONE', #6, #11, #172, .T. ) ;
#54 = EDGE_CURVE ( 'NONE', #16, #13, #117, .T. ) ;
#55 = EDGE_CURVE ( 'NONE', #19, #11, #167, .T. ) ;
#56 = EDGE_CURVE ( 'NONE', #18, #10, #109, .T. ) ;
#57 = AXIS2_PLACEMENT_3D ( 'NONE', #234, #229, #194 ) ;
#58 = AXIS2_PLACEMENT_3D ( 'NONE', #226, #224, #227 ) ;
#59 = AXIS2_PLACEMENT_3D ( 'NONE', #265, #274, #256 ) ;
#60 = AXIS2_PLACEMENT_3D ( 'NONE', #262, #197, #233 ) ;
#61 = PRESENTATION_LAYER_ASSIGNMENT (  '', '', ( #165 ) ) ;
#62 = AXIS2_PLACEMENT_3D ( 'NONE', #192, #191, #213 ) ;
#63 = AXIS2_PLACEMENT_3D ( 'NONE', #267, #222, #220 ) ;
#64 = PRODUCT_DEFINITION_FORMATION_WITH_SPECIFIED_SOURCE ( 'ANY', '', #76, .NOT_KNOWN. ) ;
#65 = PRODUCT_RELATED_PRODUCT_CATEGORY ( 'part', '', ( #76 ) ) ;
#66 = AXIS2_PLACEMENT_3D ( 'NONE', #207, #208, #253 ) ;
#67 = AXIS2_PLACEMENT_3D ( 'NONE', #189, #250, #211 ) ;
#68 = ADVANCED_FACE ( 'NONE', ( #107, #127 ), #261, .F. ) ;
#69 = ADVANCED_FACE ( 'NONE', ( #162 ), #228, .F. ) ;
#70 = ADVANCED_FACE ( 'NONE', ( #118 ), #223, .F. ) ;
#71 = ADVANCED_FACE ( 'NONE', ( #123 ), #143, .F. ) ;
#72 = ADVANCED_FACE ( 'NONE', ( #154, #131 ), #249, .T. ) ;
#73 = ADVANCED_FACE ( 'NONE', ( #126 ), #186, .F. ) ;
#74 = ADVANCED_FACE ( 'NONE', ( #110 ), #164, .F. ) ;
#75 = ADVANCED_FACE ( 'NONE', ( #146 ), #206, .F. ) ;
#76 = PRODUCT ( 'Renfort anneau tractage', 'Renfort anneau tractage', '', ( #269 ) ) ;
#77 = ORIENTED_EDGE ( 'NONE', *, *, #41, .T. ) ;
#78 = ORIENTED_EDGE ( 'NONE', *, *, #54, .T. ) ;
#79 = STYLED_ITEM ( 'NONE', ( #155 ), #182 ) ;
#80 = LINE ( 'NONE', #4, #156 ) ;
#81 = LINE ( 'NONE', #5, #158 ) ;
#82 = EDGE_LOOP ( 'NONE', ( #114, #130, #105, #120 ) ) ;
#83 = VECTOR ( 'NONE', #264, 1000.000000000000000 ) ;
#84 = CIRCLE ( 'NONE', #36, 6.000000000000005300 ) ;
#85 = LINE ( 'NONE', #239, #98 ) ;
#86 = ORIENTED_EDGE ( 'NONE', *, *, #52, .F. ) ;
#87 = ORIENTED_EDGE ( 'NONE', *, *, #53, .T. ) ;
#88 = ORIENTED_EDGE ( 'NONE', *, *, #44, .T. ) ;
#89 = EDGE_LOOP ( 'NONE', ( #112, #122, #150, #163 ) ) ;
#90 = VECTOR ( 'NONE', #260, 1000.000000000000000 ) ;
#91 =( GEOMETRIC_REPRESENTATION_CONTEXT ( 3 ) GLOBAL_UNCERTAINTY_ASSIGNED_CONTEXT ( ( #183 ) ) GLOBAL_UNIT_ASSIGNED_CONTEXT ( ( #202, #245, #203 ) ) REPRESENTATION_CONTEXT ( 'NONE', 'WORKASPACE' ) );
#92 = VECTOR ( 'NONE', #257, 1000.000000000000000 ) ;
#93 = LINE ( 'NONE', #235, #153 ) ;
#94 = VECTOR ( 'NONE', #3, 1000.000000000000000 ) ;
#95 = COLOUR_RGB ( '',0.7921568627450980000, 0.8196078431372548800, 0.9333333333333333500 ) ;
#96 = SURFACE_STYLE_FILL_AREA ( #246 ) ;
#97 = EDGE_LOOP ( 'NONE', ( #135, #86 ) ) ;
#98 = VECTOR ( 'NONE', #266, 1000.000000000000000 ) ;
#99 = EDGE_LOOP ( 'NONE', ( #125, #159, #121, #116 ) ) ;
#100 = VECTOR ( 'NONE', #230, 1000.000000000000000 ) ;
#101 = VECTOR ( 'NONE', #236, 1000.000000000000000 ) ;
#102 = LINE ( 'NONE', #273, #104 ) ;
#103 = SURFACE_STYLE_FILL_AREA ( #241 ) ;
#104 = VECTOR ( 'NONE', #258, 1000.000000000000000 ) ;
#105 = ORIENTED_EDGE ( 'NONE', *, *, #45, .F. ) ;
#106 = LINE ( 'NONE', #259, #101 ) ;
#107 = FACE_OUTER_BOUND ( 'NONE', #89, .T. ) ;
#108 = CIRCLE ( 'NONE', #60, 6.000000000000005300 ) ;
#109 = LINE ( 'NONE', #193, #138 ) ;
#110 = FACE_OUTER_BOUND ( 'NONE', #137, .T. ) ;
#111 = ORIENTED_EDGE ( 'NONE', *, *, #55, .F. ) ;
#112 = ORIENTED_EDGE ( 'NONE', *, *, #56, .T. ) ;
#113 = EDGE_LOOP ( 'NONE', ( #132, #175, #151, #147 ) ) ;
#114 = ORIENTED_EDGE ( 'NONE', *, *, #43, .T. ) ;
#115 = ORIENTED_EDGE ( 'NONE', *, *, #43, .F. ) ;
#116 = ORIENTED_EDGE ( 'NONE', *, *, #40, .T. ) ;
#117 = LINE ( 'NONE', #195, #100 ) ;
#118 = FACE_OUTER_BOUND ( 'NONE', #99, .T. ) ;
#119 = ORIENTED_EDGE ( 'NONE', *, *, #32, .F. ) ;
#120 = ORIENTED_EDGE ( 'NONE', *, *, #46, .T. ) ;
#121 = ORIENTED_EDGE ( 'NONE', *, *, #50, .F. ) ;
#122 = ORIENTED_EDGE ( 'NONE', *, *, #45, .T. ) ;
#123 = FACE_OUTER_BOUND ( 'NONE', #113, .T. ) ;
#124 = ORIENTED_EDGE ( 'NONE', *, *, #41, .F. ) ;
#125 = ORIENTED_EDGE ( 'NONE', *, *, #42, .T. ) ;
#126 = FACE_OUTER_BOUND ( 'NONE', #82, .T. ) ;
#127 = FACE_BOUND ( 'NONE', #97, .T. ) ;
#128 = ORIENTED_EDGE ( 'NONE', *, *, #49, .T. ) ;
#129 = LINE ( 'NONE', #263, #92 ) ;
#130 = ORIENTED_EDGE ( 'NONE', *, *, #40, .F. ) ;
#131 = FACE_BOUND ( 'NONE', #140, .T. ) ;
#132 = ORIENTED_EDGE ( 'NONE', *, *, #53, .F. ) ;
#133 = ORIENTED_EDGE ( 'NONE', *, *, #55, .T. ) ;
#134 = ORIENTED_EDGE ( 'NONE', *, *, #42, .F. ) ;
#135 = ORIENTED_EDGE ( 'NONE', *, *, #48, .F. ) ;
#136 = EDGE_LOOP ( 'NONE', ( #173, #148, #134, #115 ) ) ;
#137 = EDGE_LOOP ( 'NONE', ( #157, #87, #111, #174 ) ) ;
#138 = VECTOR ( 'NONE', #225, 1000.000000000000000 ) ;
#139 = CIRCLE ( 'NONE', #59, 6.000000000000005300 ) ;
#140 = EDGE_LOOP ( 'NONE', ( #133, #88 ) ) ;
#141 = VECTOR ( 'NONE', #232, 1000.000000000000000 ) ;
#142 = LINE ( 'NONE', #238, #83 ) ;
#143 = CYLINDRICAL_SURFACE ( 'NONE', #63, 6.000000000000001800 ) ;
#144 = EDGE_LOOP ( 'NONE', ( #78, #176, #171, #77 ) ) ;
#145 = EDGE_LOOP ( 'NONE', ( #128, #124, #119, #161 ) ) ;
#146 = FACE_OUTER_BOUND ( 'NONE', #144, .T. ) ;
#147 = ORIENTED_EDGE ( 'NONE', *, *, #44, .F. ) ;
#148 = ORIENTED_EDGE ( 'NONE', *, *, #49, .F. ) ;
#149 = LINE ( 'NONE', #29, #94 ) ;
#150 = ORIENTED_EDGE ( 'NONE', *, *, #50, .T. ) ;
#151 = ORIENTED_EDGE ( 'NONE', *, *, #51, .T. ) ;
#152 = SHAPE_DEFINITION_REPRESENTATION ( #275, #182 ) ;
#153 = VECTOR ( 'NONE', #237, 1000.000000000000000 ) ;
#154 = FACE_OUTER_BOUND ( 'NONE', #136, .T. ) ;
#155 = PRESENTATION_STYLE_ASSIGNMENT (( #217 ) ) ;
#156 = VECTOR ( 'NONE', #1, 1000.000000000000000 ) ;
#157 = ORIENTED_EDGE ( 'NONE', *, *, #48, .T. ) ;
#158 = VECTOR ( 'NONE', #187, 1000.000000000000000 ) ;
#159 = ORIENTED_EDGE ( 'NONE', *, *, #47, .F. ) ;
#160 = COLOUR_RGB ( '',0.7921568627450980000, 0.8196078431372548800, 0.9333333333333333500 ) ;
#161 = ORIENTED_EDGE ( 'NONE', *, *, #47, .T. ) ;
#162 = FACE_OUTER_BOUND ( 'NONE', #145, .T. ) ;
#163 = ORIENTED_EDGE ( 'NONE', *, *, #32, .T. ) ;
#164 = CYLINDRICAL_SURFACE ( 'NONE', #30, 6.000000000000001800 ) ;
#165 = STYLED_ITEM ( 'NONE', ( #166 ), #180 ) ;
#166 = PRESENTATION_STYLE_ASSIGNMENT (( #201 ) ) ;
#167 = CIRCLE ( 'NONE', #57, 6.000000000000005300 ) ;
#168 = CLOSED_SHELL ( 'NONE', ( #74, #68, #72, #75, #73, #70, #69, #71 ) ) ;
#169 = VECTOR ( 'NONE', #255, 1000.000000000000000 ) ;
#170 = LINE ( 'NONE', #185, #90 ) ;
#171 = ORIENTED_EDGE ( 'NONE', *, *, #56, .F. ) ;
#172 = LINE ( 'NONE', #196, #141 ) ;
#173 = ORIENTED_EDGE ( 'NONE', *, *, #54, .F. ) ;
#174 = ORIENTED_EDGE ( 'NONE', *, *, #51, .F. ) ;
#175 = ORIENTED_EDGE ( 'NONE', *, *, #52, .T. ) ;
#176 = ORIENTED_EDGE ( 'NONE', *, *, #46, .F. ) ;
#177 =( GEOMETRIC_REPRESENTATION_CONTEXT ( 3 ) GLOBAL_UNCERTAINTY_ASSIGNED_CONTEXT ( ( #181 ) ) GLOBAL_UNIT_ASSIGNED_CONTEXT ( ( #215, #272, #271 ) ) REPRESENTATION_CONTEXT ( 'NONE', 'WORKASPACE' ) );
#178 = LINE ( 'NONE', #254, #169 ) ;
#179 =( GEOMETRIC_REPRESENTATION_CONTEXT ( 3 ) GLOBAL_UNCERTAINTY_ASSIGNED_CONTEXT ( ( #184 ) ) GLOBAL_UNIT_ASSIGNED_CONTEXT ( ( #247, #212, #219 ) ) REPRESENTATION_CONTEXT ( 'NONE', 'WORKASPACE' ) );
#180 = MANIFOLD_SOLID_BREP ( 'Boss.-Extru.1', #168 ) ;
#181 = UNCERTAINTY_MEASURE_WITH_UNIT (LENGTH_MEASURE( 1.000000000000000100E-005 ), #215, 'distance_accuracy_value', 'NONE');
#182 = ADVANCED_BREP_SHAPE_REPRESENTATION ( 'Renfort anneau tractage', ( #180, #38 ), #179 ) ;
#183 = UNCERTAINTY_MEASURE_WITH_UNIT (LENGTH_MEASURE( 1.000000000000000100E-005 ), #202, 'distance_accuracy_value', 'NONE');
#184 = UNCERTAINTY_MEASURE_WITH_UNIT (LENGTH_MEASURE( 1.000000000000000100E-005 ), #247, 'distance_accuracy_value', 'NONE');
#185 = CARTESIAN_POINT ( 'NONE',  ( 107.6681097927406400, -26.07427071178529200, 0.0000000000000000000 ) ) ;
#186 = PLANE ( 'NONE',  #67 ) ;
#187 = DIRECTION ( 'NONE',  ( -0.0000000000000000000, -0.0000000000000000000, -1.000000000000000000 ) ) ;
#188 = APPLICATION_PROTOCOL_DEFINITION ( 'draft international standard', 'automotive_design', 1998, #200 ) ;
#189 = CARTESIAN_POINT ( 'NONE',  ( -42.33189020725936300, -26.07427071178529200, 5.000000000000000000 ) ) ;
#190 = SURFACE_SIDE_STYLE ('',( #96 ) ) ;
#191 = DIRECTION ( 'NONE',  ( -1.000000000000000000, 0.0000000000000000000, 0.0000000000000000000 ) ) ;
#192 = CARTESIAN_POINT ( 'NONE',  ( 107.6681097927406400, -26.07427071178529200, 5.000000000000000000 ) ) ;
#193 = CARTESIAN_POINT ( 'NONE',  ( -42.33189020725936300, -26.07427071178529200, 5.000000000000000000 ) ) ;
#194 = DIRECTION ( 'NONE',  ( 1.000000000000000000, 0.0000000000000000000, 0.0000000000000000000 ) ) ;
#195 = CARTESIAN_POINT ( 'NONE',  ( -42.33189020725936300, -26.07427071178529200, 0.0000000000000000000 ) ) ;
#196 = CARTESIAN_POINT ( 'NONE',  ( 38.66810979274064400, 18.92572928821469000, 5.000000000000000000 ) ) ;
#197 = DIRECTION ( 'NONE',  ( 0.0000000000000000000, 0.0000000000000000000, 1.000000000000000000 ) ) ;
#198 = DIRECTION ( 'NONE',  ( 0.0000000000000000000, 0.0000000000000000000, 1.000000000000000000 ) ) ;
#199 = CARTESIAN_POINT ( 'NONE',  ( 32.66810979274063700, 18.92572928821469000, 0.0000000000000000000 ) ) ;
#200 = APPLICATION_CONTEXT ( 'automotive_design' ) ;
#201 = SURFACE_STYLE_USAGE ( .BOTH. , #190 ) ;
#202 =( LENGTH_UNIT ( ) NAMED_UNIT ( * ) SI_UNIT ( .MILLI., .METRE. ) );
#203 =( NAMED_UNIT ( * ) SI_UNIT ( $, .STERADIAN. ) SOLID_ANGLE_UNIT ( ) );
#204 = FILL_AREA_STYLE_COLOUR ( '', #160 ) ;
#205 = DIRECTION ( 'NONE',  ( 0.0000000000000000000, 0.0000000000000000000, -1.000000000000000000 ) ) ;
#206 = PLANE ( 'NONE',  #31 ) ;
#207 = CARTESIAN_POINT ( 'NONE',  ( -42.33189020725936300, 63.92572928821470400, 0.0000000000000000000 ) ) ;
#208 = DIRECTION ( 'NONE',  ( 0.0000000000000000000, 0.0000000000000000000, -1.000000000000000000 ) ) ;
#209 = CARTESIAN_POINT ( 'NONE',  ( -42.33189020725936300, -26.07427071178529200, 5.000000000000000000 ) ) ;
#210 = FILL_AREA_STYLE_COLOUR ( '', #95 ) ;
#211 = DIRECTION ( 'NONE',  ( 0.0000000000000000000, -0.0000000000000000000, 1.000000000000000000 ) ) ;
#212 =( NAMED_UNIT ( * ) PLANE_ANGLE_UNIT ( ) SI_UNIT ( $, .RADIAN. ) );
#213 = DIRECTION ( 'NONE',  ( 0.0000000000000000000, 0.0000000000000000000, 1.000000000000000000 ) ) ;
#214 = APPLICATION_CONTEXT ( 'automotive_design' ) ;
#215 =( LENGTH_UNIT ( ) NAMED_UNIT ( * ) SI_UNIT ( .MILLI., .METRE. ) );
#216 = DIRECTION ( 'NONE',  ( 1.000000000000000000, 0.0000000000000000000, 0.0000000000000000000 ) ) ;
#217 = SURFACE_STYLE_USAGE ( .BOTH. , #218 ) ;
#218 = SURFACE_SIDE_STYLE ('',( #103 ) ) ;
#219 =( NAMED_UNIT ( * ) SI_UNIT ( $, .STERADIAN. ) SOLID_ANGLE_UNIT ( ) );
#220 = DIRECTION ( 'NONE',  ( -1.000000000000000000, 0.0000000000000000000, 0.0000000000000000000 ) ) ;
#221 = DIRECTION ( 'NONE',  ( 0.0000000000000000000, -1.000000000000000000, 0.0000000000000000000 ) ) ;
#222 = DIRECTION ( 'NONE',  ( -0.0000000000000000000, -0.0000000000000000000, -1.000000000000000000 ) ) ;
#223 = PLANE ( 'NONE',  #62 ) ;
#224 = DIRECTION ( 'NONE',  ( 0.0000000000000000000, 0.0000000000000000000, -1.000000000000000000 ) ) ;
#225 = DIRECTION ( 'NONE',  ( -0.0000000000000000000, -1.000000000000000000, -0.0000000000000000000 ) ) ;
#226 = CARTESIAN_POINT ( 'NONE',  ( -42.33189020725936300, 63.92572928821470400, 5.000000000000000000 ) ) ;
#227 = DIRECTION ( 'NONE',  ( -1.000000000000000000, 0.0000000000000000000, -0.0000000000000000000 ) ) ;
#228 = PLANE ( 'NONE',  #34 ) ;
#229 = DIRECTION ( 'NONE',  ( 0.0000000000000000000, 0.0000000000000000000, 1.000000000000000000 ) ) ;
#230 = DIRECTION ( 'NONE',  ( -0.0000000000000000000, -1.000000000000000000, -0.0000000000000000000 ) ) ;
#231 = CARTESIAN_POINT ( 'NONE',  ( -42.33189020725936300, 63.92572928821470400, 5.000000000000000000 ) ) ;
#232 = DIRECTION ( 'NONE',  ( -0.0000000000000000000, -0.0000000000000000000, -1.000000000000000000 ) ) ;
#233 = DIRECTION ( 'NONE',  ( 1.000000000000000000, 0.0000000000000000000, 0.0000000000000000000 ) ) ;
#234 = CARTESIAN_POINT ( 'NONE',  ( 32.66810979274063700, 18.92572928821469000, 0.0000000000000000000 ) ) ;
#235 = CARTESIAN_POINT ( 'NONE',  ( -42.33189020725936300, -26.07427071178529200, 5.000000000000000000 ) ) ;
#236 = DIRECTION ( 'NONE',  ( -0.0000000000000000000, -0.0000000000000000000, -1.000000000000000000 ) ) ;
#237 = DIRECTION ( 'NONE',  ( 1.000000000000000000, 0.0000000000000000000, 0.0000000000000000000 ) ) ;
#238 = CARTESIAN_POINT ( 'NONE',  ( -42.33189020725936300, -26.07427071178529200, 5.000000000000000000 ) ) ;
#239 = CARTESIAN_POINT ( 'NONE',  ( 107.6681097927406400, 63.92572928821470400, 5.000000000000000000 ) ) ;
#240 = DIRECTION ( 'NONE',  ( 1.000000000000000000, 0.0000000000000000000, 0.0000000000000000000 ) ) ;
#241 = FILL_AREA_STYLE ('',( #204 ) ) ;
#242 = DIRECTION ( 'NONE',  ( 0.0000000000000000000, 0.0000000000000000000, 1.000000000000000000 ) ) ;
#243 = CARTESIAN_POINT ( 'NONE',  ( 0.0000000000000000000, 0.0000000000000000000, 0.0000000000000000000 ) ) ;
#244 = DIRECTION ( 'NONE',  ( 0.0000000000000000000, -0.0000000000000000000, -1.000000000000000000 ) ) ;
#245 =( NAMED_UNIT ( * ) PLANE_ANGLE_UNIT ( ) SI_UNIT ( $, .RADIAN. ) );
#246 = FILL_AREA_STYLE ('',( #210 ) ) ;
#247 =( LENGTH_UNIT ( ) NAMED_UNIT ( * ) SI_UNIT ( .MILLI., .METRE. ) );
#248 = DIRECTION ( 'NONE',  ( 1.000000000000000000, 0.0000000000000000000, 0.0000000000000000000 ) ) ;
#249 = PLANE ( 'NONE',  #66 ) ;
#250 = DIRECTION ( 'NONE',  ( 0.0000000000000000000, 1.000000000000000000, 0.0000000000000000000 ) ) ;
#251 = CARTESIAN_POINT ( 'NONE',  ( 32.66810979274063700, 18.92572928821469000, 5.000000000000000000 ) ) ;
#252 = DIRECTION ( 'NONE',  ( -1.000000000000000000, 0.0000000000000000000, 0.0000000000000000000 ) ) ;
#253 = DIRECTION ( 'NONE',  ( -1.000000000000000000, 0.0000000000000000000, -0.0000000000000000000 ) ) ;
#254 = CARTESIAN_POINT ( 'NONE',  ( -42.33189020725936300, -26.07427071178529200, 0.0000000000000000000 ) ) ;
#255 = DIRECTION ( 'NONE',  ( 1.000000000000000000, 0.0000000000000000000, 0.0000000000000000000 ) ) ;
#256 = DIRECTION ( 'NONE',  ( 1.000000000000000000, 0.0000000000000000000, 0.0000000000000000000 ) ) ;
#257 = DIRECTION ( 'NONE',  ( -1.000000000000000000, -0.0000000000000000000, -0.0000000000000000000 ) ) ;
#258 = DIRECTION ( 'NONE',  ( 0.0000000000000000000, 1.000000000000000000, 0.0000000000000000000 ) ) ;
#259 = CARTESIAN_POINT ( 'NONE',  ( 26.66810979274063700, 18.92572928821469000, 5.000000000000000000 ) ) ;
#260 = DIRECTION ( 'NONE',  ( 0.0000000000000000000, 1.000000000000000000, 0.0000000000000000000 ) ) ;
#261 = PLANE ( 'NONE',  #58 ) ;
#262 = CARTESIAN_POINT ( 'NONE',  ( 32.66810979274063700, 18.92572928821469000, 5.000000000000000000 ) ) ;
#263 = CARTESIAN_POINT ( 'NONE',  ( -42.33189020725936300, 63.92572928821470400, 0.0000000000000000000 ) ) ;
#264 = DIRECTION ( 'NONE',  ( -0.0000000000000000000, -0.0000000000000000000, -1.000000000000000000 ) ) ;
#265 = CARTESIAN_POINT ( 'NONE',  ( 32.66810979274063700, 18.92572928821469000, 5.000000000000000000 ) ) ;
#266 = DIRECTION ( 'NONE',  ( -0.0000000000000000000, -0.0000000000000000000, -1.000000000000000000 ) ) ;
#267 = CARTESIAN_POINT ( 'NONE',  ( 32.66810979274063700, 18.92572928821469000, 5.000000000000000000 ) ) ;
#268 = DIRECTION ( 'NONE',  ( -0.0000000000000000000, -0.0000000000000000000, -1.000000000000000000 ) ) ;
#269 = PRODUCT_CONTEXT ( 'NONE', #214, 'mechanical' ) ;
#270 = APPLICATION_PROTOCOL_DEFINITION ( 'draft international standard', 'automotive_design', 1998, #214 ) ;
#271 =( NAMED_UNIT ( * ) SI_UNIT ( $, .STERADIAN. ) SOLID_ANGLE_UNIT ( ) );
#272 =( NAMED_UNIT ( * ) PLANE_ANGLE_UNIT ( ) SI_UNIT ( $, .RADIAN. ) );
#273 = CARTESIAN_POINT ( 'NONE',  ( 107.6681097927406400, -26.07427071178529200, 5.000000000000000000 ) ) ;
#274 = DIRECTION ( 'NONE',  ( 0.0000000000000000000, 0.0000000000000000000, 1.000000000000000000 ) ) ;
#275 = PRODUCT_DEFINITION_SHAPE ( 'NONE', 'NONE',  #35 ) ;
#276 = PRODUCT_DEFINITION_CONTEXT ( 'detailed design', #200, 'design' ) ;
ENDSEC;
END-ISO-10303-21;
