ISO-10303-21;
HEADER;
/* Generated by software containing ST-Developer
 * from STEP Tools, Inc. (www.steptools.com) 
 */

FILE_DESCRIPTION(
/* description */ (''),
/* implementation_level */ '2;1');

FILE_NAME(
/* name */ 
'\\\\172.16.1.16\\Exotrail\\DTE - Propulsion\\06 - CAD\\Drawing & STEP
 Database\\CO-MEC-EXT-0003-01 - Stainless Steel side.stp',
/* time_stamp */ '2020-03-02T17:35:21+01:00',
/* author */ ('bastien.duong'),
/* organization */ (''),
/* preprocessor_version */ 'ST-DEVELOPER v18',
/* originating_system */ 'Autodesk Inventor 2020',
/* authorisation */ '');

FILE_SCHEMA (('AUTOMOTIVE_DESIGN { 1 0 10303 214 3 1 1 }'));
ENDSEC;

DATA;
#10=MECHANICAL_DESIGN_GEOMETRIC_PRESENTATION_REPRESENTATION('',(#13),#525);
#11=SHAPE_REPRESENTATION_RELATIONSHIP('SRR','None',#532,#12);
#12=ADVANCED_BREP_SHAPE_REPRESENTATION('',(#14),#524);
#13=STYLED_ITEM('',(#541),#14);
#14=MANIFOLD_SOLID_BREP('Solid1',#296);
#15=FACE_BOUND('',#48,.T.);
#16=FACE_BOUND('',#49,.T.);
#17=FACE_BOUND('',#50,.T.);
#18=FACE_BOUND('',#51,.T.);
#19=FACE_BOUND('',#52,.T.);
#20=FACE_BOUND('',#53,.T.);
#21=FACE_BOUND('',#66,.T.);
#22=FACE_BOUND('',#67,.T.);
#23=FACE_BOUND('',#68,.T.);
#24=FACE_BOUND('',#69,.T.);
#25=FACE_BOUND('',#70,.T.);
#26=FACE_BOUND('',#71,.T.);
#27=PLANE('',#319);
#28=PLANE('',#328);
#29=PLANE('',#344);
#30=PLANE('',#347);
#31=PLANE('',#350);
#32=FACE_OUTER_BOUND('',#46,.T.);
#33=FACE_OUTER_BOUND('',#47,.T.);
#34=FACE_OUTER_BOUND('',#54,.T.);
#35=FACE_OUTER_BOUND('',#55,.T.);
#36=FACE_OUTER_BOUND('',#56,.T.);
#37=FACE_OUTER_BOUND('',#57,.T.);
#38=FACE_OUTER_BOUND('',#58,.T.);
#39=FACE_OUTER_BOUND('',#59,.T.);
#40=FACE_OUTER_BOUND('',#60,.T.);
#41=FACE_OUTER_BOUND('',#61,.T.);
#42=FACE_OUTER_BOUND('',#62,.T.);
#43=FACE_OUTER_BOUND('',#63,.T.);
#44=FACE_OUTER_BOUND('',#64,.T.);
#45=FACE_OUTER_BOUND('',#65,.T.);
#46=EDGE_LOOP('',(#195,#196,#197,#198));
#47=EDGE_LOOP('',(#199,#200,#201,#202,#203,#204));
#48=EDGE_LOOP('',(#205));
#49=EDGE_LOOP('',(#206));
#50=EDGE_LOOP('',(#207));
#51=EDGE_LOOP('',(#208));
#52=EDGE_LOOP('',(#209));
#53=EDGE_LOOP('',(#210));
#54=EDGE_LOOP('',(#211,#212,#213,#214));
#55=EDGE_LOOP('',(#215,#216,#217,#218,#219));
#56=EDGE_LOOP('',(#220,#221,#222,#223,#224));
#57=EDGE_LOOP('',(#225,#226,#227,#228,#229));
#58=EDGE_LOOP('',(#230,#231,#232,#233));
#59=EDGE_LOOP('',(#234,#235,#236,#237));
#60=EDGE_LOOP('',(#238,#239,#240,#241));
#61=EDGE_LOOP('',(#242,#243,#244,#245));
#62=EDGE_LOOP('',(#246,#247,#248,#249));
#63=EDGE_LOOP('',(#250,#251,#252,#253));
#64=EDGE_LOOP('',(#254,#255,#256,#257));
#65=EDGE_LOOP('',(#258,#259,#260,#261,#262,#263));
#66=EDGE_LOOP('',(#264,#265));
#67=EDGE_LOOP('',(#266,#267));
#68=EDGE_LOOP('',(#268,#269));
#69=EDGE_LOOP('',(#270));
#70=EDGE_LOOP('',(#271));
#71=EDGE_LOOP('',(#272));
#72=LINE('',#447,#90);
#73=LINE('',#450,#91);
#74=LINE('',#453,#92);
#75=LINE('',#457,#93);
#76=LINE('',#460,#94);
#77=LINE('',#475,#95);
#78=LINE('',#476,#96);
#79=LINE('',#482,#97);
#80=LINE('',#488,#98);
#81=LINE('',#494,#99);
#82=LINE('',#498,#100);
#83=LINE('',#502,#101);
#84=LINE('',#506,#102);
#85=LINE('',#509,#103);
#86=LINE('',#511,#104);
#87=LINE('',#512,#105);
#88=LINE('',#516,#106);
#89=LINE('',#518,#107);
#90=VECTOR('',#357,10.);
#91=VECTOR('',#360,10.);
#92=VECTOR('',#363,10.);
#93=VECTOR('',#366,10.);
#94=VECTOR('',#369,10.);
#95=VECTOR('',#384,10.);
#96=VECTOR('',#385,10.);
#97=VECTOR('',#392,0.6105);
#98=VECTOR('',#399,0.6105);
#99=VECTOR('',#406,0.6105);
#100=VECTOR('',#411,9.);
#101=VECTOR('',#416,2.05);
#102=VECTOR('',#421,2.05);
#103=VECTOR('',#424,10.);
#104=VECTOR('',#425,10.);
#105=VECTOR('',#426,10.);
#106=VECTOR('',#431,10.);
#107=VECTOR('',#434,10.);
#108=CIRCLE('',#317,12.5);
#109=CIRCLE('',#318,12.5);
#110=CIRCLE('',#320,5.);
#111=CIRCLE('',#321,5.);
#112=CIRCLE('',#322,9.);
#113=CIRCLE('',#323,2.05);
#114=CIRCLE('',#324,2.05);
#115=CIRCLE('',#325,0.6105);
#116=CIRCLE('',#326,0.6105);
#117=CIRCLE('',#327,0.6105);
#118=CIRCLE('',#330,0.6105);
#119=CIRCLE('',#331,0.6105);
#120=CIRCLE('',#333,0.6105);
#121=CIRCLE('',#334,0.6105);
#122=CIRCLE('',#336,0.6105);
#123=CIRCLE('',#337,0.6105);
#124=CIRCLE('',#339,9.);
#125=CIRCLE('',#341,2.05);
#126=CIRCLE('',#343,2.05);
#127=CIRCLE('',#346,5.);
#128=CIRCLE('',#349,5.);
#129=VERTEX_POINT('',#443);
#130=VERTEX_POINT('',#444);
#131=VERTEX_POINT('',#446);
#132=VERTEX_POINT('',#448);
#133=VERTEX_POINT('',#452);
#134=VERTEX_POINT('',#454);
#135=VERTEX_POINT('',#456);
#136=VERTEX_POINT('',#458);
#137=VERTEX_POINT('',#461);
#138=VERTEX_POINT('',#463);
#139=VERTEX_POINT('',#465);
#140=VERTEX_POINT('',#467);
#141=VERTEX_POINT('',#469);
#142=VERTEX_POINT('',#471);
#143=VERTEX_POINT('',#474);
#144=VERTEX_POINT('',#478);
#145=VERTEX_POINT('',#479);
#146=VERTEX_POINT('',#484);
#147=VERTEX_POINT('',#485);
#148=VERTEX_POINT('',#490);
#149=VERTEX_POINT('',#491);
#150=VERTEX_POINT('',#496);
#151=VERTEX_POINT('',#500);
#152=VERTEX_POINT('',#504);
#153=VERTEX_POINT('',#508);
#154=VERTEX_POINT('',#510);
#155=VERTEX_POINT('',#514);
#156=EDGE_CURVE('',#129,#130,#108,.T.);
#157=EDGE_CURVE('',#130,#131,#72,.T.);
#158=EDGE_CURVE('',#131,#132,#109,.T.);
#159=EDGE_CURVE('',#132,#129,#73,.T.);
#160=EDGE_CURVE('',#133,#131,#74,.T.);
#161=EDGE_CURVE('',#134,#133,#110,.T.);
#162=EDGE_CURVE('',#135,#134,#75,.T.);
#163=EDGE_CURVE('',#136,#135,#111,.T.);
#164=EDGE_CURVE('',#132,#136,#76,.T.);
#165=EDGE_CURVE('',#137,#137,#112,.T.);
#166=EDGE_CURVE('',#138,#138,#113,.T.);
#167=EDGE_CURVE('',#139,#139,#114,.T.);
#168=EDGE_CURVE('',#140,#140,#115,.T.);
#169=EDGE_CURVE('',#141,#141,#116,.T.);
#170=EDGE_CURVE('',#142,#142,#117,.T.);
#171=EDGE_CURVE('',#143,#130,#77,.T.);
#172=EDGE_CURVE('',#133,#143,#78,.T.);
#173=EDGE_CURVE('',#144,#145,#118,.T.);
#174=EDGE_CURVE('',#145,#144,#119,.T.);
#175=EDGE_CURVE('',#145,#142,#79,.T.);
#176=EDGE_CURVE('',#146,#147,#120,.T.);
#177=EDGE_CURVE('',#147,#146,#121,.T.);
#178=EDGE_CURVE('',#147,#141,#80,.T.);
#179=EDGE_CURVE('',#148,#149,#122,.T.);
#180=EDGE_CURVE('',#149,#148,#123,.T.);
#181=EDGE_CURVE('',#149,#140,#81,.T.);
#182=EDGE_CURVE('',#150,#150,#124,.T.);
#183=EDGE_CURVE('',#150,#137,#82,.T.);
#184=EDGE_CURVE('',#151,#151,#125,.T.);
#185=EDGE_CURVE('',#151,#138,#83,.T.);
#186=EDGE_CURVE('',#152,#152,#126,.T.);
#187=EDGE_CURVE('',#152,#139,#84,.T.);
#188=EDGE_CURVE('',#134,#153,#85,.T.);
#189=EDGE_CURVE('',#154,#153,#86,.T.);
#190=EDGE_CURVE('',#135,#154,#87,.T.);
#191=EDGE_CURVE('',#155,#154,#127,.T.);
#192=EDGE_CURVE('',#136,#155,#88,.T.);
#193=EDGE_CURVE('',#129,#155,#89,.T.);
#194=EDGE_CURVE('',#153,#143,#128,.T.);
#195=ORIENTED_EDGE('',*,*,#156,.T.);
#196=ORIENTED_EDGE('',*,*,#157,.T.);
#197=ORIENTED_EDGE('',*,*,#158,.T.);
#198=ORIENTED_EDGE('',*,*,#159,.T.);
#199=ORIENTED_EDGE('',*,*,#158,.F.);
#200=ORIENTED_EDGE('',*,*,#160,.F.);
#201=ORIENTED_EDGE('',*,*,#161,.F.);
#202=ORIENTED_EDGE('',*,*,#162,.F.);
#203=ORIENTED_EDGE('',*,*,#163,.F.);
#204=ORIENTED_EDGE('',*,*,#164,.F.);
#205=ORIENTED_EDGE('',*,*,#165,.F.);
#206=ORIENTED_EDGE('',*,*,#166,.F.);
#207=ORIENTED_EDGE('',*,*,#167,.F.);
#208=ORIENTED_EDGE('',*,*,#168,.T.);
#209=ORIENTED_EDGE('',*,*,#169,.T.);
#210=ORIENTED_EDGE('',*,*,#170,.T.);
#211=ORIENTED_EDGE('',*,*,#157,.F.);
#212=ORIENTED_EDGE('',*,*,#171,.F.);
#213=ORIENTED_EDGE('',*,*,#172,.F.);
#214=ORIENTED_EDGE('',*,*,#160,.T.);
#215=ORIENTED_EDGE('',*,*,#173,.F.);
#216=ORIENTED_EDGE('',*,*,#174,.F.);
#217=ORIENTED_EDGE('',*,*,#175,.T.);
#218=ORIENTED_EDGE('',*,*,#170,.F.);
#219=ORIENTED_EDGE('',*,*,#175,.F.);
#220=ORIENTED_EDGE('',*,*,#176,.F.);
#221=ORIENTED_EDGE('',*,*,#177,.F.);
#222=ORIENTED_EDGE('',*,*,#178,.T.);
#223=ORIENTED_EDGE('',*,*,#169,.F.);
#224=ORIENTED_EDGE('',*,*,#178,.F.);
#225=ORIENTED_EDGE('',*,*,#179,.F.);
#226=ORIENTED_EDGE('',*,*,#180,.F.);
#227=ORIENTED_EDGE('',*,*,#181,.T.);
#228=ORIENTED_EDGE('',*,*,#168,.F.);
#229=ORIENTED_EDGE('',*,*,#181,.F.);
#230=ORIENTED_EDGE('',*,*,#182,.F.);
#231=ORIENTED_EDGE('',*,*,#183,.T.);
#232=ORIENTED_EDGE('',*,*,#165,.T.);
#233=ORIENTED_EDGE('',*,*,#183,.F.);
#234=ORIENTED_EDGE('',*,*,#184,.F.);
#235=ORIENTED_EDGE('',*,*,#185,.T.);
#236=ORIENTED_EDGE('',*,*,#166,.T.);
#237=ORIENTED_EDGE('',*,*,#185,.F.);
#238=ORIENTED_EDGE('',*,*,#186,.F.);
#239=ORIENTED_EDGE('',*,*,#187,.T.);
#240=ORIENTED_EDGE('',*,*,#167,.T.);
#241=ORIENTED_EDGE('',*,*,#187,.F.);
#242=ORIENTED_EDGE('',*,*,#162,.T.);
#243=ORIENTED_EDGE('',*,*,#188,.T.);
#244=ORIENTED_EDGE('',*,*,#189,.F.);
#245=ORIENTED_EDGE('',*,*,#190,.F.);
#246=ORIENTED_EDGE('',*,*,#163,.T.);
#247=ORIENTED_EDGE('',*,*,#190,.T.);
#248=ORIENTED_EDGE('',*,*,#191,.F.);
#249=ORIENTED_EDGE('',*,*,#192,.F.);
#250=ORIENTED_EDGE('',*,*,#159,.F.);
#251=ORIENTED_EDGE('',*,*,#164,.T.);
#252=ORIENTED_EDGE('',*,*,#192,.T.);
#253=ORIENTED_EDGE('',*,*,#193,.F.);
#254=ORIENTED_EDGE('',*,*,#161,.T.);
#255=ORIENTED_EDGE('',*,*,#172,.T.);
#256=ORIENTED_EDGE('',*,*,#194,.F.);
#257=ORIENTED_EDGE('',*,*,#188,.F.);
#258=ORIENTED_EDGE('',*,*,#156,.F.);
#259=ORIENTED_EDGE('',*,*,#193,.T.);
#260=ORIENTED_EDGE('',*,*,#191,.T.);
#261=ORIENTED_EDGE('',*,*,#189,.T.);
#262=ORIENTED_EDGE('',*,*,#194,.T.);
#263=ORIENTED_EDGE('',*,*,#171,.T.);
#264=ORIENTED_EDGE('',*,*,#173,.T.);
#265=ORIENTED_EDGE('',*,*,#174,.T.);
#266=ORIENTED_EDGE('',*,*,#176,.T.);
#267=ORIENTED_EDGE('',*,*,#177,.T.);
#268=ORIENTED_EDGE('',*,*,#179,.T.);
#269=ORIENTED_EDGE('',*,*,#180,.T.);
#270=ORIENTED_EDGE('',*,*,#186,.T.);
#271=ORIENTED_EDGE('',*,*,#184,.T.);
#272=ORIENTED_EDGE('',*,*,#182,.T.);
#273=CYLINDRICAL_SURFACE('',#316,12.5);
#274=CYLINDRICAL_SURFACE('',#329,0.6105);
#275=CYLINDRICAL_SURFACE('',#332,0.6105);
#276=CYLINDRICAL_SURFACE('',#335,0.6105);
#277=CYLINDRICAL_SURFACE('',#338,9.);
#278=CYLINDRICAL_SURFACE('',#340,2.05);
#279=CYLINDRICAL_SURFACE('',#342,2.05);
#280=CYLINDRICAL_SURFACE('',#345,5.);
#281=CYLINDRICAL_SURFACE('',#348,5.);
#282=ADVANCED_FACE('',(#32),#273,.T.);
#283=ADVANCED_FACE('',(#33,#15,#16,#17,#18,#19,#20),#27,.F.);
#284=ADVANCED_FACE('',(#34),#28,.T.);
#285=ADVANCED_FACE('',(#35),#274,.F.);
#286=ADVANCED_FACE('',(#36),#275,.F.);
#287=ADVANCED_FACE('',(#37),#276,.F.);
#288=ADVANCED_FACE('',(#38),#277,.F.);
#289=ADVANCED_FACE('',(#39),#278,.F.);
#290=ADVANCED_FACE('',(#40),#279,.F.);
#291=ADVANCED_FACE('',(#41),#29,.T.);
#292=ADVANCED_FACE('',(#42),#280,.T.);
#293=ADVANCED_FACE('',(#43),#30,.T.);
#294=ADVANCED_FACE('',(#44),#281,.T.);
#295=ADVANCED_FACE('',(#45,#21,#22,#23,#24,#25,#26),#31,.T.);
#296=CLOSED_SHELL('',(#282,#283,#284,#285,#286,#287,#288,#289,#290,#291,
#292,#293,#294,#295));
#297=DERIVED_UNIT_ELEMENT(#299,1.);
#298=DERIVED_UNIT_ELEMENT(#527,3.);
#299=(
MASS_UNIT()
NAMED_UNIT(*)
SI_UNIT($,.GRAM.)
);
#300=DERIVED_UNIT((#297,#298));
#301=MEASURE_REPRESENTATION_ITEM('density measure',
POSITIVE_RATIO_MEASURE(8.),#300);
#302=PROPERTY_DEFINITION_REPRESENTATION(#307,#304);
#303=PROPERTY_DEFINITION_REPRESENTATION(#308,#305);
#304=REPRESENTATION('material name',(#306),#524);
#305=REPRESENTATION('density',(#301),#524);
#306=DESCRIPTIVE_REPRESENTATION_ITEM('Stainless Steel, Austenitic',
'Stainless Steel, Austenitic');
#307=PROPERTY_DEFINITION('material property','material name',#534);
#308=PROPERTY_DEFINITION('material property','density of part',#534);
#309=DATE_TIME_ROLE('creation_date');
#310=APPLIED_DATE_AND_TIME_ASSIGNMENT(#311,#309,(#534));
#311=DATE_AND_TIME(#312,#313);
#312=CALENDAR_DATE(2020,26,2);
#313=LOCAL_TIME(11,39,37.,#314);
#314=COORDINATED_UNIVERSAL_TIME_OFFSET(0,0,.BEHIND.);
#315=AXIS2_PLACEMENT_3D('placement',#441,#351,#352);
#316=AXIS2_PLACEMENT_3D('',#442,#353,#354);
#317=AXIS2_PLACEMENT_3D('',#445,#355,#356);
#318=AXIS2_PLACEMENT_3D('',#449,#358,#359);
#319=AXIS2_PLACEMENT_3D('',#451,#361,#362);
#320=AXIS2_PLACEMENT_3D('',#455,#364,#365);
#321=AXIS2_PLACEMENT_3D('',#459,#367,#368);
#322=AXIS2_PLACEMENT_3D('',#462,#370,#371);
#323=AXIS2_PLACEMENT_3D('',#464,#372,#373);
#324=AXIS2_PLACEMENT_3D('',#466,#374,#375);
#325=AXIS2_PLACEMENT_3D('',#468,#376,#377);
#326=AXIS2_PLACEMENT_3D('',#470,#378,#379);
#327=AXIS2_PLACEMENT_3D('',#472,#380,#381);
#328=AXIS2_PLACEMENT_3D('',#473,#382,#383);
#329=AXIS2_PLACEMENT_3D('',#477,#386,#387);
#330=AXIS2_PLACEMENT_3D('',#480,#388,#389);
#331=AXIS2_PLACEMENT_3D('',#481,#390,#391);
#332=AXIS2_PLACEMENT_3D('',#483,#393,#394);
#333=AXIS2_PLACEMENT_3D('',#486,#395,#396);
#334=AXIS2_PLACEMENT_3D('',#487,#397,#398);
#335=AXIS2_PLACEMENT_3D('',#489,#400,#401);
#336=AXIS2_PLACEMENT_3D('',#492,#402,#403);
#337=AXIS2_PLACEMENT_3D('',#493,#404,#405);
#338=AXIS2_PLACEMENT_3D('',#495,#407,#408);
#339=AXIS2_PLACEMENT_3D('',#497,#409,#410);
#340=AXIS2_PLACEMENT_3D('',#499,#412,#413);
#341=AXIS2_PLACEMENT_3D('',#501,#414,#415);
#342=AXIS2_PLACEMENT_3D('',#503,#417,#418);
#343=AXIS2_PLACEMENT_3D('',#505,#419,#420);
#344=AXIS2_PLACEMENT_3D('',#507,#422,#423);
#345=AXIS2_PLACEMENT_3D('',#513,#427,#428);
#346=AXIS2_PLACEMENT_3D('',#515,#429,#430);
#347=AXIS2_PLACEMENT_3D('',#517,#432,#433);
#348=AXIS2_PLACEMENT_3D('',#519,#435,#436);
#349=AXIS2_PLACEMENT_3D('',#520,#437,#438);
#350=AXIS2_PLACEMENT_3D('',#521,#439,#440);
#351=DIRECTION('axis',(0.,0.,1.));
#352=DIRECTION('refdir',(1.,0.,0.));
#353=DIRECTION('center_axis',(1.,0.,0.));
#354=DIRECTION('ref_axis',(0.,1.,-1.77635683940025E-16));
#355=DIRECTION('center_axis',(-1.,0.,0.));
#356=DIRECTION('ref_axis',(0.,1.,-1.77635683940025E-16));
#357=DIRECTION('',(-1.,0.,0.));
#358=DIRECTION('center_axis',(1.,0.,0.));
#359=DIRECTION('ref_axis',(0.,1.,-1.77635683940025E-16));
#360=DIRECTION('',(1.,0.,0.));
#361=DIRECTION('center_axis',(1.,0.,0.));
#362=DIRECTION('ref_axis',(0.,0.,-1.));
#363=DIRECTION('',(0.,0.866025403784439,0.5));
#364=DIRECTION('center_axis',(1.,0.,0.));
#365=DIRECTION('ref_axis',(0.,-1.,0.));
#366=DIRECTION('',(0.,2.08104262645685E-16,-1.));
#367=DIRECTION('center_axis',(1.,0.,0.));
#368=DIRECTION('ref_axis',(0.,0.5,0.866025403784439));
#369=DIRECTION('',(0.,-0.866025403784439,0.5));
#370=DIRECTION('center_axis',(-1.,0.,0.));
#371=DIRECTION('ref_axis',(0.,-1.,0.));
#372=DIRECTION('center_axis',(-1.,0.,0.));
#373=DIRECTION('ref_axis',(0.,-1.,0.));
#374=DIRECTION('center_axis',(-1.,0.,0.));
#375=DIRECTION('ref_axis',(0.,-1.,0.));
#376=DIRECTION('center_axis',(1.,0.,0.));
#377=DIRECTION('ref_axis',(0.,0.,-1.));
#378=DIRECTION('center_axis',(1.,0.,0.));
#379=DIRECTION('ref_axis',(0.,0.866025403784439,0.5));
#380=DIRECTION('center_axis',(1.,0.,0.));
#381=DIRECTION('ref_axis',(0.,-0.866025403784438,0.5));
#382=DIRECTION('center_axis',(0.,0.5,-0.866025403784439));
#383=DIRECTION('ref_axis',(0.,0.866025403784439,0.5));
#384=DIRECTION('',(0.,0.866025403784439,0.5));
#385=DIRECTION('',(1.,0.,0.));
#386=DIRECTION('center_axis',(1.,0.,0.));
#387=DIRECTION('ref_axis',(0.,-0.866025403784438,0.5));
#388=DIRECTION('center_axis',(-1.,0.,0.));
#389=DIRECTION('ref_axis',(0.,-0.866025403784438,0.5));
#390=DIRECTION('center_axis',(-1.,0.,0.));
#391=DIRECTION('ref_axis',(0.,-0.866025403784438,0.5));
#392=DIRECTION('',(-1.,0.,0.));
#393=DIRECTION('center_axis',(1.,0.,0.));
#394=DIRECTION('ref_axis',(0.,0.866025403784439,0.5));
#395=DIRECTION('center_axis',(-1.,0.,0.));
#396=DIRECTION('ref_axis',(0.,0.866025403784439,0.5));
#397=DIRECTION('center_axis',(-1.,0.,0.));
#398=DIRECTION('ref_axis',(0.,0.866025403784439,0.5));
#399=DIRECTION('',(-1.,0.,0.));
#400=DIRECTION('center_axis',(1.,0.,0.));
#401=DIRECTION('ref_axis',(0.,0.,-1.));
#402=DIRECTION('center_axis',(-1.,0.,0.));
#403=DIRECTION('ref_axis',(0.,0.,-1.));
#404=DIRECTION('center_axis',(-1.,0.,0.));
#405=DIRECTION('ref_axis',(0.,0.,-1.));
#406=DIRECTION('',(-1.,0.,0.));
#407=DIRECTION('center_axis',(1.,0.,0.));
#408=DIRECTION('ref_axis',(0.,-1.,0.));
#409=DIRECTION('center_axis',(-1.,0.,0.));
#410=DIRECTION('ref_axis',(0.,-1.,0.));
#411=DIRECTION('',(-1.,0.,0.));
#412=DIRECTION('center_axis',(1.,0.,0.));
#413=DIRECTION('ref_axis',(0.,-1.,0.));
#414=DIRECTION('center_axis',(-1.,0.,0.));
#415=DIRECTION('ref_axis',(0.,-1.,0.));
#416=DIRECTION('',(-1.,0.,0.));
#417=DIRECTION('center_axis',(1.,0.,0.));
#418=DIRECTION('ref_axis',(0.,-1.,0.));
#419=DIRECTION('center_axis',(-1.,0.,0.));
#420=DIRECTION('ref_axis',(0.,-1.,0.));
#421=DIRECTION('',(-1.,0.,0.));
#422=DIRECTION('center_axis',(0.,-1.,-2.08104262645685E-16));
#423=DIRECTION('ref_axis',(0.,2.08104262645685E-16,-1.));
#424=DIRECTION('',(1.,0.,0.));
#425=DIRECTION('',(0.,2.08104262645685E-16,-1.));
#426=DIRECTION('',(1.,0.,0.));
#427=DIRECTION('center_axis',(1.,0.,0.));
#428=DIRECTION('ref_axis',(0.,0.5,0.866025403784439));
#429=DIRECTION('center_axis',(1.,0.,0.));
#430=DIRECTION('ref_axis',(0.,0.5,0.866025403784439));
#431=DIRECTION('',(1.,0.,0.));
#432=DIRECTION('center_axis',(0.,0.5,0.866025403784439));
#433=DIRECTION('ref_axis',(0.,-0.866025403784439,0.5));
#434=DIRECTION('',(0.,-0.866025403784439,0.5));
#435=DIRECTION('center_axis',(1.,0.,0.));
#436=DIRECTION('ref_axis',(0.,-1.,0.));
#437=DIRECTION('center_axis',(1.,0.,0.));
#438=DIRECTION('ref_axis',(0.,-1.,0.));
#439=DIRECTION('center_axis',(1.,0.,0.));
#440=DIRECTION('ref_axis',(0.,0.,-1.));
#441=CARTESIAN_POINT('',(0.,0.,0.));
#442=CARTESIAN_POINT('Origin',(0.,-25.,4.44089209850063E-15));
#443=CARTESIAN_POINT('',(1.1,-18.75,10.8253175473055));
#444=CARTESIAN_POINT('',(1.1,-18.75,-10.8253175473055));
#445=CARTESIAN_POINT('Origin',(1.1,-25.,4.44089209850063E-15));
#446=CARTESIAN_POINT('',(0.,-18.75,-10.8253175473055));
#447=CARTESIAN_POINT('',(0.,-18.75,-10.8253175473055));
#448=CARTESIAN_POINT('',(0.,-18.75,10.8253175473055));
#449=CARTESIAN_POINT('Origin',(0.,-25.,4.44089209850063E-15));
#450=CARTESIAN_POINT('',(0.,-18.75,10.8253175473055));
#451=CARTESIAN_POINT('Origin',(0.,-25.9807621135332,6.66133814775094E-15));
#452=CARTESIAN_POINT('',(0.,-44.4615242270663,-25.6698729810778));
#453=CARTESIAN_POINT('',(0.,-44.4615242270663,-25.6698729810778));
#454=CARTESIAN_POINT('',(0.,-51.9615242270663,-21.3397459621556));
#455=CARTESIAN_POINT('Origin',(0.,-46.9615242270663,-21.3397459621556));
#456=CARTESIAN_POINT('',(0.,-51.9615242270663,21.3397459621556));
#457=CARTESIAN_POINT('',(0.,-51.9615242270663,21.3397459621556));
#458=CARTESIAN_POINT('',(0.,-44.4615242270663,25.6698729810778));
#459=CARTESIAN_POINT('Origin',(0.,-46.9615242270663,21.3397459621556));
#460=CARTESIAN_POINT('',(0.,0.,0.));
#461=CARTESIAN_POINT('',(0.,-16.9615242270663,1.93484938770149E-15));
#462=CARTESIAN_POINT('Origin',(0.,-25.9615242270663,8.32667268468867E-16));
#463=CARTESIAN_POINT('',(0.,-44.9115242270663,21.3397459621556));
#464=CARTESIAN_POINT('Origin',(0.,-46.9615242270663,21.3397459621556));
#465=CARTESIAN_POINT('',(0.,-44.9115242270663,-21.3397459621556));
#466=CARTESIAN_POINT('Origin',(0.,-46.9615242270663,-21.3397459621556));
#467=CARTESIAN_POINT('',(0.,-14.9615242270663,0.610500000000001));
#468=CARTESIAN_POINT('Origin',(0.,-14.9615242270663,8.32667268468867E-16));
#469=CARTESIAN_POINT('',(0.,-31.9902327360767,9.22102944162883));
#470=CARTESIAN_POINT('Origin',(0.,-31.4615242270663,9.52627944162883));
#471=CARTESIAN_POINT('',(0.,-30.9328157180559,-9.83152944162883));
#472=CARTESIAN_POINT('Origin',(0.,-31.4615242270663,-9.52627944162883));
#473=CARTESIAN_POINT('Origin',(0.,-44.4615242270663,-25.6698729810778));
#474=CARTESIAN_POINT('',(1.1,-44.4615242270663,-25.6698729810778));
#475=CARTESIAN_POINT('',(1.1,-44.4615242270663,-25.6698729810778));
#476=CARTESIAN_POINT('',(0.,-44.4615242270663,-25.6698729810778));
#477=CARTESIAN_POINT('Origin',(-72.9022896227108,-31.4615242270663,-9.52627944162883));
#478=CARTESIAN_POINT('',(1.1,-31.9902327360767,-9.22102944162882));
#479=CARTESIAN_POINT('',(1.1,-30.9328157180559,-9.83152944162883));
#480=CARTESIAN_POINT('Origin',(1.1,-31.4615242270663,-9.52627944162883));
#481=CARTESIAN_POINT('Origin',(1.1,-31.4615242270663,-9.52627944162883));
#482=CARTESIAN_POINT('',(-72.9022896227108,-30.9328157180559,-9.83152944162883));
#483=CARTESIAN_POINT('Origin',(-72.9022896227108,-31.4615242270663,9.52627944162883));
#484=CARTESIAN_POINT('',(1.1,-30.9328157180559,9.83152944162883));
#485=CARTESIAN_POINT('',(1.1,-31.9902327360767,9.22102944162883));
#486=CARTESIAN_POINT('Origin',(1.1,-31.4615242270663,9.52627944162883));
#487=CARTESIAN_POINT('Origin',(1.1,-31.4615242270663,9.52627944162883));
#488=CARTESIAN_POINT('',(-72.9022896227108,-31.9902327360767,9.22102944162883));
#489=CARTESIAN_POINT('Origin',(-72.9022896227108,-14.9615242270663,8.32667268468867E-16));
#490=CARTESIAN_POINT('',(1.1,-14.9615242270663,-0.610499999999999));
#491=CARTESIAN_POINT('',(1.1,-14.9615242270663,0.610500000000001));
#492=CARTESIAN_POINT('Origin',(1.1,-14.9615242270663,8.32667268468867E-16));
#493=CARTESIAN_POINT('Origin',(1.1,-14.9615242270663,8.32667268468867E-16));
#494=CARTESIAN_POINT('',(-72.9022896227108,-14.9615242270663,0.610500000000001));
#495=CARTESIAN_POINT('Origin',(0.,-25.9615242270663,8.32667268468867E-16));
#496=CARTESIAN_POINT('',(1.1,-16.9615242270663,0.));
#497=CARTESIAN_POINT('Origin',(1.1,-25.9615242270663,8.32667268468867E-16));
#498=CARTESIAN_POINT('',(0.,-16.9615242270663,1.93484938770149E-15));
#499=CARTESIAN_POINT('Origin',(0.,-46.9615242270663,21.3397459621556));
#500=CARTESIAN_POINT('',(1.1,-44.9115242270663,21.3397459621556));
#501=CARTESIAN_POINT('Origin',(1.1,-46.9615242270663,21.3397459621556));
#502=CARTESIAN_POINT('',(0.,-44.9115242270663,21.3397459621556));
#503=CARTESIAN_POINT('Origin',(0.,-46.9615242270663,-21.3397459621556));
#504=CARTESIAN_POINT('',(1.1,-44.9115242270663,-21.3397459621556));
#505=CARTESIAN_POINT('Origin',(1.1,-46.9615242270663,-21.3397459621556));
#506=CARTESIAN_POINT('',(0.,-44.9115242270663,-21.3397459621556));
#507=CARTESIAN_POINT('Origin',(0.,-51.9615242270663,21.3397459621556));
#508=CARTESIAN_POINT('',(1.1,-51.9615242270663,-21.3397459621556));
#509=CARTESIAN_POINT('',(0.,-51.9615242270663,-21.3397459621556));
#510=CARTESIAN_POINT('',(1.1,-51.9615242270663,21.3397459621556));
#511=CARTESIAN_POINT('',(1.1,-51.9615242270663,21.3397459621556));
#512=CARTESIAN_POINT('',(0.,-51.9615242270663,21.3397459621556));
#513=CARTESIAN_POINT('Origin',(0.,-46.9615242270663,21.3397459621556));
#514=CARTESIAN_POINT('',(1.1,-44.4615242270663,25.6698729810778));
#515=CARTESIAN_POINT('Origin',(1.1,-46.9615242270663,21.3397459621556));
#516=CARTESIAN_POINT('',(0.,-44.4615242270663,25.6698729810778));
#517=CARTESIAN_POINT('Origin',(0.,-4.42096449179017E-15,2.55244503941283E-15));
#518=CARTESIAN_POINT('',(1.1,0.,0.));
#519=CARTESIAN_POINT('Origin',(0.,-46.9615242270663,-21.3397459621556));
#520=CARTESIAN_POINT('Origin',(1.1,-46.9615242270663,-21.3397459621556));
#521=CARTESIAN_POINT('Origin',(1.1,-25.9807621135332,6.66133814775094E-15));
#522=UNCERTAINTY_MEASURE_WITH_UNIT(LENGTH_MEASURE(0.01),#526,
'DISTANCE_ACCURACY_VALUE',
'Maximum model space distance between geometric entities at asserted c
onnectivities');
#523=UNCERTAINTY_MEASURE_WITH_UNIT(LENGTH_MEASURE(0.01),#526,
'DISTANCE_ACCURACY_VALUE',
'Maximum model space distance between geometric entities at asserted c
onnectivities');
#524=(
GEOMETRIC_REPRESENTATION_CONTEXT(3)
GLOBAL_UNCERTAINTY_ASSIGNED_CONTEXT((#522))
GLOBAL_UNIT_ASSIGNED_CONTEXT((#526,#528,#529))
REPRESENTATION_CONTEXT('','3D')
);
#525=(
GEOMETRIC_REPRESENTATION_CONTEXT(3)
GLOBAL_UNCERTAINTY_ASSIGNED_CONTEXT((#523))
GLOBAL_UNIT_ASSIGNED_CONTEXT((#526,#528,#529))
REPRESENTATION_CONTEXT('','3D')
);
#526=(
LENGTH_UNIT()
NAMED_UNIT(*)
SI_UNIT(.MILLI.,.METRE.)
);
#527=(
LENGTH_UNIT()
NAMED_UNIT(*)
SI_UNIT(.CENTI.,.METRE.)
);
#528=(
NAMED_UNIT(*)
PLANE_ANGLE_UNIT()
SI_UNIT($,.RADIAN.)
);
#529=(
NAMED_UNIT(*)
SI_UNIT($,.STERADIAN.)
SOLID_ANGLE_UNIT()
);
#530=SHAPE_DEFINITION_REPRESENTATION(#531,#532);
#531=PRODUCT_DEFINITION_SHAPE('',$,#534);
#532=SHAPE_REPRESENTATION('',(#315),#524);
#533=PRODUCT_DEFINITION_CONTEXT('part definition',#538,'design');
#534=PRODUCT_DEFINITION('CO-MEC-EXT-0003-01',
'CO-MEC-EXT-0003-01 - Stainless Steel side',#535,#533);
#535=PRODUCT_DEFINITION_FORMATION('',$,#540);
#536=PRODUCT_RELATED_PRODUCT_CATEGORY(
'CO-MEC-EXT-0003-01 - Stainless Steel side',
'CO-MEC-EXT-0003-01 - Stainless Steel side',(#540));
#537=APPLICATION_PROTOCOL_DEFINITION('international standard',
'automotive_design',2009,#538);
#538=APPLICATION_CONTEXT(
'Core Data for Automotive Mechanical Design Process');
#539=PRODUCT_CONTEXT('part definition',#538,'mechanical');
#540=PRODUCT('CO-MEC-EXT-0003-01',
'CO-MEC-EXT-0003-01 - Stainless Steel side',$,(#539));
#541=PRESENTATION_STYLE_ASSIGNMENT((#542));
#542=SURFACE_STYLE_USAGE(.BOTH.,#545);
#543=SURFACE_STYLE_RENDERING_WITH_PROPERTIES($,#549,(#544));
#544=SURFACE_STYLE_TRANSPARENT(0.);
#545=SURFACE_SIDE_STYLE('',(#546,#543));
#546=SURFACE_STYLE_FILL_AREA(#547);
#547=FILL_AREA_STYLE('',(#548));
#548=FILL_AREA_STYLE_COLOUR('',#549);
#549=COLOUR_RGB('',0.745098039215686,0.737254901960784,0.729411764705882);
ENDSEC;
END-ISO-10303-21;
