ISO-10303-21;
HEADER;

FILE_DESCRIPTION(
/* description */ ('VariCAD 2020-1.05 AP-214'),
/* implementation_level */ '2;1');

FILE_NAME(
/* name */ 'bride pompe essence.stp',
/* time_stamp */ '2020-02-22T22:55:23+01:00',
/* author */ (''),
/* organization */ (''),
/* preprocessor_version */ 'VariCAD 2020-1.05',
/* originating_system */ 'VariCAD 2020-1.05; kernel version (20180118)',
/* authorisation */ '');

FILE_SCHEMA(('AUTOMOTIVE_DESIGN'));
ENDSEC;

DATA;
#10=MECHANICAL_DESIGN_GEOMETRIC_PRESENTATION_REPRESENTATION('',(#139),#442);
#11=CONTEXT_DEPENDENT_SHAPE_REPRESENTATION(#13,#241);
#12=NEXT_ASSEMBLY_USAGE_OCCURRENCE('','','',#242,#243,'');
#13=(
REPRESENTATION_RELATIONSHIP('','',#256,#257)
REPRESENTATION_RELATIONSHIP_WITH_TRANSFORMATION(#14)
SHAPE_REPRESENTATION_RELATIONSHIP()
);
#14=ITEM_DEFINED_TRANSFORMATION('','',#293,#259);
#15=SHAPE_REPRESENTATION_RELATIONSHIP('','',#257,#16);
#16=ADVANCED_BREP_SHAPE_REPRESENTATION('',(#17,#292),#441);
#17=MANIFOLD_SOLID_BREP('',#18);
#18=CLOSED_SHELL('',(#27,#28,#29,#30,#31,#32,#33,#34,#35,#36,#37,#38,#39,#40));
#19=FACE_BOUND('',#61,.F.);
#20=FACE_BOUND('',#65,.F.);
#21=FACE_BOUND('',#68,.F.);
#22=FACE_BOUND('',#71,.F.);
#23=PLANE('',#284);
#24=PLANE('',#287);
#25=PLANE('',#289);
#26=PLANE('',#291);
#27=ADVANCED_FACE('',(#41),#129,.F.);
#28=ADVANCED_FACE('',(#42),#130,.F.);
#29=ADVANCED_FACE('',(#43),#131,.F.);
#30=ADVANCED_FACE('',(#44),#132,.T.);
#31=ADVANCED_FACE('',(#45),#133,.T.);
#32=ADVANCED_FACE('',(#46),#134,.F.);
#33=ADVANCED_FACE('',(#19,#47),#23,.T.);
#34=ADVANCED_FACE('',(#48),#135,.F.);
#35=ADVANCED_FACE('',(#49),#136,.F.);
#36=ADVANCED_FACE('',(#20,#50),#24,.T.);
#37=ADVANCED_FACE('',(#51),#137,.T.);
#38=ADVANCED_FACE('',(#21,#52),#25,.T.);
#39=ADVANCED_FACE('',(#53),#138,.T.);
#40=ADVANCED_FACE('',(#22,#54),#26,.T.);
#41=FACE_OUTER_BOUND('',#55,.F.);
#42=FACE_OUTER_BOUND('',#56,.F.);
#43=FACE_OUTER_BOUND('',#57,.F.);
#44=FACE_OUTER_BOUND('',#58,.F.);
#45=FACE_OUTER_BOUND('',#59,.F.);
#46=FACE_OUTER_BOUND('',#60,.F.);
#47=FACE_OUTER_BOUND('',#62,.F.);
#48=FACE_OUTER_BOUND('',#63,.F.);
#49=FACE_OUTER_BOUND('',#64,.F.);
#50=FACE_OUTER_BOUND('',#66,.F.);
#51=FACE_OUTER_BOUND('',#67,.F.);
#52=FACE_OUTER_BOUND('',#69,.F.);
#53=FACE_OUTER_BOUND('',#70,.F.);
#54=FACE_OUTER_BOUND('',#72,.F.);
#55=EDGE_LOOP('',(#73,#74,#75,#76));
#56=EDGE_LOOP('',(#77,#78,#79,#80));
#57=EDGE_LOOP('',(#81,#82,#83,#84));
#58=EDGE_LOOP('',(#85,#86,#87,#88));
#59=EDGE_LOOP('',(#89,#90,#91,#92));
#60=EDGE_LOOP('',(#93,#94,#95,#96));
#61=EDGE_LOOP('',(#97,#98));
#62=EDGE_LOOP('',(#99,#100));
#63=EDGE_LOOP('',(#101,#102,#103,#104));
#64=EDGE_LOOP('',(#105,#106,#107,#108));
#65=EDGE_LOOP('',(#109,#110));
#66=EDGE_LOOP('',(#111,#112));
#67=EDGE_LOOP('',(#113,#114,#115,#116));
#68=EDGE_LOOP('',(#117,#118));
#69=EDGE_LOOP('',(#119,#120));
#70=EDGE_LOOP('',(#121,#122,#123,#124));
#71=EDGE_LOOP('',(#125,#126));
#72=EDGE_LOOP('',(#127,#128));
#73=ORIENTED_EDGE('',*,*,#167,.T.);
#74=ORIENTED_EDGE('',*,*,#176,.T.);
#75=ORIENTED_EDGE('',*,*,#175,.F.);
#76=ORIENTED_EDGE('',*,*,#177,.F.);
#77=ORIENTED_EDGE('',*,*,#168,.F.);
#78=ORIENTED_EDGE('',*,*,#179,.F.);
#79=ORIENTED_EDGE('',*,*,#169,.F.);
#80=ORIENTED_EDGE('',*,*,#178,.T.);
#81=ORIENTED_EDGE('',*,*,#169,.T.);
#82=ORIENTED_EDGE('',*,*,#181,.F.);
#83=ORIENTED_EDGE('',*,*,#170,.F.);
#84=ORIENTED_EDGE('',*,*,#180,.T.);
#85=ORIENTED_EDGE('',*,*,#171,.T.);
#86=ORIENTED_EDGE('',*,*,#183,.F.);
#87=ORIENTED_EDGE('',*,*,#172,.T.);
#88=ORIENTED_EDGE('',*,*,#182,.T.);
#89=ORIENTED_EDGE('',*,*,#173,.F.);
#90=ORIENTED_EDGE('',*,*,#185,.F.);
#91=ORIENTED_EDGE('',*,*,#174,.T.);
#92=ORIENTED_EDGE('',*,*,#184,.T.);
#93=ORIENTED_EDGE('',*,*,#176,.F.);
#94=ORIENTED_EDGE('',*,*,#186,.T.);
#95=ORIENTED_EDGE('',*,*,#177,.T.);
#96=ORIENTED_EDGE('',*,*,#194,.F.);
#97=ORIENTED_EDGE('',*,*,#187,.T.);
#98=ORIENTED_EDGE('',*,*,#168,.T.);
#99=ORIENTED_EDGE('',*,*,#186,.F.);
#100=ORIENTED_EDGE('',*,*,#167,.F.);
#101=ORIENTED_EDGE('',*,*,#178,.F.);
#102=ORIENTED_EDGE('',*,*,#188,.F.);
#103=ORIENTED_EDGE('',*,*,#179,.T.);
#104=ORIENTED_EDGE('',*,*,#187,.F.);
#105=ORIENTED_EDGE('',*,*,#180,.F.);
#106=ORIENTED_EDGE('',*,*,#189,.F.);
#107=ORIENTED_EDGE('',*,*,#181,.T.);
#108=ORIENTED_EDGE('',*,*,#188,.T.);
#109=ORIENTED_EDGE('',*,*,#189,.T.);
#110=ORIENTED_EDGE('',*,*,#170,.T.);
#111=ORIENTED_EDGE('',*,*,#190,.F.);
#112=ORIENTED_EDGE('',*,*,#171,.F.);
#113=ORIENTED_EDGE('',*,*,#182,.F.);
#114=ORIENTED_EDGE('',*,*,#191,.T.);
#115=ORIENTED_EDGE('',*,*,#183,.T.);
#116=ORIENTED_EDGE('',*,*,#190,.T.);
#117=ORIENTED_EDGE('',*,*,#192,.T.);
#118=ORIENTED_EDGE('',*,*,#173,.T.);
#119=ORIENTED_EDGE('',*,*,#191,.F.);
#120=ORIENTED_EDGE('',*,*,#172,.F.);
#121=ORIENTED_EDGE('',*,*,#184,.F.);
#122=ORIENTED_EDGE('',*,*,#193,.T.);
#123=ORIENTED_EDGE('',*,*,#185,.T.);
#124=ORIENTED_EDGE('',*,*,#192,.F.);
#125=ORIENTED_EDGE('',*,*,#194,.T.);
#126=ORIENTED_EDGE('',*,*,#175,.T.);
#127=ORIENTED_EDGE('',*,*,#193,.F.);
#128=ORIENTED_EDGE('',*,*,#174,.F.);
#129=CYLINDRICAL_SURFACE('',#278,37.4999999999999);
#130=CYLINDRICAL_SURFACE('',#279,30.9999999999998);
#131=CYLINDRICAL_SURFACE('',#280,30.9999999999999);
#132=CYLINDRICAL_SURFACE('',#281,62.5000000000001);
#133=CYLINDRICAL_SURFACE('',#282,47.5);
#134=CYLINDRICAL_SURFACE('',#283,37.4999999999999);
#135=CYLINDRICAL_SURFACE('',#285,30.9999999999998);
#136=CYLINDRICAL_SURFACE('',#286,30.9999999999999);
#137=CYLINDRICAL_SURFACE('',#288,62.5000000000001);
#138=CYLINDRICAL_SURFACE('',#290,47.5);
#139=STYLED_ITEM('',(#140),#17);
#140=PRESENTATION_STYLE_ASSIGNMENT((#141));
#141=SURFACE_STYLE_USAGE(.BOTH.,#142);
#142=SURFACE_SIDE_STYLE('',(#143));
#143=SURFACE_STYLE_FILL_AREA(#144);
#144=FILL_AREA_STYLE('',(#145));
#145=FILL_AREA_STYLE_COLOUR('',#146);
#146=COLOUR_RGB('Colour',0.784313725490196,0.784313725490196,0.862745098039216);
#147=LINE('',#405,#157);
#148=LINE('',#406,#158);
#149=LINE('',#407,#159);
#150=LINE('',#408,#160);
#151=LINE('',#409,#161);
#152=LINE('',#410,#162);
#153=LINE('',#411,#163);
#154=LINE('',#412,#164);
#155=LINE('',#413,#165);
#156=LINE('',#414,#166);
#157=VECTOR('',#316,4.50000000000017);
#158=VECTOR('',#317,4.50000000000017);
#159=VECTOR('',#318,5.50000000000009);
#160=VECTOR('',#319,5.50000000000009);
#161=VECTOR('',#320,1.99999999999986);
#162=VECTOR('',#321,1.99999999999986);
#163=VECTOR('',#322,5.00000000000014);
#164=VECTOR('',#323,5.00000000000014);
#165=VECTOR('',#324,7.00000000000014);
#166=VECTOR('',#325,7.00000000000014);
#167=EDGE_CURVE('',#230,#229,#195,.T.);
#168=EDGE_CURVE('',#228,#227,#196,.T.);
#169=EDGE_CURVE('',#226,#225,#197,.T.);
#170=EDGE_CURVE('',#224,#223,#198,.T.);
#171=EDGE_CURVE('',#222,#221,#199,.T.);
#172=EDGE_CURVE('',#220,#219,#200,.T.);
#173=EDGE_CURVE('',#218,#217,#201,.T.);
#174=EDGE_CURVE('',#216,#215,#202,.T.);
#175=EDGE_CURVE('',#214,#213,#203,.T.);
#176=EDGE_CURVE('',#229,#213,#147,.T.);
#177=EDGE_CURVE('',#230,#214,#148,.T.);
#178=EDGE_CURVE('',#226,#227,#149,.T.);
#179=EDGE_CURVE('',#225,#228,#150,.T.);
#180=EDGE_CURVE('',#224,#226,#151,.T.);
#181=EDGE_CURVE('',#223,#225,#152,.T.);
#182=EDGE_CURVE('',#219,#222,#153,.T.);
#183=EDGE_CURVE('',#220,#221,#154,.T.);
#184=EDGE_CURVE('',#215,#217,#155,.T.);
#185=EDGE_CURVE('',#216,#218,#156,.T.);
#186=EDGE_CURVE('',#229,#230,#204,.T.);
#187=EDGE_CURVE('',#227,#228,#205,.T.);
#188=EDGE_CURVE('',#225,#226,#206,.T.);
#189=EDGE_CURVE('',#223,#224,#207,.T.);
#190=EDGE_CURVE('',#221,#222,#208,.T.);
#191=EDGE_CURVE('',#219,#220,#209,.T.);
#192=EDGE_CURVE('',#217,#218,#210,.T.);
#193=EDGE_CURVE('',#215,#216,#211,.T.);
#194=EDGE_CURVE('',#213,#214,#212,.T.);
#195=CIRCLE('',#260,37.5);
#196=CIRCLE('',#261,30.9999999999998);
#197=CIRCLE('',#262,30.9999999999998);
#198=CIRCLE('',#263,31.);
#199=CIRCLE('',#264,62.5000000000003);
#200=CIRCLE('',#265,62.5);
#201=CIRCLE('',#266,47.5);
#202=CIRCLE('',#267,47.5);
#203=CIRCLE('',#268,37.5);
#204=CIRCLE('',#269,37.5);
#205=CIRCLE('',#270,30.9999999999998);
#206=CIRCLE('',#271,30.9999999999998);
#207=CIRCLE('',#272,31.);
#208=CIRCLE('',#273,62.5000000000003);
#209=CIRCLE('',#274,62.5);
#210=CIRCLE('',#275,47.5);
#211=CIRCLE('',#276,47.5);
#212=CIRCLE('',#277,37.5);
#213=VERTEX_POINT('',#378);
#214=VERTEX_POINT('',#379);
#215=VERTEX_POINT('',#380);
#216=VERTEX_POINT('',#381);
#217=VERTEX_POINT('',#382);
#218=VERTEX_POINT('',#383);
#219=VERTEX_POINT('',#384);
#220=VERTEX_POINT('',#385);
#221=VERTEX_POINT('',#386);
#222=VERTEX_POINT('',#387);
#223=VERTEX_POINT('',#388);
#224=VERTEX_POINT('',#389);
#225=VERTEX_POINT('',#390);
#226=VERTEX_POINT('',#391);
#227=VERTEX_POINT('',#392);
#228=VERTEX_POINT('',#393);
#229=VERTEX_POINT('',#394);
#230=VERTEX_POINT('',#395);
#231=PRODUCT_CATEGORY_RELATIONSHIP('','',#235,#233);
#232=PRODUCT_CATEGORY_RELATIONSHIP('','',#236,#234);
#233=PRODUCT_RELATED_PRODUCT_CATEGORY('detail','',(#248));
#234=PRODUCT_RELATED_PRODUCT_CATEGORY('detail','',(#249));
#235=PRODUCT_CATEGORY('part','');
#236=PRODUCT_CATEGORY('part','');
#237=SHAPE_DEFINITION_REPRESENTATION(#239,#256);
#238=SHAPE_DEFINITION_REPRESENTATION(#240,#257);
#239=PRODUCT_DEFINITION_SHAPE('','Shape',#242);
#240=PRODUCT_DEFINITION_SHAPE('','Shape',#243);
#241=PRODUCT_DEFINITION_SHAPE('','',#12);
#242=PRODUCT_DEFINITION('','',#244,#246);
#243=PRODUCT_DEFINITION('','',#245,#247);
#244=PRODUCT_DEFINITION_FORMATION('','',#248);
#245=PRODUCT_DEFINITION_FORMATION('','',#249);
#246=PRODUCT_DEFINITION_CONTEXT('part definition',#254,'');
#247=PRODUCT_DEFINITION_CONTEXT('part definition',#255,'');
#248=PRODUCT('bride pompe essence','bride pompe essence','not specified',
(#250));
#249=PRODUCT('','','not specified',(#251));
#250=PRODUCT_CONTEXT('',#254,'mechanical');
#251=PRODUCT_CONTEXT('',#255,'mechanical');
#252=APPLICATION_PROTOCOL_DEFINITION('Draft International Standard',
'automotive_design',1997,#254);
#253=APPLICATION_PROTOCOL_DEFINITION('Draft International Standard',
'automotive_design',1997,#255);
#254=APPLICATION_CONTEXT('automotive design');
#255=APPLICATION_CONTEXT('automotive design');
#256=SHAPE_REPRESENTATION('bride pompe essence',(#258,#293),#440);
#257=SHAPE_REPRESENTATION('',(#259),#441);
#258=AXIS2_PLACEMENT_3D('',#376,#294,#295);
#259=AXIS2_PLACEMENT_3D('',#377,#296,#297);
#260=AXIS2_PLACEMENT_3D('',#396,#298,#299);
#261=AXIS2_PLACEMENT_3D('',#397,#300,#301);
#262=AXIS2_PLACEMENT_3D('',#398,#302,#303);
#263=AXIS2_PLACEMENT_3D('',#399,#304,#305);
#264=AXIS2_PLACEMENT_3D('',#400,#306,#307);
#265=AXIS2_PLACEMENT_3D('',#401,#308,#309);
#266=AXIS2_PLACEMENT_3D('',#402,#310,#311);
#267=AXIS2_PLACEMENT_3D('',#403,#312,#313);
#268=AXIS2_PLACEMENT_3D('',#404,#314,#315);
#269=AXIS2_PLACEMENT_3D('',#415,#326,#327);
#270=AXIS2_PLACEMENT_3D('',#416,#328,#329);
#271=AXIS2_PLACEMENT_3D('',#417,#330,#331);
#272=AXIS2_PLACEMENT_3D('',#418,#332,#333);
#273=AXIS2_PLACEMENT_3D('',#419,#334,#335);
#274=AXIS2_PLACEMENT_3D('',#420,#336,#337);
#275=AXIS2_PLACEMENT_3D('',#421,#338,#339);
#276=AXIS2_PLACEMENT_3D('',#422,#340,#341);
#277=AXIS2_PLACEMENT_3D('',#423,#342,#343);
#278=AXIS2_PLACEMENT_3D('',#424,#344,#345);
#279=AXIS2_PLACEMENT_3D('',#425,#346,#347);
#280=AXIS2_PLACEMENT_3D('',#426,#348,#349);
#281=AXIS2_PLACEMENT_3D('',#427,#350,#351);
#282=AXIS2_PLACEMENT_3D('',#428,#352,#353);
#283=AXIS2_PLACEMENT_3D('',#429,#354,#355);
#284=AXIS2_PLACEMENT_3D('',#430,#356,#357);
#285=AXIS2_PLACEMENT_3D('',#431,#358,#359);
#286=AXIS2_PLACEMENT_3D('',#432,#360,#361);
#287=AXIS2_PLACEMENT_3D('',#433,#362,#363);
#288=AXIS2_PLACEMENT_3D('',#434,#364,#365);
#289=AXIS2_PLACEMENT_3D('',#435,#366,#367);
#290=AXIS2_PLACEMENT_3D('',#436,#368,#369);
#291=AXIS2_PLACEMENT_3D('',#437,#370,#371);
#292=AXIS2_PLACEMENT_3D('',#438,#372,#373);
#293=AXIS2_PLACEMENT_3D('',#439,#374,#375);
#294=DIRECTION('',(0.,0.,1.));
#295=DIRECTION('',(1.,0.,0.));
#296=DIRECTION('',(0.,0.,1.));
#297=DIRECTION('',(1.,0.,0.));
#298=DIRECTION('',(-1.,0.,0.));
#299=DIRECTION('',(0.,-1.,0.));
#300=DIRECTION('',(-1.,0.,0.));
#301=DIRECTION('',(0.,-1.,0.));
#302=DIRECTION('',(1.,0.,0.));
#303=DIRECTION('',(0.,1.,0.));
#304=DIRECTION('',(1.,0.,0.));
#305=DIRECTION('',(0.,1.,0.));
#306=DIRECTION('',(1.,0.,0.));
#307=DIRECTION('',(0.,1.,0.));
#308=DIRECTION('',(-1.,0.,0.));
#309=DIRECTION('',(0.,-1.,0.));
#310=DIRECTION('',(-1.,0.,0.));
#311=DIRECTION('',(0.,-1.,0.));
#312=DIRECTION('',(-1.,0.,0.));
#313=DIRECTION('',(0.,-1.,0.));
#314=DIRECTION('',(-1.,0.,0.));
#315=DIRECTION('',(0.,-1.,0.));
#316=DIRECTION('',(-1.,0.,0.));
#317=DIRECTION('',(-1.,0.,0.));
#318=DIRECTION('',(-1.,0.,0.));
#319=DIRECTION('',(-1.,0.,0.));
#320=DIRECTION('',(-1.,0.,0.));
#321=DIRECTION('',(-1.,0.,0.));
#322=DIRECTION('',(1.,0.,0.));
#323=DIRECTION('',(1.,0.,0.));
#324=DIRECTION('',(1.,0.,0.));
#325=DIRECTION('',(1.,0.,0.));
#326=DIRECTION('',(-1.,0.,0.));
#327=DIRECTION('',(0.,1.,0.));
#328=DIRECTION('',(-1.,0.,0.));
#329=DIRECTION('',(0.,1.,0.));
#330=DIRECTION('',(1.,0.,0.));
#331=DIRECTION('',(0.,-1.,0.));
#332=DIRECTION('',(1.,0.,0.));
#333=DIRECTION('',(0.,-1.,0.));
#334=DIRECTION('',(1.,0.,0.));
#335=DIRECTION('',(0.,-1.,0.));
#336=DIRECTION('',(-1.,0.,0.));
#337=DIRECTION('',(0.,1.,0.));
#338=DIRECTION('',(-1.,0.,0.));
#339=DIRECTION('',(0.,1.,0.));
#340=DIRECTION('',(-1.,0.,0.));
#341=DIRECTION('',(0.,1.,0.));
#342=DIRECTION('',(-1.,0.,0.));
#343=DIRECTION('',(0.,1.,0.));
#344=DIRECTION('',(1.,0.,0.));
#345=DIRECTION('',(0.,1.,0.));
#346=DIRECTION('',(1.,0.,0.));
#347=DIRECTION('',(0.,1.,0.));
#348=DIRECTION('',(1.,0.,0.));
#349=DIRECTION('',(0.,1.,0.));
#350=DIRECTION('',(1.,0.,0.));
#351=DIRECTION('',(0.,1.,0.));
#352=DIRECTION('',(1.,0.,0.));
#353=DIRECTION('',(0.,1.,0.));
#354=DIRECTION('',(1.,0.,0.));
#355=DIRECTION('',(0.,-1.,0.));
#356=DIRECTION('',(-1.,0.,0.));
#357=DIRECTION('',(0.,0.,1.));
#358=DIRECTION('',(1.,0.,0.));
#359=DIRECTION('',(0.,-1.,0.));
#360=DIRECTION('',(1.,0.,0.));
#361=DIRECTION('',(0.,-1.,0.));
#362=DIRECTION('',(1.,0.,0.));
#363=DIRECTION('',(0.,0.,-1.));
#364=DIRECTION('',(1.,0.,0.));
#365=DIRECTION('',(0.,-1.,0.));
#366=DIRECTION('',(-1.,0.,0.));
#367=DIRECTION('',(0.,0.,1.));
#368=DIRECTION('',(1.,0.,0.));
#369=DIRECTION('',(0.,-1.,0.));
#370=DIRECTION('',(-1.,0.,0.));
#371=DIRECTION('',(0.,0.,1.));
#372=DIRECTION('',(0.,0.,1.));
#373=DIRECTION('',(1.,0.,0.));
#374=DIRECTION('',(0.,0.,1.));
#375=DIRECTION('',(1.,0.,0.));
#376=CARTESIAN_POINT('',(0.,0.,0.));
#377=CARTESIAN_POINT('',(0.,0.,0.));
#378=CARTESIAN_POINT('',(49.3035948008978,37.5,0.));
#379=CARTESIAN_POINT('',(49.3035948008978,-37.5,0.));
#380=CARTESIAN_POINT('',(49.3035948008978,47.5,0.));
#381=CARTESIAN_POINT('',(49.3035948008978,-47.5,0.));
#382=CARTESIAN_POINT('',(56.303594800898,47.5,0.));
#383=CARTESIAN_POINT('',(56.303594800898,-47.5,0.));
#384=CARTESIAN_POINT('',(56.3035948008978,62.5000000000001,0.));
#385=CARTESIAN_POINT('',(56.3035948008978,-62.5,0.));
#386=CARTESIAN_POINT('',(61.303594800898,-62.5000000000003,0.));
#387=CARTESIAN_POINT('',(61.303594800898,62.5000000000002,0.));
#388=CARTESIAN_POINT('',(61.3035948008978,-31.,0.));
#389=CARTESIAN_POINT('',(61.3035948008978,30.9999999999999,0.));
#390=CARTESIAN_POINT('',(59.303594800898,-30.9999999999998,0.));
#391=CARTESIAN_POINT('',(59.303594800898,30.9999999999999,0.));
#392=CARTESIAN_POINT('',(53.8035948008979,30.9999999999998,0.));
#393=CARTESIAN_POINT('',(53.8035948008979,-30.9999999999998,0.));
#394=CARTESIAN_POINT('',(53.8035948008979,37.4999999999999,0.));
#395=CARTESIAN_POINT('',(53.8035948008979,-37.5,0.));
#396=CARTESIAN_POINT('',(53.8035948008981,0.,0.));
#397=CARTESIAN_POINT('',(53.8035948008981,0.,0.));
#398=CARTESIAN_POINT('',(59.3035948008978,0.,0.));
#399=CARTESIAN_POINT('',(61.3035948008978,0.,0.));
#400=CARTESIAN_POINT('',(61.3035948008983,0.,0.));
#401=CARTESIAN_POINT('',(56.3035948008983,0.,0.));
#402=CARTESIAN_POINT('',(56.3035948008978,0.,0.));
#403=CARTESIAN_POINT('',(49.3035948008974,0.,0.));
#404=CARTESIAN_POINT('',(49.3035948008978,0.,0.));
#405=CARTESIAN_POINT('',(53.8035948008979,37.4999999999998,0.));
#406=CARTESIAN_POINT('',(53.8035948008979,-37.5,0.));
#407=CARTESIAN_POINT('',(59.303594800898,30.9999999999998,0.));
#408=CARTESIAN_POINT('',(59.303594800898,-30.9999999999998,0.));
#409=CARTESIAN_POINT('',(61.3035948008978,30.9999999999998,0.));
#410=CARTESIAN_POINT('',(61.3035948008978,-31.,0.));
#411=CARTESIAN_POINT('',(56.3035948008978,62.5000000000003,0.));
#412=CARTESIAN_POINT('',(56.3035948008978,-62.5,0.));
#413=CARTESIAN_POINT('',(49.3035948008978,47.5,0.));
#414=CARTESIAN_POINT('',(49.3035948008978,-47.5,0.));
#415=CARTESIAN_POINT('',(53.8035948008981,0.,0.));
#416=CARTESIAN_POINT('',(53.8035948008981,0.,0.));
#417=CARTESIAN_POINT('',(59.3035948008978,0.,0.));
#418=CARTESIAN_POINT('',(61.3035948008978,0.,0.));
#419=CARTESIAN_POINT('',(61.3035948008983,0.,0.));
#420=CARTESIAN_POINT('',(56.3035948008983,0.,0.));
#421=CARTESIAN_POINT('',(56.3035948008978,0.,0.));
#422=CARTESIAN_POINT('',(49.3035948008974,0.,0.));
#423=CARTESIAN_POINT('',(49.3035948008978,0.,0.));
#424=CARTESIAN_POINT('',(53.8035948008979,0.,0.));
#425=CARTESIAN_POINT('',(59.303594800898,0.,0.));
#426=CARTESIAN_POINT('',(61.3035948008978,0.,0.));
#427=CARTESIAN_POINT('',(56.3035948008978,0.,0.));
#428=CARTESIAN_POINT('',(49.3035948008978,0.,0.));
#429=CARTESIAN_POINT('',(53.8035948008979,0.,0.));
#430=CARTESIAN_POINT('',(53.8035948008979,-38.25,-38.2500000000001));
#431=CARTESIAN_POINT('',(59.303594800898,0.,0.));
#432=CARTESIAN_POINT('',(61.3035948008978,0.,0.));
#433=CARTESIAN_POINT('',(61.303594800898,-63.7500000000003,63.7500000000003));
#434=CARTESIAN_POINT('',(56.3035948008978,0.,0.));
#435=CARTESIAN_POINT('',(56.3035948008979,-63.75,-63.7499999999999));
#436=CARTESIAN_POINT('',(49.3035948008978,0.,0.));
#437=CARTESIAN_POINT('',(49.3035948008978,-48.45,-48.4500000000001));
#438=CARTESIAN_POINT('',(0.,0.,0.));
#439=CARTESIAN_POINT('',(0.,0.,0.));
#440=(
GEOMETRIC_REPRESENTATION_CONTEXT(3)
GLOBAL_UNCERTAINTY_ASSIGNED_CONTEXT((#443))
GLOBAL_UNIT_ASSIGNED_CONTEXT((#452,#449,#446))
REPRESENTATION_CONTEXT('','')
);
#441=(
GEOMETRIC_REPRESENTATION_CONTEXT(3)
GLOBAL_UNCERTAINTY_ASSIGNED_CONTEXT((#444))
GLOBAL_UNIT_ASSIGNED_CONTEXT((#453,#450,#447))
REPRESENTATION_CONTEXT('','')
);
#442=(
GEOMETRIC_REPRESENTATION_CONTEXT(3)
GLOBAL_UNCERTAINTY_ASSIGNED_CONTEXT((#445))
GLOBAL_UNIT_ASSIGNED_CONTEXT((#454,#451,#448))
REPRESENTATION_CONTEXT('','')
);
#443=UNCERTAINTY_MEASURE_WITH_UNIT(LENGTH_MEASURE(0.001),#452,'TOL_CRV',
'CONFUSED CURVE UNCERTAINTY');
#444=UNCERTAINTY_MEASURE_WITH_UNIT(LENGTH_MEASURE(0.001),#453,'TOL_CRV',
'CONFUSED CURVE UNCERTAINTY');
#445=UNCERTAINTY_MEASURE_WITH_UNIT(LENGTH_MEASURE(0.001),#454,'TOL_CRV',
'CONFUSED CURVE UNCERTAINTY');
#446=(
SI_UNIT($,.STERADIAN.)
SOLID_ANGLE_UNIT()
NAMED_UNIT(*)
);
#447=(
SI_UNIT($,.STERADIAN.)
SOLID_ANGLE_UNIT()
NAMED_UNIT(*)
);
#448=(
SI_UNIT($,.STERADIAN.)
SOLID_ANGLE_UNIT()
NAMED_UNIT(*)
);
#449=(
PLANE_ANGLE_UNIT()
NAMED_UNIT(*)
SI_UNIT($,.RADIAN.)
);
#450=(
PLANE_ANGLE_UNIT()
NAMED_UNIT(*)
SI_UNIT($,.RADIAN.)
);
#451=(
PLANE_ANGLE_UNIT()
NAMED_UNIT(*)
SI_UNIT($,.RADIAN.)
);
#452=(
LENGTH_UNIT()
NAMED_UNIT(*)
SI_UNIT(.MILLI.,.METRE.)
);
#453=(
LENGTH_UNIT()
NAMED_UNIT(*)
SI_UNIT(.MILLI.,.METRE.)
);
#454=(
LENGTH_UNIT()
NAMED_UNIT(*)
SI_UNIT(.MILLI.,.METRE.)
);
ENDSEC;
END-ISO-10303-21;
