ISO-10303-21;
HEADER;
FILE_DESCRIPTION(('CATIA V5 STEP Exchange'),'2;1');

FILE_NAME('C:\\Users\\quent\\OneDrive\\Documents\\Pangolin CAO\\Galet.stp','2020-02-12T12:16:58+00:00',('none'),('none'),'CATIA Version 5 Release 20 GA (IN-10)','CATIA V5 STEP AP203','none');

FILE_SCHEMA(('CONFIG_CONTROL_DESIGN'));

ENDSEC;
/* file written by CATIA V5R20 */
DATA;
#5=PRODUCT('Galet','','',(#2)) ;
#1=APPLICATION_CONTEXT('configuration controlled 3D design of mechanical parts and assemblies') ;
#14=PRODUCT_DEFINITION('',' ',#6,#3) ;
#16=SECURITY_CLASSIFICATION(' ',' ',#15) ;
#15=SECURITY_CLASSIFICATION_LEVEL('unclassified') ;
#47=CARTESIAN_POINT(' ',(0.,0.,0.)) ;
#52=CARTESIAN_POINT('Axis2P3D Location',(0.,0.,0.)) ;
#57=CARTESIAN_POINT('Axis2P3D Location',(34.9980643181,-64.063527018,0.)) ;
#61=CARTESIAN_POINT('Vertex',(33.5597877023,-61.4307793323,-7.95298686029)) ;
#63=CARTESIAN_POINT('Vertex',(33.5597877023,-61.4307793323,7.95298686029)) ;
#66=CARTESIAN_POINT('Axis2P3D Location',(0.,0.,7.95298686029)) ;
#70=CARTESIAN_POINT('Vertex',(-33.5597877023,61.4307793323,7.95298686029)) ;
#73=CARTESIAN_POINT('Axis2P3D Location',(-34.9980643181,64.063527018,0.)) ;
#77=CARTESIAN_POINT('Vertex',(-33.5597877023,61.4307793323,-7.95298686029)) ;
#80=CARTESIAN_POINT('Axis2P3D Location',(0.,0.,-7.95298686029)) ;
#92=CARTESIAN_POINT('Axis2P3D Location',(0.,0.,7.95298686029)) ;
#97=CARTESIAN_POINT('Axis2P3D Location',(0.,0.,-7.95298686029)) ;
#109=CARTESIAN_POINT('Axis2P3D Location',(0.,70.,7.95298686029)) ;
#118=CARTESIAN_POINT('Axis2P3D Location',(0.,0.,7.95298686029)) ;
#122=CARTESIAN_POINT('Vertex',(-1.44222051019,2.4,7.95298686029)) ;
#124=CARTESIAN_POINT('Vertex',(1.44222051019,2.4,7.95298686029)) ;
#127=CARTESIAN_POINT('Line Origine',(0.,2.4,7.95298686029)) ;
#137=CARTESIAN_POINT('Axis2P3D Location',(0.,3.30202686987E-015,-7.95298686029)) ;
#146=CARTESIAN_POINT('Line Origine',(0.,2.4,-7.95298686029)) ;
#150=CARTESIAN_POINT('Vertex',(-1.44222051019,2.4,-7.95298686029)) ;
#152=CARTESIAN_POINT('Vertex',(1.44222051019,2.4,-7.95298686029)) ;
#155=CARTESIAN_POINT('Axis2P3D Location',(-1.11022302463E-016,3.87691430224E-016,-7.95298686029)) ;
#165=CARTESIAN_POINT('Axis2P3D Location',(0.,0.,-7.04701313971)) ;
#170=CARTESIAN_POINT('Line Origine',(-1.44222051019,2.4,-7.04701313971)) ;
#175=CARTESIAN_POINT('Line Origine',(1.44222051019,2.4,-7.04701313971)) ;
#187=CARTESIAN_POINT('Axis2P3D Location',(-1.44222051019,2.4,7.95298686029)) ;
#53=DIRECTION('Axis2P3D Direction',(0.,0.,1.)) ;
#54=DIRECTION('Axis2P3D XDirection',(-0.479425538604,0.87758256189,0.)) ;
#58=DIRECTION('Axis2P3D Direction',(-0.87758256189,-0.479425538604,0.)) ;
#67=DIRECTION('Axis2P3D Direction',(0.,0.,1.)) ;
#74=DIRECTION('Axis2P3D Direction',(0.87758256189,0.479425538604,-0.)) ;
#81=DIRECTION('Axis2P3D Direction',(0.,0.,1.)) ;
#93=DIRECTION('Axis2P3D Direction',(0.,0.,1.)) ;
#98=DIRECTION('Axis2P3D Direction',(0.,0.,1.)) ;
#110=DIRECTION('Axis2P3D Direction',(0.,0.,1.)) ;
#111=DIRECTION('Axis2P3D XDirection',(1.,0.,0.)) ;
#119=DIRECTION('Axis2P3D Direction',(0.,0.,1.)) ;
#128=DIRECTION('Vector Direction',(1.,0.,0.)) ;
#138=DIRECTION('Axis2P3D Direction',(0.,0.,1.)) ;
#139=DIRECTION('Axis2P3D XDirection',(1.,0.,0.)) ;
#147=DIRECTION('Vector Direction',(1.,0.,0.)) ;
#156=DIRECTION('Axis2P3D Direction',(0.,0.,1.)) ;
#166=DIRECTION('Axis2P3D Direction',(0.,0.,1.)) ;
#167=DIRECTION('Axis2P3D XDirection',(-0.515078753638,0.857142857143,0.)) ;
#171=DIRECTION('Vector Direction',(0.,0.,1.)) ;
#176=DIRECTION('Vector Direction',(0.,0.,1.)) ;
#188=DIRECTION('Axis2P3D Direction',(-0.,1.,0.)) ;
#189=DIRECTION('Axis2P3D XDirection',(1.,0.,0.)) ;
#48=AXIS2_PLACEMENT_3D(' ',#47,$,$) ;
#55=AXIS2_PLACEMENT_3D('Torus Axis2P3D',#52,#53,#54) ;
#59=AXIS2_PLACEMENT_3D('Circle Axis2P3D',#57,#58,$) ;
#68=AXIS2_PLACEMENT_3D('Circle Axis2P3D',#66,#67,$) ;
#75=AXIS2_PLACEMENT_3D('Circle Axis2P3D',#73,#74,$) ;
#82=AXIS2_PLACEMENT_3D('Circle Axis2P3D',#80,#81,$) ;
#94=AXIS2_PLACEMENT_3D('Circle Axis2P3D',#92,#93,$) ;
#99=AXIS2_PLACEMENT_3D('Circle Axis2P3D',#97,#98,$) ;
#112=AXIS2_PLACEMENT_3D('Plane Axis2P3D',#109,#110,#111) ;
#120=AXIS2_PLACEMENT_3D('Circle Axis2P3D',#118,#119,$) ;
#140=AXIS2_PLACEMENT_3D('Plane Axis2P3D',#137,#138,#139) ;
#157=AXIS2_PLACEMENT_3D('Circle Axis2P3D',#155,#156,$) ;
#168=AXIS2_PLACEMENT_3D('Cylinder Axis2P3D',#165,#166,#167) ;
#190=AXIS2_PLACEMENT_3D('Plane Axis2P3D',#187,#188,#189) ;
#40=PRODUCT_DEFINITION_SHAPE(' ',' ',#14) ;
#31=APPROVAL_PERSON_ORGANIZATION(#25,#21,#19) ;
#25=PERSON_AND_ORGANIZATION(#22,#23) ;
#22=PERSON(' ',' ',' ',$,$,$) ;
#23=ORGANIZATION(' ',' ',' ') ;
#21=APPROVAL(#20,' ') ;
#20=APPROVAL_STATUS('not_yet_approved') ;
#19=APPROVAL_ROLE('APPROVER') ;
#13=DATE_AND_TIME(#11,#12) ;
#12=LOCAL_TIME(13,16,58.,#10) ;
#10=COORDINATED_UNIVERSAL_TIME_OFFSET(0,0,.AHEAD.) ;
#86=ORIENTED_EDGE('',*,*,#65,.T.) ;
#87=ORIENTED_EDGE('',*,*,#72,.F.) ;
#88=ORIENTED_EDGE('',*,*,#79,.F.) ;
#89=ORIENTED_EDGE('',*,*,#84,.T.) ;
#103=ORIENTED_EDGE('',*,*,#79,.T.) ;
#104=ORIENTED_EDGE('',*,*,#96,.F.) ;
#105=ORIENTED_EDGE('',*,*,#65,.F.) ;
#106=ORIENTED_EDGE('',*,*,#101,.T.) ;
#115=ORIENTED_EDGE('',*,*,#96,.T.) ;
#116=ORIENTED_EDGE('',*,*,#72,.T.) ;
#133=ORIENTED_EDGE('',*,*,#126,.F.) ;
#134=ORIENTED_EDGE('',*,*,#131,.F.) ;
#143=ORIENTED_EDGE('',*,*,#101,.F.) ;
#144=ORIENTED_EDGE('',*,*,#84,.F.) ;
#161=ORIENTED_EDGE('',*,*,#154,.F.) ;
#162=ORIENTED_EDGE('',*,*,#159,.T.) ;
#181=ORIENTED_EDGE('',*,*,#159,.F.) ;
#182=ORIENTED_EDGE('',*,*,#174,.F.) ;
#183=ORIENTED_EDGE('',*,*,#126,.T.) ;
#184=ORIENTED_EDGE('',*,*,#179,.T.) ;
#193=ORIENTED_EDGE('',*,*,#154,.T.) ;
#194=ORIENTED_EDGE('',*,*,#179,.F.) ;
#195=ORIENTED_EDGE('',*,*,#131,.T.) ;
#196=ORIENTED_EDGE('',*,*,#174,.T.) ;
#135=FACE_BOUND('',#132,.T.) ;
#163=FACE_BOUND('',#160,.T.) ;
#51=CLOSED_SHELL('Closed Shell',(#91,#108,#136,#164,#186,#198)) ;
#129=VECTOR('Line Direction',#128,1.) ;
#148=VECTOR('Line Direction',#147,1.) ;
#172=VECTOR('Line Direction',#171,1.) ;
#177=VECTOR('Line Direction',#176,1.) ;
#200=ADVANCED_BREP_SHAPE_REPRESENTATION('NONE',(#199),#46) ;
#49=SHAPE_REPRESENTATION(' ',(#48),#46) ;
#91=ADVANCED_FACE('Corps principal',(#90),#56,.F.) ;
#108=ADVANCED_FACE('Corps principal',(#107),#56,.F.) ;
#136=ADVANCED_FACE('Corps principal',(#117,#135),#113,.T.) ;
#164=ADVANCED_FACE('Corps principal',(#145,#163),#141,.F.) ;
#186=ADVANCED_FACE('Corps principal',(#185),#169,.F.) ;
#198=ADVANCED_FACE('Corps principal',(#197),#191,.F.) ;
#4=APPLICATION_PROTOCOL_DEFINITION('international standard','config_control_design',1994,#1) ;
#32=APPROVAL_DATE_TIME(#13,#21) ;
#199=MANIFOLD_SOLID_BREP('Corps principal',#51) ;
#11=CALENDAR_DATE(2020,12,2) ;
#30=CC_DESIGN_APPROVAL(#21,(#16,#6,#14)) ;
#18=CC_DESIGN_DATE_AND_TIME_ASSIGNMENT(#13,#17,(#16)) ;
#29=CC_DESIGN_DATE_AND_TIME_ASSIGNMENT(#13,#28,(#14)) ;
#17=DATE_TIME_ROLE('classification_date') ;
#28=DATE_TIME_ROLE('creation_date') ;
#27=CC_DESIGN_PERSON_AND_ORGANIZATION_ASSIGNMENT(#25,#26,(#16)) ;
#33=CC_DESIGN_PERSON_AND_ORGANIZATION_ASSIGNMENT(#25,#34,(#6)) ;
#35=CC_DESIGN_PERSON_AND_ORGANIZATION_ASSIGNMENT(#25,#36,(#6,#14)) ;
#37=CC_DESIGN_PERSON_AND_ORGANIZATION_ASSIGNMENT(#25,#38,(#5)) ;
#26=PERSON_AND_ORGANIZATION_ROLE('classification_officer') ;
#34=PERSON_AND_ORGANIZATION_ROLE('design_supplier') ;
#36=PERSON_AND_ORGANIZATION_ROLE('creator') ;
#38=PERSON_AND_ORGANIZATION_ROLE('design_owner') ;
#39=CC_DESIGN_SECURITY_CLASSIFICATION(#16,(#6)) ;
#60=CIRCLE('generated circle',#59,8.5) ;
#69=CIRCLE('generated circle',#68,70.) ;
#76=CIRCLE('generated circle',#75,8.5) ;
#83=CIRCLE('generated circle',#82,70.) ;
#95=CIRCLE('generated circle',#94,70.) ;
#100=CIRCLE('generated circle',#99,70.) ;
#121=CIRCLE('generated circle',#120,2.8) ;
#158=CIRCLE('generated circle',#157,2.8) ;
#201=SHAPE_REPRESENTATION_RELATIONSHIP(' ',' ',#49,#200) ;
#169=CYLINDRICAL_SURFACE('generated cylinder',#168,2.8) ;
#56=TOROIDAL_SURFACE('homeo Torus',#55,73.,8.5) ;
#3=DESIGN_CONTEXT(' ',#1,'design') ;
#65=EDGE_CURVE('',#62,#64,#60,.F.) ;
#72=EDGE_CURVE('',#71,#64,#69,.T.) ;
#79=EDGE_CURVE('',#78,#71,#76,.F.) ;
#84=EDGE_CURVE('',#78,#62,#83,.T.) ;
#96=EDGE_CURVE('',#64,#71,#95,.T.) ;
#101=EDGE_CURVE('',#62,#78,#100,.T.) ;
#126=EDGE_CURVE('',#123,#125,#121,.T.) ;
#131=EDGE_CURVE('',#125,#123,#130,.F.) ;
#154=EDGE_CURVE('',#151,#153,#149,.T.) ;
#159=EDGE_CURVE('',#151,#153,#158,.T.) ;
#174=EDGE_CURVE('',#123,#151,#173,.F.) ;
#179=EDGE_CURVE('',#125,#153,#178,.F.) ;
#85=EDGE_LOOP('',(#86,#87,#88,#89)) ;
#102=EDGE_LOOP('',(#103,#104,#105,#106)) ;
#114=EDGE_LOOP('',(#115,#116)) ;
#132=EDGE_LOOP('',(#133,#134)) ;
#142=EDGE_LOOP('',(#143,#144)) ;
#160=EDGE_LOOP('',(#161,#162)) ;
#180=EDGE_LOOP('',(#181,#182,#183,#184)) ;
#192=EDGE_LOOP('',(#193,#194,#195,#196)) ;
#90=FACE_OUTER_BOUND('',#85,.T.) ;
#107=FACE_OUTER_BOUND('',#102,.T.) ;
#117=FACE_OUTER_BOUND('',#114,.T.) ;
#145=FACE_OUTER_BOUND('',#142,.T.) ;
#185=FACE_OUTER_BOUND('',#180,.T.) ;
#197=FACE_OUTER_BOUND('',#192,.T.) ;
#45=UNCERTAINTY_MEASURE_WITH_UNIT(LENGTH_MEASURE(0.005),#41,'distance_accuracy_value','CONFUSED CURVE UNCERTAINTY') ;
#130=LINE('Line',#127,#129) ;
#149=LINE('Line',#146,#148) ;
#173=LINE('Line',#170,#172) ;
#178=LINE('Line',#175,#177) ;
#2=MECHANICAL_CONTEXT(' ',#1,'mechanical') ;
#24=PERSONAL_ADDRESS(' ',' ',' ',' ',' ',' ',' ',' ',' ',' ',' ',' ',(#22),' ') ;
#113=PLANE('Plane',#112) ;
#141=PLANE('Plane',#140) ;
#191=PLANE('Plane',#190) ;
#43=PLANE_ANGLE_MEASURE_WITH_UNIT(PLANE_ANGLE_MEASURE(0.0174532925199),#42) ;
#7=PRODUCT_CATEGORY('part',$) ;
#9=PRODUCT_CATEGORY_RELATIONSHIP(' ',' ',#7,#8) ;
#6=PRODUCT_DEFINITION_FORMATION_WITH_SPECIFIED_SOURCE('',' ',#5,.NOT_KNOWN.) ;
#8=PRODUCT_RELATED_PRODUCT_CATEGORY('detail',$,(#5)) ;
#50=SHAPE_DEFINITION_REPRESENTATION(#40,#49) ;
#62=VERTEX_POINT('',#61) ;
#64=VERTEX_POINT('',#63) ;
#71=VERTEX_POINT('',#70) ;
#78=VERTEX_POINT('',#77) ;
#123=VERTEX_POINT('',#122) ;
#125=VERTEX_POINT('',#124) ;
#151=VERTEX_POINT('',#150) ;
#153=VERTEX_POINT('',#152) ;
#41=(LENGTH_UNIT()NAMED_UNIT(*)SI_UNIT(.MILLI.,.METRE.)) ;
#42=(NAMED_UNIT(*)PLANE_ANGLE_UNIT()SI_UNIT($,.RADIAN.)) ;
#44=(NAMED_UNIT(*)SI_UNIT($,.STERADIAN.)SOLID_ANGLE_UNIT()) ;
#46=(GEOMETRIC_REPRESENTATION_CONTEXT(3)GLOBAL_UNCERTAINTY_ASSIGNED_CONTEXT((#45))GLOBAL_UNIT_ASSIGNED_CONTEXT((#41,#42,#44))REPRESENTATION_CONTEXT(' ',' ')) ;
ENDSEC;
END-ISO-10303-21;
