  0
SECTION
  2
HEADER
  9
$MEASUREMENT
  70
  1
  9
$INSUNITS
  70
  4
  0
ENDSEC
  0
SECTION
  2
TABLES
  0
TABLE
  2
LTYPE
 70
     1
  0
LTYPE
  2
CONTINUOUS
 70
    64
  3
Ausgezogene Linie
 72
    65
 73
     0
 40
0.0
  0
ENDTAB
  0
TABLE
  2
LAYER
 70
     3
  0
LAYER
  2
Contour
 70
    64
 62
     7
  6
CONTINUOUS
  0
LAYER
  2
Gravure
 70
    64
 62
     7
  6
CONTINUOUS
  0
LAYER
  2
Points de référence
 70
    64
 62
     1
  6
CONTINUOUS
  0
ENDTAB
  0
TABLE
  2
STYLE
 70
     1
  0
STYLE
  2
TXT
 70
    64
 40
0.0
 41
1.0
 50
0.0
 71
     0
 42
3.500000
  3
TXT
  0
ENDTAB
  0
ENDSEC
  0
SECTION
  2
BLOCKS
  0
ENDSEC
  0
SECTION
  2
ENTITIES
  0
LINE
  8
Contour
 62
   7
 39
0.100
  6
CONTINUOUS
 10
609.00000
 20
124.00000
 30
 0
 11
609.00000
 21
0.00000
  0
LINE
  8
Contour
 62
   7
 39
0.100
  6
CONTINUOUS
 10
609.00000
 20
0.00000
 30
 0
 11
0.00000
 21
0.00000
  0
LINE
  8
Contour
 62
   7
 39
0.100
  6
CONTINUOUS
 10
0.00000
 20
0.00000
 30
 0
 11
0.00000
 21
124.00000
  0
LINE
  8
Contour
 62
   7
 39
0.100
  6
CONTINUOUS
 10
0.00000
 20
124.00000
 30
 0
 11
609.00000
 21
124.00000
  0
LINE
  8
Gravure
 62
   255
 39
0.200
  6
CONTINUOUS
 10
432.05134
 20
35.22000
 30
 0
 11
433.12062
 21
35.22000
  0
LINE
  8
Gravure
 62
   255
 39
0.200
  6
CONTINUOUS
 10
433.33447
 20
36.17000
 30
 0
 11
432.05134
 21
36.17000
  0
LINE
  8
Gravure
 62
   255
 39
0.200
  6
CONTINUOUS
 10
432.05134
 20
36.17000
 30
 0
 11
432.05134
 21
34.27000
  0
LINE
  8
Gravure
 62
   255
 39
0.200
  6
CONTINUOUS
 10
434.06124
 20
34.79778
 30
 0
 11
435.13052
 21
34.79778
  0
LINE
  8
Gravure
 62
   255
 39
0.200
  6
CONTINUOUS
 10
433.84739
 20
34.27000
 30
 0
 11
434.59588
 21
36.17000
  0
LINE
  8
Gravure
 62
   255
 39
0.200
  6
CONTINUOUS
 10
434.59588
 20
36.17000
 30
 0
 11
435.34438
 21
34.27000
  0
LINE
  8
Gravure
 62
   255
 39
0.200
  6
CONTINUOUS
 10
435.85718
 20
36.17000
 30
 0
 11
436.52013
 21
36.17000
  0
LINE
  8
Gravure
 62
   255
 39
0.200
  6
CONTINUOUS
 10
436.52013
 20
36.17000
 30
 0
 11
436.62865
 21
36.15670
  0
LINE
  8
Gravure
 62
   255
 39
0.200
  6
CONTINUOUS
 10
436.62865
 20
36.15670
 30
 0
 11
436.73334
 21
36.12551
  0
LINE
  8
Gravure
 62
   255
 39
0.200
  6
CONTINUOUS
 10
436.73334
 20
36.12551
 30
 0
 11
436.83118
 21
36.07730
  0
LINE
  8
Gravure
 62
   255
 39
0.200
  6
CONTINUOUS
 10
436.83118
 20
36.07730
 30
 0
 11
436.91937
 21
36.01347
  0
LINE
  8
Gravure
 62
   255
 39
0.200
  6
CONTINUOUS
 10
436.91937
 20
36.01347
 30
 0
 11
436.99537
 21
35.93586
  0
LINE
  8
Gravure
 62
   255
 39
0.200
  6
CONTINUOUS
 10
436.99537
 20
35.93586
 30
 0
 11
437.05700
 21
35.84669
  0
LINE
  8
Gravure
 62
   255
 39
0.200
  6
CONTINUOUS
 10
437.05700
 20
35.84669
 30
 0
 11
437.10249
 21
35.74852
  0
LINE
  8
Gravure
 62
   255
 39
0.200
  6
CONTINUOUS
 10
437.10249
 20
35.74852
 30
 0
 11
437.13053
 21
35.64418
  0
LINE
  8
Gravure
 62
   255
 39
0.200
  6
CONTINUOUS
 10
437.13053
 20
35.64418
 30
 0
 11
437.14031
 21
35.53667
  0
LINE
  8
Gravure
 62
   255
 39
0.200
  6
CONTINUOUS
 10
437.14031
 20
35.53667
 30
 0
 11
437.14031
 21
34.90333
  0
LINE
  8
Gravure
 62
   255
 39
0.200
  6
CONTINUOUS
 10
437.14031
 20
34.90333
 30
 0
 11
437.13438
 21
34.79436
  0
LINE
  8
Gravure
 62
   255
 39
0.200
  6
CONTINUOUS
 10
437.13438
 20
34.79436
 30
 0
 11
437.10892
 21
34.68817
  0
LINE
  8
Gravure
 62
   255
 39
0.200
  6
CONTINUOUS
 10
437.10892
 20
34.68817
 30
 0
 11
437.06474
 21
34.58813
  0
LINE
  8
Gravure
 62
   255
 39
0.200
  6
CONTINUOUS
 10
437.06474
 20
34.58813
 30
 0
 11
437.00326
 21
34.49744
  0
LINE
  8
Gravure
 62
   255
 39
0.200
  6
CONTINUOUS
 10
437.00326
 20
34.49744
 30
 0
 11
436.92642
 21
34.41897
  0
LINE
  8
Gravure
 62
   255
 39
0.200
  6
CONTINUOUS
 10
436.92642
 20
34.41897
 30
 0
 11
436.83669
 21
34.35524
  0
LINE
  8
Gravure
 62
   255
 39
0.200
  6
CONTINUOUS
 10
436.83669
 20
34.35524
 30
 0
 11
436.73691
 21
34.30827
  0
LINE
  8
Gravure
 62
   255
 39
0.200
  6
CONTINUOUS
 10
436.73691
 20
34.30827
 30
 0
 11
436.63025
 21
34.27955
  0
LINE
  8
Gravure
 62
   255
 39
0.200
  6
CONTINUOUS
 10
436.63025
 20
34.27955
 30
 0
 11
436.52013
 21
34.27000
  0
LINE
  8
Gravure
 62
   255
 39
0.200
  6
CONTINUOUS
 10
436.52013
 20
34.27000
 30
 0
 11
435.85718
 21
34.27000
  0
LINE
  8
Gravure
 62
   255
 39
0.200
  6
CONTINUOUS
 10
435.85718
 20
34.27000
 30
 0
 11
435.85718
 21
36.17000
  0
LINE
  8
Gravure
 62
   255
 39
0.200
  6
CONTINUOUS
 10
437.65323
 20
35.21900
 30
 0
 11
438.72251
 21
35.21900
  0
LINE
  8
Gravure
 62
   255
 39
0.200
  6
CONTINUOUS
 10
438.93636
 20
36.16900
 30
 0
 11
437.65323
 21
36.16900
  0
LINE
  8
Gravure
 62
   255
 39
0.200
  6
CONTINUOUS
 10
437.65323
 20
36.16900
 30
 0
 11
437.65323
 21
34.26900
  0
LINE
  8
Gravure
 62
   255
 39
0.200
  6
CONTINUOUS
 10
437.65323
 20
34.26900
 30
 0
 11
438.93636
 21
34.26900
  0
LINE
  8
Gravure
 62
   255
 39
0.200
  6
CONTINUOUS
 10
439.44928
 20
34.26900
 30
 0
 11
439.44928
 21
36.16900
  0
LINE
  8
Gravure
 62
   255
 39
0.200
  6
CONTINUOUS
 10
439.44928
 20
36.16900
 30
 0
 11
440.15500
 21
36.16900
  0
LINE
  8
Gravure
 62
   255
 39
0.200
  6
CONTINUOUS
 10
440.15500
 20
36.16900
 30
 0
 11
440.24887
 21
36.15987
  0
LINE
  8
Gravure
 62
   255
 39
0.200
  6
CONTINUOUS
 10
440.24887
 20
36.15987
 30
 0
 11
440.33914
 21
36.13284
  0
LINE
  8
Gravure
 62
   255
 39
0.200
  6
CONTINUOUS
 10
440.33914
 20
36.13284
 30
 0
 11
440.42233
 21
36.08895
  0
LINE
  8
Gravure
 62
   255
 39
0.200
  6
CONTINUOUS
 10
440.42233
 20
36.08895
 30
 0
 11
440.49524
 21
36.02988
  0
LINE
  8
Gravure
 62
   255
 39
0.200
  6
CONTINUOUS
 10
440.49524
 20
36.02988
 30
 0
 11
440.55508
 21
35.95790
  0
LINE
  8
Gravure
 62
   255
 39
0.200
  6
CONTINUOUS
 10
440.55508
 20
35.95790
 30
 0
 11
440.59955
 21
35.87577
  0
LINE
  8
Gravure
 62
   255
 39
0.200
  6
CONTINUOUS
 10
440.59955
 20
35.87577
 30
 0
 11
440.62693
 21
35.78667
  0
LINE
  8
Gravure
 62
   255
 39
0.200
  6
CONTINUOUS
 10
440.62693
 20
35.78667
 30
 0
 11
440.63617
 21
35.69400
  0
LINE
  8
Gravure
 62
   255
 39
0.200
  6
CONTINUOUS
 10
440.63617
 20
35.69400
 30
 0
 11
440.62693
 21
35.60133
  0
LINE
  8
Gravure
 62
   255
 39
0.200
  6
CONTINUOUS
 10
440.62693
 20
35.60133
 30
 0
 11
440.59955
 21
35.51223
  0
LINE
  8
Gravure
 62
   255
 39
0.200
  6
CONTINUOUS
 10
440.59955
 20
35.51223
 30
 0
 11
440.55508
 21
35.43010
  0
LINE
  8
Gravure
 62
   255
 39
0.200
  6
CONTINUOUS
 10
440.55508
 20
35.43010
 30
 0
 11
440.49524
 21
35.35812
  0
LINE
  8
Gravure
 62
   255
 39
0.200
  6
CONTINUOUS
 10
440.49524
 20
35.35812
 30
 0
 11
440.42233
 21
35.29905
  0
LINE
  8
Gravure
 62
   255
 39
0.200
  6
CONTINUOUS
 10
440.42233
 20
35.29905
 30
 0
 11
440.33914
 21
35.25516
  0
LINE
  8
Gravure
 62
   255
 39
0.200
  6
CONTINUOUS
 10
440.33914
 20
35.25516
 30
 0
 11
440.24887
 21
35.22813
  0
LINE
  8
Gravure
 62
   255
 39
0.200
  6
CONTINUOUS
 10
440.24887
 20
35.22813
 30
 0
 11
440.15500
 21
35.21900
  0
LINE
  8
Gravure
 62
   255
 39
0.200
  6
CONTINUOUS
 10
440.15500
 20
35.21900
 30
 0
 11
439.44928
 21
35.21900
  0
LINE
  8
Gravure
 62
   255
 39
0.200
  6
CONTINUOUS
 10
439.44928
 20
35.21900
 30
 0
 11
440.19777
 21
35.21900
  0
LINE
  8
Gravure
 62
   255
 39
0.200
  6
CONTINUOUS
 10
440.19777
 20
35.21900
 30
 0
 11
440.62548
 21
34.26900
  0
LINE
  8
Gravure
 62
   255
 39
0.200
  6
CONTINUOUS
 10
442.48524
 20
34.90233
 30
 0
 11
442.49457
 21
34.79114
  0
LINE
  8
Gravure
 62
   255
 39
0.200
  6
CONTINUOUS
 10
442.49457
 20
34.79114
 30
 0
 11
442.52232
 21
34.68298
  0
LINE
  8
Gravure
 62
   255
 39
0.200
  6
CONTINUOUS
 10
442.52232
 20
34.68298
 30
 0
 11
442.56772
 21
34.58080
  0
LINE
  8
Gravure
 62
   255
 39
0.200
  6
CONTINUOUS
 10
442.56772
 20
34.58080
 30
 0
 11
442.62954
 21
34.48740
  0
LINE
  8
Gravure
 62
   255
 39
0.200
  6
CONTINUOUS
 10
442.62954
 20
34.48740
 30
 0
 11
442.70609
 21
34.40531
  0
LINE
  8
Gravure
 62
   255
 39
0.200
  6
CONTINUOUS
 10
442.70609
 20
34.40531
 30
 0
 11
442.79528
 21
34.33678
  0
LINE
  8
Gravure
 62
   255
 39
0.200
  6
CONTINUOUS
 10
442.79528
 20
34.33678
 30
 0
 11
442.89468
 21
34.28368
  0
LINE
  8
Gravure
 62
   255
 39
0.200
  6
CONTINUOUS
 10
442.89468
 20
34.28368
 30
 0
 11
443.00158
 21
34.24745
  0
LINE
  8
Gravure
 62
   255
 39
0.200
  6
CONTINUOUS
 10
443.00158
 20
34.24745
 30
 0
 11
443.11306
 21
34.22909
  0
LINE
  8
Gravure
 62
   255
 39
0.200
  6
CONTINUOUS
 10
443.11306
 20
34.22909
 30
 0
 11
443.22609
 21
34.22909
  0
LINE
  8
Gravure
 62
   255
 39
0.200
  6
CONTINUOUS
 10
443.22609
 20
34.22909
 30
 0
 11
443.33757
 21
34.24745
  0
LINE
  8
Gravure
 62
   255
 39
0.200
  6
CONTINUOUS
 10
443.33757
 20
34.24745
 30
 0
 11
443.44447
 21
34.28368
  0
LINE
  8
Gravure
 62
   255
 39
0.200
  6
CONTINUOUS
 10
443.44447
 20
34.28368
 30
 0
 11
443.54387
 21
34.33678
  0
LINE
  8
Gravure
 62
   255
 39
0.200
  6
CONTINUOUS
 10
443.54387
 20
34.33678
 30
 0
 11
443.63306
 21
34.40531
  0
LINE
  8
Gravure
 62
   255
 39
0.200
  6
CONTINUOUS
 10
443.63306
 20
34.40531
 30
 0
 11
443.70961
 21
34.48740
  0
LINE
  8
Gravure
 62
   255
 39
0.200
  6
CONTINUOUS
 10
443.70961
 20
34.48740
 30
 0
 11
443.77143
 21
34.58080
  0
LINE
  8
Gravure
 62
   255
 39
0.200
  6
CONTINUOUS
 10
443.77143
 20
34.58080
 30
 0
 11
443.81683
 21
34.68298
  0
LINE
  8
Gravure
 62
   255
 39
0.200
  6
CONTINUOUS
 10
443.81683
 20
34.68298
 30
 0
 11
443.84458
 21
34.79114
  0
LINE
  8
Gravure
 62
   255
 39
0.200
  6
CONTINUOUS
 10
443.84458
 20
34.79114
 30
 0
 11
443.85391
 21
34.90233
  0
LINE
  8
Gravure
 62
   255
 39
0.200
  6
CONTINUOUS
 10
443.85391
 20
34.90233
 30
 0
 11
443.85391
 21
35.53567
  0
LINE
  8
Gravure
 62
   255
 39
0.200
  6
CONTINUOUS
 10
443.85391
 20
35.53567
 30
 0
 11
443.84458
 21
35.64686
  0
LINE
  8
Gravure
 62
   255
 39
0.200
  6
CONTINUOUS
 10
443.84458
 20
35.64686
 30
 0
 11
443.81683
 21
35.75502
  0
LINE
  8
Gravure
 62
   255
 39
0.200
  6
CONTINUOUS
 10
443.81683
 20
35.75502
 30
 0
 11
443.77143
 21
35.85720
  0
LINE
  8
Gravure
 62
   255
 39
0.200
  6
CONTINUOUS
 10
443.77143
 20
35.85720
 30
 0
 11
443.70961
 21
35.95060
  0
LINE
  8
Gravure
 62
   255
 39
0.200
  6
CONTINUOUS
 10
443.70961
 20
35.95060
 30
 0
 11
443.63306
 21
36.03269
  0
LINE
  8
Gravure
 62
   255
 39
0.200
  6
CONTINUOUS
 10
443.63306
 20
36.03269
 30
 0
 11
443.54387
 21
36.10122
  0
LINE
  8
Gravure
 62
   255
 39
0.200
  6
CONTINUOUS
 10
443.54387
 20
36.10122
 30
 0
 11
443.44447
 21
36.15432
  0
LINE
  8
Gravure
 62
   255
 39
0.200
  6
CONTINUOUS
 10
443.44447
 20
36.15432
 30
 0
 11
443.33757
 21
36.19055
  0
LINE
  8
Gravure
 62
   255
 39
0.200
  6
CONTINUOUS
 10
443.33757
 20
36.19055
 30
 0
 11
443.22609
 21
36.20891
  0
LINE
  8
Gravure
 62
   255
 39
0.200
  6
CONTINUOUS
 10
443.22609
 20
36.20891
 30
 0
 11
443.11306
 21
36.20891
  0
LINE
  8
Gravure
 62
   255
 39
0.200
  6
CONTINUOUS
 10
443.11306
 20
36.20891
 30
 0
 11
443.00158
 21
36.19055
  0
LINE
  8
Gravure
 62
   255
 39
0.200
  6
CONTINUOUS
 10
443.00158
 20
36.19055
 30
 0
 11
442.89468
 21
36.15432
  0
LINE
  8
Gravure
 62
   255
 39
0.200
  6
CONTINUOUS
 10
442.89468
 20
36.15432
 30
 0
 11
442.79528
 21
36.10122
  0
LINE
  8
Gravure
 62
   255
 39
0.200
  6
CONTINUOUS
 10
442.79528
 20
36.10122
 30
 0
 11
442.70609
 21
36.03269
  0
LINE
  8
Gravure
 62
   255
 39
0.200
  6
CONTINUOUS
 10
442.70609
 20
36.03269
 30
 0
 11
442.62954
 21
35.95060
  0
LINE
  8
Gravure
 62
   255
 39
0.200
  6
CONTINUOUS
 10
442.62954
 20
35.95060
 30
 0
 11
442.56772
 21
35.85720
  0
LINE
  8
Gravure
 62
   255
 39
0.200
  6
CONTINUOUS
 10
442.56772
 20
35.85720
 30
 0
 11
442.52232
 21
35.75502
  0
LINE
  8
Gravure
 62
   255
 39
0.200
  6
CONTINUOUS
 10
442.52232
 20
35.75502
 30
 0
 11
442.49457
 21
35.64686
  0
LINE
  8
Gravure
 62
   255
 39
0.200
  6
CONTINUOUS
 10
442.49457
 20
35.64686
 30
 0
 11
442.48524
 21
35.53567
  0
LINE
  8
Gravure
 62
   255
 39
0.200
  6
CONTINUOUS
 10
442.48524
 20
35.53567
 30
 0
 11
442.48524
 21
34.90233
  0
LINE
  8
Gravure
 62
   255
 39
0.200
  6
CONTINUOUS
 10
444.36638
 20
35.21900
 30
 0
 11
445.43566
 21
35.21900
  0
LINE
  8
Gravure
 62
   255
 39
0.200
  6
CONTINUOUS
 10
445.64951
 20
36.16900
 30
 0
 11
444.36638
 21
36.16900
  0
LINE
  8
Gravure
 62
   255
 39
0.200
  6
CONTINUOUS
 10
444.36638
 20
36.16900
 30
 0
 11
444.36638
 21
34.26900
  0
LINE
  8
Gravure
 62
   255
 39
0.200
  6
CONTINUOUS
 10
446.16243
 20
35.21900
 30
 0
 11
447.23171
 21
35.21900
  0
LINE
  8
Gravure
 62
   255
 39
0.200
  6
CONTINUOUS
 10
447.44556
 20
36.16900
 30
 0
 11
446.16243
 21
36.16900
  0
LINE
  8
Gravure
 62
   255
 39
0.200
  6
CONTINUOUS
 10
446.16243
 20
36.16900
 30
 0
 11
446.16243
 21
34.26900
  0
LINE
  8
Gravure
 62
   255
 39
0.200
  6
CONTINUOUS
 10
449.32704
 20
34.90233
 30
 0
 11
449.33637
 21
34.79114
  0
LINE
  8
Gravure
 62
   255
 39
0.200
  6
CONTINUOUS
 10
449.33637
 20
34.79114
 30
 0
 11
449.36412
 21
34.68298
  0
LINE
  8
Gravure
 62
   255
 39
0.200
  6
CONTINUOUS
 10
449.36412
 20
34.68298
 30
 0
 11
449.40952
 21
34.58080
  0
LINE
  8
Gravure
 62
   255
 39
0.200
  6
CONTINUOUS
 10
449.40952
 20
34.58080
 30
 0
 11
449.47134
 21
34.48740
  0
LINE
  8
Gravure
 62
   255
 39
0.200
  6
CONTINUOUS
 10
449.47134
 20
34.48740
 30
 0
 11
449.54789
 21
34.40531
  0
LINE
  8
Gravure
 62
   255
 39
0.200
  6
CONTINUOUS
 10
449.54789
 20
34.40531
 30
 0
 11
449.63708
 21
34.33678
  0
LINE
  8
Gravure
 62
   255
 39
0.200
  6
CONTINUOUS
 10
449.63708
 20
34.33678
 30
 0
 11
449.73648
 21
34.28368
  0
LINE
  8
Gravure
 62
   255
 39
0.200
  6
CONTINUOUS
 10
449.73648
 20
34.28368
 30
 0
 11
449.84338
 21
34.24745
  0
LINE
  8
Gravure
 62
   255
 39
0.200
  6
CONTINUOUS
 10
449.84338
 20
34.24745
 30
 0
 11
449.95487
 21
34.22909
  0
LINE
  8
Gravure
 62
   255
 39
0.200
  6
CONTINUOUS
 10
449.95487
 20
34.22909
 30
 0
 11
450.06789
 21
34.22909
  0
LINE
  8
Gravure
 62
   255
 39
0.200
  6
CONTINUOUS
 10
450.06789
 20
34.22909
 30
 0
 11
450.17937
 21
34.24745
  0
LINE
  8
Gravure
 62
   255
 39
0.200
  6
CONTINUOUS
 10
450.17937
 20
34.24745
 30
 0
 11
450.28627
 21
34.28368
  0
LINE
  8
Gravure
 62
   255
 39
0.200
  6
CONTINUOUS
 10
450.28627
 20
34.28368
 30
 0
 11
450.38567
 21
34.33678
  0
LINE
  8
Gravure
 62
   255
 39
0.200
  6
CONTINUOUS
 10
450.38567
 20
34.33678
 30
 0
 11
450.47487
 21
34.40531
  0
LINE
  8
Gravure
 62
   255
 39
0.200
  6
CONTINUOUS
 10
450.47487
 20
34.40531
 30
 0
 11
450.55142
 21
34.48740
  0
LINE
  8
Gravure
 62
   255
 39
0.200
  6
CONTINUOUS
 10
450.55142
 20
34.48740
 30
 0
 11
450.61323
 21
34.58080
  0
LINE
  8
Gravure
 62
   255
 39
0.200
  6
CONTINUOUS
 10
450.61323
 20
34.58080
 30
 0
 11
450.65864
 21
34.68298
  0
LINE
  8
Gravure
 62
   255
 39
0.200
  6
CONTINUOUS
 10
450.65864
 20
34.68298
 30
 0
 11
450.68638
 21
34.79114
  0
LINE
  8
Gravure
 62
   255
 39
0.200
  6
CONTINUOUS
 10
450.68638
 20
34.79114
 30
 0
 11
450.69572
 21
34.90233
  0
LINE
  8
Gravure
 62
   255
 39
0.200
  6
CONTINUOUS
 10
450.69572
 20
34.90233
 30
 0
 11
450.69572
 21
35.53567
  0
LINE
  8
Gravure
 62
   255
 39
0.200
  6
CONTINUOUS
 10
450.69572
 20
35.53567
 30
 0
 11
450.68638
 21
35.64686
  0
LINE
  8
Gravure
 62
   255
 39
0.200
  6
CONTINUOUS
 10
450.68638
 20
35.64686
 30
 0
 11
450.65864
 21
35.75502
  0
LINE
  8
Gravure
 62
   255
 39
0.200
  6
CONTINUOUS
 10
450.65864
 20
35.75502
 30
 0
 11
450.61323
 21
35.85720
  0
LINE
  8
Gravure
 62
   255
 39
0.200
  6
CONTINUOUS
 10
450.61323
 20
35.85720
 30
 0
 11
450.55142
 21
35.95060
  0
LINE
  8
Gravure
 62
   255
 39
0.200
  6
CONTINUOUS
 10
450.55142
 20
35.95060
 30
 0
 11
450.47487
 21
36.03269
  0
LINE
  8
Gravure
 62
   255
 39
0.200
  6
CONTINUOUS
 10
450.47487
 20
36.03269
 30
 0
 11
450.38567
 21
36.10122
  0
LINE
  8
Gravure
 62
   255
 39
0.200
  6
CONTINUOUS
 10
450.38567
 20
36.10122
 30
 0
 11
450.28627
 21
36.15432
  0
LINE
  8
Gravure
 62
   255
 39
0.200
  6
CONTINUOUS
 10
450.28627
 20
36.15432
 30
 0
 11
450.17937
 21
36.19055
  0
LINE
  8
Gravure
 62
   255
 39
0.200
  6
CONTINUOUS
 10
450.17937
 20
36.19055
 30
 0
 11
450.06789
 21
36.20891
  0
LINE
  8
Gravure
 62
   255
 39
0.200
  6
CONTINUOUS
 10
450.06789
 20
36.20891
 30
 0
 11
449.95487
 21
36.20891
  0
LINE
  8
Gravure
 62
   255
 39
0.200
  6
CONTINUOUS
 10
449.95487
 20
36.20891
 30
 0
 11
449.84338
 21
36.19055
  0
LINE
  8
Gravure
 62
   255
 39
0.200
  6
CONTINUOUS
 10
449.84338
 20
36.19055
 30
 0
 11
449.73648
 21
36.15432
  0
LINE
  8
Gravure
 62
   255
 39
0.200
  6
CONTINUOUS
 10
449.73648
 20
36.15432
 30
 0
 11
449.63708
 21
36.10122
  0
LINE
  8
Gravure
 62
   255
 39
0.200
  6
CONTINUOUS
 10
449.63708
 20
36.10122
 30
 0
 11
449.54789
 21
36.03269
  0
LINE
  8
Gravure
 62
   255
 39
0.200
  6
CONTINUOUS
 10
449.54789
 20
36.03269
 30
 0
 11
449.47134
 21
35.95060
  0
LINE
  8
Gravure
 62
   255
 39
0.200
  6
CONTINUOUS
 10
449.47134
 20
35.95060
 30
 0
 11
449.40952
 21
35.85720
  0
LINE
  8
Gravure
 62
   255
 39
0.200
  6
CONTINUOUS
 10
449.40952
 20
35.85720
 30
 0
 11
449.36412
 21
35.75502
  0
LINE
  8
Gravure
 62
   255
 39
0.200
  6
CONTINUOUS
 10
449.36412
 20
35.75502
 30
 0
 11
449.33637
 21
35.64686
  0
LINE
  8
Gravure
 62
   255
 39
0.200
  6
CONTINUOUS
 10
449.33637
 20
35.64686
 30
 0
 11
449.32704
 21
35.53567
  0
LINE
  8
Gravure
 62
   255
 39
0.200
  6
CONTINUOUS
 10
449.32704
 20
35.53567
 30
 0
 11
449.32704
 21
34.90233
  0
LINE
  8
Gravure
 62
   255
 39
0.200
  6
CONTINUOUS
 10
451.20818
 20
34.26900
 30
 0
 11
451.20818
 21
36.16900
  0
LINE
  8
Gravure
 62
   255
 39
0.200
  6
CONTINUOUS
 10
451.20818
 20
36.16900
 30
 0
 11
452.49131
 21
34.26900
  0
LINE
  8
Gravure
 62
   255
 39
0.200
  6
CONTINUOUS
 10
452.49131
 20
34.26900
 30
 0
 11
452.49131
 21
36.16900
  0
LINE
  8
Gravure
 62
   255
 39
0.200
  6
CONTINUOUS
 10
443.75033
 20
69.10000
 30
 0
 11
443.75033
 21
71.00000
  0
LINE
  8
Gravure
 62
   255
 39
0.200
  6
CONTINUOUS
 10
443.75033
 20
71.00000
 30
 0
 11
444.44700
 21
71.00000
  0
ARC
  8
Gravure
 62
   255
 39
0.200
  6
CONTINUOUS
 10
444.44700
 20
70.52500
 30
 0
 40
0.47500
 50
-90.00000
 51
90.00000
  0
LINE
  8
Gravure
 62
   255
 39
0.200
  6
CONTINUOUS
 10
444.44700
 20
70.05000
 30
 0
 11
443.75033
 21
70.05000
  0
LINE
  8
Gravure
 62
   255
 39
0.200
  6
CONTINUOUS
 10
443.75033
 20
70.05000
 30
 0
 11
444.48922
 21
70.05000
  0
LINE
  8
Gravure
 62
   255
 39
0.200
  6
CONTINUOUS
 10
444.48922
 20
70.05000
 30
 0
 11
444.91144
 21
69.10000
  0
LINE
  8
Gravure
 62
   255
 39
0.200
  6
CONTINUOUS
 10
445.39633
 20
70.05000
 30
 0
 11
446.45189
 21
70.05000
  0
LINE
  8
Gravure
 62
   255
 39
0.200
  6
CONTINUOUS
 10
446.66300
 20
71.00000
 30
 0
 11
445.39633
 21
71.00000
  0
LINE
  8
Gravure
 62
   255
 39
0.200
  6
CONTINUOUS
 10
445.39633
 20
71.00000
 30
 0
 11
445.39633
 21
69.10000
  0
LINE
  8
Gravure
 62
   255
 39
0.200
  6
CONTINUOUS
 10
445.39633
 20
69.10000
 30
 0
 11
446.66300
 21
69.10000
  0
LINE
  8
Gravure
 62
   255
 39
0.200
  6
CONTINUOUS
 10
447.16933
 20
71.00000
 30
 0
 11
447.80267
 21
69.10000
  0
LINE
  8
Gravure
 62
   255
 39
0.200
  6
CONTINUOUS
 10
447.80267
 20
69.10000
 30
 0
 11
448.43600
 21
71.00000
  0
LINE
  8
Gravure
 62
   255
 39
0.200
  6
CONTINUOUS
 10
448.94233
 20
69.10000
 30
 0
 11
448.94233
 21
69.20556
  0
LINE
  8
Gravure
 62
   255
 39
0.200
  6
CONTINUOUS
 10
449.44833
 20
70.57678
 30
 0
 11
449.87056
 21
70.99900
  0
LINE
  8
Gravure
 62
   255
 39
0.200
  6
CONTINUOUS
 10
449.87056
 20
70.99900
 30
 0
 11
449.87056
 21
69.09900
  0
LINE
  8
Gravure
 62
   255
 39
0.200
  6
CONTINUOUS
 10
503.75033
 20
69.10000
 30
 0
 11
503.75033
 21
71.00000
  0
LINE
  8
Gravure
 62
   255
 39
0.200
  6
CONTINUOUS
 10
503.75033
 20
71.00000
 30
 0
 11
504.44700
 21
71.00000
  0
ARC
  8
Gravure
 62
   255
 39
0.200
  6
CONTINUOUS
 10
504.44700
 20
70.52500
 30
 0
 40
0.47500
 50
-90.00000
 51
90.00000
  0
LINE
  8
Gravure
 62
   255
 39
0.200
  6
CONTINUOUS
 10
504.44700
 20
70.05000
 30
 0
 11
503.75033
 21
70.05000
  0
LINE
  8
Gravure
 62
   255
 39
0.200
  6
CONTINUOUS
 10
503.75033
 20
70.05000
 30
 0
 11
504.48922
 21
70.05000
  0
LINE
  8
Gravure
 62
   255
 39
0.200
  6
CONTINUOUS
 10
504.48922
 20
70.05000
 30
 0
 11
504.91144
 21
69.10000
  0
LINE
  8
Gravure
 62
   255
 39
0.200
  6
CONTINUOUS
 10
505.39633
 20
70.05000
 30
 0
 11
506.45189
 21
70.05000
  0
LINE
  8
Gravure
 62
   255
 39
0.200
  6
CONTINUOUS
 10
506.66300
 20
71.00000
 30
 0
 11
505.39633
 21
71.00000
  0
LINE
  8
Gravure
 62
   255
 39
0.200
  6
CONTINUOUS
 10
505.39633
 20
71.00000
 30
 0
 11
505.39633
 21
69.10000
  0
LINE
  8
Gravure
 62
   255
 39
0.200
  6
CONTINUOUS
 10
505.39633
 20
69.10000
 30
 0
 11
506.66300
 21
69.10000
  0
LINE
  8
Gravure
 62
   255
 39
0.200
  6
CONTINUOUS
 10
507.16933
 20
71.00000
 30
 0
 11
507.80267
 21
69.10000
  0
LINE
  8
Gravure
 62
   255
 39
0.200
  6
CONTINUOUS
 10
507.80267
 20
69.10000
 30
 0
 11
508.43600
 21
71.00000
  0
LINE
  8
Gravure
 62
   255
 39
0.200
  6
CONTINUOUS
 10
508.94233
 20
69.10000
 30
 0
 11
508.94233
 21
69.20556
  0
LINE
  8
Gravure
 62
   255
 39
0.200
  6
CONTINUOUS
 10
509.46944
 20
70.80900
 30
 0
 11
509.59611
 21
70.91456
  0
ARC
  8
Gravure
 62
   255
 39
0.200
  6
CONTINUOUS
 10
509.93838
 20
70.51793
 30
 0
 40
0.52389
 50
-40.79241
 51
130.79241
  0
LINE
  8
Gravure
 62
   255
 39
0.200
  6
CONTINUOUS
 10
510.33500
 20
70.17567
 30
 0
 11
509.44833
 21
69.09900
  0
LINE
  8
Gravure
 62
   255
 39
0.200
  6
CONTINUOUS
 10
509.44833
 20
69.09900
 30
 0
 11
510.50389
 21
69.09900
  0
ARC
  8
Gravure
 62
   255
 39
0.200
  6
CONTINUOUS
 10
565.37109
 20
70.42713
 30
 0
 40
0.61903
 50
28.82122
 51
181.68902
  0
LINE
  8
Gravure
 62
   255
 39
0.200
  6
CONTINUOUS
 10
564.75233
 20
70.40889
 30
 0
 11
564.75233
 21
69.69111
  0
ARC
  8
Gravure
 62
   255
 39
0.200
  6
CONTINUOUS
 10
565.38678
 20
69.69216
 30
 0
 40
0.63444
 50
180.09515
 51
338.42706
  0
LINE
  8
Gravure
 62
   255
 39
0.200
  6
CONTINUOUS
 10
566.48333
 20
70.99900
 30
 0
 11
566.48333
 21
69.69011
  0
ARC
  8
Gravure
 62
   255
 39
0.200
  6
CONTINUOUS
 10
567.11667
 20
69.69011
 30
 0
 40
0.63333
 50
180.00000
 51
360.00000
  0
LINE
  8
Gravure
 62
   255
 39
0.200
  6
CONTINUOUS
 10
567.75000
 20
69.69011
 30
 0
 11
567.75000
 21
70.99900
  0
LINE
  8
Gravure
 62
   255
 39
0.200
  6
CONTINUOUS
 10
568.25633
 20
70.04900
 30
 0
 11
569.31189
 21
70.04900
  0
LINE
  8
Gravure
 62
   255
 39
0.200
  6
CONTINUOUS
 10
569.52300
 20
70.99900
 30
 0
 11
568.25633
 21
70.99900
  0
LINE
  8
Gravure
 62
   255
 39
0.200
  6
CONTINUOUS
 10
568.25633
 20
70.99900
 30
 0
 11
568.25633
 21
69.09900
  0
LINE
  8
Gravure
 62
   255
 39
0.200
  6
CONTINUOUS
 10
568.25633
 20
69.09900
 30
 0
 11
569.52300
 21
69.09900
  0
ARC
  8
Gravure
 62
   255
 39
0.200
  6
CONTINUOUS
 10
580.62109
 20
41.92713
 30
 0
 40
0.61903
 50
28.82122
 51
181.68902
  0
LINE
  8
Gravure
 62
   255
 39
0.200
  6
CONTINUOUS
 10
580.00233
 20
41.90889
 30
 0
 11
580.00233
 21
41.19111
  0
ARC
  8
Gravure
 62
   255
 39
0.200
  6
CONTINUOUS
 10
580.63678
 20
41.19216
 30
 0
 40
0.63444
 50
180.09515
 51
338.42706
  0
LINE
  8
Gravure
 62
   255
 39
0.200
  6
CONTINUOUS
 10
581.73333
 20
42.49900
 30
 0
 11
581.73333
 21
41.19011
  0
ARC
  8
Gravure
 62
   255
 39
0.200
  6
CONTINUOUS
 10
582.36667
 20
41.19011
 30
 0
 40
0.63333
 50
180.00000
 51
360.00000
  0
LINE
  8
Gravure
 62
   255
 39
0.200
  6
CONTINUOUS
 10
583.00000
 20
41.19011
 30
 0
 11
583.00000
 21
42.49900
  0
LINE
  8
Gravure
 62
   255
 39
0.200
  6
CONTINUOUS
 10
583.50633
 20
41.54900
 30
 0
 11
584.56189
 21
41.54900
  0
LINE
  8
Gravure
 62
   255
 39
0.200
  6
CONTINUOUS
 10
584.77300
 20
42.49900
 30
 0
 11
583.50633
 21
42.49900
  0
LINE
  8
Gravure
 62
   255
 39
0.200
  6
CONTINUOUS
 10
583.50633
 20
42.49900
 30
 0
 11
583.50633
 21
40.59900
  0
LINE
  8
Gravure
 62
   255
 39
0.200
  6
CONTINUOUS
 10
583.50633
 20
40.59900
 30
 0
 11
584.77300
 21
40.59900
  0
LINE
  8
Gravure
 62
   255
 39
0.200
  6
CONTINUOUS
 10
586.65144
 20
42.30900
 30
 0
 11
586.77811
 21
42.41456
  0
ARC
  8
Gravure
 62
   255
 39
0.200
  6
CONTINUOUS
 10
587.12038
 20
42.01793
 30
 0
 40
0.52389
 50
-40.79241
 51
130.79241
  0
LINE
  8
Gravure
 62
   255
 39
0.200
  6
CONTINUOUS
 10
587.51700
 20
41.67567
 30
 0
 11
586.63033
 21
40.59900
  0
LINE
  8
Gravure
 62
   255
 39
0.200
  6
CONTINUOUS
 10
586.63033
 20
40.59900
 30
 0
 11
587.68589
 21
40.59900
  0
ARC
  8
Gravure
 62
   255
 39
0.200
  6
CONTINUOUS
 10
580.62109
 20
28.92713
 30
 0
 40
0.61903
 50
28.82122
 51
181.68902
  0
LINE
  8
Gravure
 62
   255
 39
0.200
  6
CONTINUOUS
 10
580.00233
 20
28.90889
 30
 0
 11
580.00233
 21
28.19111
  0
ARC
  8
Gravure
 62
   255
 39
0.200
  6
CONTINUOUS
 10
580.63678
 20
28.19216
 30
 0
 40
0.63444
 50
180.09515
 51
338.42706
  0
LINE
  8
Gravure
 62
   255
 39
0.200
  6
CONTINUOUS
 10
581.73333
 20
29.49900
 30
 0
 11
581.73333
 21
28.19011
  0
ARC
  8
Gravure
 62
   255
 39
0.200
  6
CONTINUOUS
 10
582.36667
 20
28.19011
 30
 0
 40
0.63333
 50
180.00000
 51
360.00000
  0
LINE
  8
Gravure
 62
   255
 39
0.200
  6
CONTINUOUS
 10
583.00000
 20
28.19011
 30
 0
 11
583.00000
 21
29.49900
  0
LINE
  8
Gravure
 62
   255
 39
0.200
  6
CONTINUOUS
 10
583.50633
 20
28.54900
 30
 0
 11
584.56189
 21
28.54900
  0
LINE
  8
Gravure
 62
   255
 39
0.200
  6
CONTINUOUS
 10
584.77300
 20
29.49900
 30
 0
 11
583.50633
 21
29.49900
  0
LINE
  8
Gravure
 62
   255
 39
0.200
  6
CONTINUOUS
 10
583.50633
 20
29.49900
 30
 0
 11
583.50633
 21
27.59900
  0
LINE
  8
Gravure
 62
   255
 39
0.200
  6
CONTINUOUS
 10
583.50633
 20
27.59900
 30
 0
 11
584.77300
 21
27.59900
  0
LINE
  8
Gravure
 62
   255
 39
0.200
  6
CONTINUOUS
 10
586.63033
 20
29.07678
 30
 0
 11
587.05256
 21
29.49900
  0
LINE
  8
Gravure
 62
   255
 39
0.200
  6
CONTINUOUS
 10
587.05256
 20
29.49900
 30
 0
 11
587.05256
 21
27.59900
  0
ARC
  8
Gravure
 62
   255
 39
0.200
  6
CONTINUOUS
 10
456.85432
 20
13.51039
 30
 0
 40
0.50094
 50
36.73449
 51
77.79505
  0
ARC
  8
Gravure
 62
   255
 39
0.200
  6
CONTINUOUS
 10
456.70589
 20
12.83508
 30
 0
 40
1.19236
 50
77.68434
 51
106.40648
  0
ARC
  8
Gravure
 62
   255
 39
0.200
  6
CONTINUOUS
 10
456.53179
 20
13.43870
 30
 0
 40
0.56415
 50
106.75938
 51
144.31597
  0
ARC
  8
Gravure
 62
   255
 39
0.200
  6
CONTINUOUS
 10
456.38733
 20
13.54254
 30
 0
 40
0.38625
 50
144.32844
 51
251.30934
  0
LINE
  8
Gravure
 62
   255
 39
0.200
  6
CONTINUOUS
 10
456.26356
 20
13.17667
 30
 0
 11
457.00244
 21
12.92333
  0
ARC
  8
Gravure
 62
   255
 39
0.200
  6
CONTINUOUS
 10
456.87867
 20
12.55746
 30
 0
 40
0.38625
 50
-35.67156
 51
71.30934
  0
ARC
  8
Gravure
 62
   255
 39
0.200
  6
CONTINUOUS
 10
456.73421
 20
12.66130
 30
 0
 40
0.56415
 50
286.75938
 51
324.31597
  0
ARC
  8
Gravure
 62
   255
 39
0.200
  6
CONTINUOUS
 10
456.56011
 20
13.26492
 30
 0
 40
1.19236
 50
257.68434
 51
286.40648
  0
ARC
  8
Gravure
 62
   255
 39
0.200
  6
CONTINUOUS
 10
456.41168
 20
12.58961
 30
 0
 40
0.50094
 50
216.73449
 51
257.79505
  0
LINE
  8
Gravure
 62
   255
 39
0.200
  6
CONTINUOUS
 10
457.76233
 20
14.00000
 30
 0
 11
459.02900
 21
14.00000
  0
LINE
  8
Gravure
 62
   255
 39
0.200
  6
CONTINUOUS
 10
459.02900
 20
14.00000
 30
 0
 11
458.39567
 21
14.00000
  0
LINE
  8
Gravure
 62
   255
 39
0.200
  6
CONTINUOUS
 10
458.39567
 20
14.00000
 30
 0
 11
458.39567
 21
12.10000
  0
LINE
  8
Gravure
 62
   255
 39
0.200
  6
CONTINUOUS
 10
459.53533
 20
14.00000
 30
 0
 11
459.53533
 21
12.69111
  0
ARC
  8
Gravure
 62
   255
 39
0.200
  6
CONTINUOUS
 10
460.16867
 20
12.69111
 30
 0
 40
0.63333
 50
180.00000
 51
360.00000
  0
LINE
  8
Gravure
 62
   255
 39
0.200
  6
CONTINUOUS
 10
460.80200
 20
12.69111
 30
 0
 11
460.80200
 21
14.00000
  0
LINE
  8
Gravure
 62
   255
 39
0.200
  6
CONTINUOUS
 10
461.30833
 20
14.00000
 30
 0
 11
461.96278
 21
14.00000
  0
ARC
  8
Gravure
 62
   255
 39
0.200
  6
CONTINUOUS
 10
461.93819
 20
13.36366
 30
 0
 40
0.63682
 50
0.27068
 51
87.78728
  0
LINE
  8
Gravure
 62
   255
 39
0.200
  6
CONTINUOUS
 10
462.57500
 20
13.36667
 30
 0
 11
462.57500
 21
12.73333
  0
ARC
  8
Gravure
 62
   255
 39
0.200
  6
CONTINUOUS
 10
461.96384
 20
12.71155
 30
 0
 40
0.61155
 50
-90.09907
 51
2.04111
  0
LINE
  8
Gravure
 62
   255
 39
0.200
  6
CONTINUOUS
 10
461.96278
 20
12.10000
 30
 0
 11
461.30833
 21
12.10000
  0
LINE
  8
Gravure
 62
   255
 39
0.200
  6
CONTINUOUS
 10
461.30833
 20
12.10000
 30
 0
 11
461.30833
 21
14.00000
  0
LINE
  8
Gravure
 62
   255
 39
0.200
  6
CONTINUOUS
 10
463.08133
 20
13.99900
 30
 0
 11
463.08133
 21
12.09900
  0
ARC
  8
Gravure
 62
   255
 39
0.200
  6
CONTINUOUS
 10
464.26289
 20
12.73233
 30
 0
 40
0.67556
 50
180.00000
 51
360.00000
  0
LINE
  8
Gravure
 62
   255
 39
0.200
  6
CONTINUOUS
 10
464.93844
 20
12.73233
 30
 0
 11
464.93844
 21
13.36567
  0
ARC
  8
Gravure
 62
   255
 39
0.200
  6
CONTINUOUS
 10
464.26289
 20
13.36567
 30
 0
 40
0.67556
 50
0.00000
 51
180.00000
  0
LINE
  8
Gravure
 62
   255
 39
0.200
  6
CONTINUOUS
 10
463.58733
 20
13.36567
 30
 0
 11
463.58733
 21
12.73233
  0
LINE
  8
Gravure
 62
   255
 39
0.200
  6
CONTINUOUS
 10
503.75033
 20
12.10000
 30
 0
 11
503.75033
 21
14.00000
  0
LINE
  8
Gravure
 62
   255
 39
0.200
  6
CONTINUOUS
 10
503.75033
 20
14.00000
 30
 0
 11
504.44700
 21
14.00000
  0
ARC
  8
Gravure
 62
   255
 39
0.200
  6
CONTINUOUS
 10
504.44700
 20
13.52500
 30
 0
 40
0.47500
 50
-90.00000
 51
90.00000
  0
LINE
  8
Gravure
 62
   255
 39
0.200
  6
CONTINUOUS
 10
504.44700
 20
13.05000
 30
 0
 11
503.75033
 21
13.05000
  0
LINE
  8
Gravure
 62
   255
 39
0.200
  6
CONTINUOUS
 10
503.75033
 20
13.05000
 30
 0
 11
504.48922
 21
13.05000
  0
LINE
  8
Gravure
 62
   255
 39
0.200
  6
CONTINUOUS
 10
504.48922
 20
13.05000
 30
 0
 11
504.91144
 21
12.10000
  0
LINE
  8
Gravure
 62
   255
 39
0.200
  6
CONTINUOUS
 10
505.39633
 20
13.05000
 30
 0
 11
506.45189
 21
13.05000
  0
LINE
  8
Gravure
 62
   255
 39
0.200
  6
CONTINUOUS
 10
506.66300
 20
14.00000
 30
 0
 11
505.39633
 21
14.00000
  0
LINE
  8
Gravure
 62
   255
 39
0.200
  6
CONTINUOUS
 10
505.39633
 20
14.00000
 30
 0
 11
505.39633
 21
12.10000
  0
LINE
  8
Gravure
 62
   255
 39
0.200
  6
CONTINUOUS
 10
505.39633
 20
12.10000
 30
 0
 11
506.66300
 21
12.10000
  0
LINE
  8
Gravure
 62
   255
 39
0.200
  6
CONTINUOUS
 10
507.16933
 20
14.00000
 30
 0
 11
508.43600
 21
14.00000
  0
LINE
  8
Gravure
 62
   255
 39
0.200
  6
CONTINUOUS
 10
508.43600
 20
14.00000
 30
 0
 11
507.80267
 21
14.00000
  0
LINE
  8
Gravure
 62
   255
 39
0.200
  6
CONTINUOUS
 10
507.80267
 20
14.00000
 30
 0
 11
507.80267
 21
12.10000
  0
LINE
  8
Gravure
 62
   255
 39
0.200
  6
CONTINUOUS
 10
508.94233
 20
12.10000
 30
 0
 11
508.94233
 21
12.20556
  0
LINE
  8
Gravure
 62
   255
 39
0.200
  6
CONTINUOUS
 10
509.44833
 20
13.57678
 30
 0
 11
509.87056
 21
13.99900
  0
LINE
  8
Gravure
 62
   255
 39
0.200
  6
CONTINUOUS
 10
509.87056
 20
13.99900
 30
 0
 11
509.87056
 21
12.09900
  0
LINE
  8
Gravure
 62
   255
 39
0.200
  6
CONTINUOUS
 10
533.75033
 20
12.10000
 30
 0
 11
533.75033
 21
14.00000
  0
LINE
  8
Gravure
 62
   255
 39
0.200
  6
CONTINUOUS
 10
533.75033
 20
14.00000
 30
 0
 11
534.44700
 21
14.00000
  0
ARC
  8
Gravure
 62
   255
 39
0.200
  6
CONTINUOUS
 10
534.44700
 20
13.52500
 30
 0
 40
0.47500
 50
-90.00000
 51
90.00000
  0
LINE
  8
Gravure
 62
   255
 39
0.200
  6
CONTINUOUS
 10
534.44700
 20
13.05000
 30
 0
 11
533.75033
 21
13.05000
  0
LINE
  8
Gravure
 62
   255
 39
0.200
  6
CONTINUOUS
 10
533.75033
 20
13.05000
 30
 0
 11
534.48922
 21
13.05000
  0
LINE
  8
Gravure
 62
   255
 39
0.200
  6
CONTINUOUS
 10
534.48922
 20
13.05000
 30
 0
 11
534.91144
 21
12.10000
  0
LINE
  8
Gravure
 62
   255
 39
0.200
  6
CONTINUOUS
 10
535.39633
 20
13.05000
 30
 0
 11
536.45189
 21
13.05000
  0
LINE
  8
Gravure
 62
   255
 39
0.200
  6
CONTINUOUS
 10
536.66300
 20
14.00000
 30
 0
 11
535.39633
 21
14.00000
  0
LINE
  8
Gravure
 62
   255
 39
0.200
  6
CONTINUOUS
 10
535.39633
 20
14.00000
 30
 0
 11
535.39633
 21
12.10000
  0
LINE
  8
Gravure
 62
   255
 39
0.200
  6
CONTINUOUS
 10
535.39633
 20
12.10000
 30
 0
 11
536.66300
 21
12.10000
  0
LINE
  8
Gravure
 62
   255
 39
0.200
  6
CONTINUOUS
 10
537.16933
 20
14.00000
 30
 0
 11
538.43600
 21
14.00000
  0
LINE
  8
Gravure
 62
   255
 39
0.200
  6
CONTINUOUS
 10
538.43600
 20
14.00000
 30
 0
 11
537.80267
 21
14.00000
  0
LINE
  8
Gravure
 62
   255
 39
0.200
  6
CONTINUOUS
 10
537.80267
 20
14.00000
 30
 0
 11
537.80267
 21
12.10000
  0
LINE
  8
Gravure
 62
   255
 39
0.200
  6
CONTINUOUS
 10
538.94233
 20
12.10000
 30
 0
 11
538.94233
 21
12.20556
  0
LINE
  8
Gravure
 62
   255
 39
0.200
  6
CONTINUOUS
 10
539.46944
 20
13.80900
 30
 0
 11
539.59611
 21
13.91456
  0
ARC
  8
Gravure
 62
   255
 39
0.200
  6
CONTINUOUS
 10
539.93838
 20
13.51793
 30
 0
 40
0.52389
 50
-40.79241
 51
130.79241
  0
LINE
  8
Gravure
 62
   255
 39
0.200
  6
CONTINUOUS
 10
540.33500
 20
13.17567
 30
 0
 11
539.44833
 21
12.09900
  0
LINE
  8
Gravure
 62
   255
 39
0.200
  6
CONTINUOUS
 10
539.44833
 20
12.09900
 30
 0
 11
540.50389
 21
12.09900
  0
ARC
  8
Contour
 62
   7
 39
0.100
  6
CONTINUOUS
 10
11.10355
 20
69.35355
 30
 0
 40
0.50000
 50
135.00000
 51
315.00000
  0
LINE
  8
Contour
 62
   7
 39
0.100
  6
CONTINUOUS
 10
11.45711
 20
69.00000
 30
 0
 11
90.04289
 21
69.00000
  0
ARC
  8
Contour
 62
   7
 39
0.100
  6
CONTINUOUS
 10
90.39645
 20
69.35355
 30
 0
 40
0.50000
 50
225.00000
 51
405.00000
  0
LINE
  8
Contour
 62
   7
 39
0.100
  6
CONTINUOUS
 10
90.75000
 20
69.70711
 30
 0
 11
90.75000
 21
105.29289
  0
ARC
  8
Contour
 62
   7
 39
0.100
  6
CONTINUOUS
 10
90.39645
 20
105.64645
 30
 0
 40
0.50000
 50
315.00000
 51
495.00000
  0
LINE
  8
Contour
 62
   7
 39
0.100
  6
CONTINUOUS
 10
90.04289
 20
106.00000
 30
 0
 11
11.45711
 21
106.00000
  0
ARC
  8
Contour
 62
   7
 39
0.100
  6
CONTINUOUS
 10
11.10355
 20
105.64645
 30
 0
 40
0.50000
 50
45.00000
 51
225.00000
  0
LINE
  8
Contour
 62
   7
 39
0.100
  6
CONTINUOUS
 10
10.75000
 20
105.29289
 30
 0
 11
10.75000
 21
69.70711
  0
ARC
  8
Contour
 62
   7
 39
0.100
  6
CONTINUOUS
 10
215.10355
 20
69.35355
 30
 0
 40
0.50000
 50
135.00000
 51
315.00000
  0
LINE
  8
Contour
 62
   7
 39
0.100
  6
CONTINUOUS
 10
215.45711
 20
69.00000
 30
 0
 11
294.04289
 21
69.00000
  0
ARC
  8
Contour
 62
   7
 39
0.100
  6
CONTINUOUS
 10
294.39645
 20
69.35355
 30
 0
 40
0.50000
 50
225.00000
 51
405.00000
  0
LINE
  8
Contour
 62
   7
 39
0.100
  6
CONTINUOUS
 10
294.75000
 20
69.70711
 30
 0
 11
294.75000
 21
105.29289
  0
ARC
  8
Contour
 62
   7
 39
0.100
  6
CONTINUOUS
 10
294.39645
 20
105.64645
 30
 0
 40
0.50000
 50
315.00000
 51
495.00000
  0
LINE
  8
Contour
 62
   7
 39
0.100
  6
CONTINUOUS
 10
294.04289
 20
106.00000
 30
 0
 11
215.45711
 21
106.00000
  0
ARC
  8
Contour
 62
   7
 39
0.100
  6
CONTINUOUS
 10
215.10355
 20
105.64645
 30
 0
 40
0.50000
 50
45.00000
 51
225.00000
  0
LINE
  8
Contour
 62
   7
 39
0.100
  6
CONTINUOUS
 10
214.75000
 20
105.29289
 30
 0
 11
214.75000
 21
69.70711
  0
ARC
  8
Contour
 62
   7
 39
0.100
  6
CONTINUOUS
 10
113.10355
 20
69.35355
 30
 0
 40
0.50000
 50
135.00000
 51
315.00000
  0
LINE
  8
Contour
 62
   7
 39
0.100
  6
CONTINUOUS
 10
113.45711
 20
69.00000
 30
 0
 11
192.04289
 21
69.00000
  0
ARC
  8
Contour
 62
   7
 39
0.100
  6
CONTINUOUS
 10
192.39645
 20
69.35355
 30
 0
 40
0.50000
 50
225.00000
 51
405.00000
  0
LINE
  8
Contour
 62
   7
 39
0.100
  6
CONTINUOUS
 10
192.75000
 20
69.70711
 30
 0
 11
192.75000
 21
105.29289
  0
ARC
  8
Contour
 62
   7
 39
0.100
  6
CONTINUOUS
 10
192.39645
 20
105.64645
 30
 0
 40
0.50000
 50
315.00000
 51
495.00000
  0
LINE
  8
Contour
 62
   7
 39
0.100
  6
CONTINUOUS
 10
192.04289
 20
106.00000
 30
 0
 11
113.45711
 21
106.00000
  0
ARC
  8
Contour
 62
   7
 39
0.100
  6
CONTINUOUS
 10
113.10355
 20
105.64645
 30
 0
 40
0.50000
 50
45.00000
 51
225.00000
  0
LINE
  8
Contour
 62
   7
 39
0.100
  6
CONTINUOUS
 10
112.75000
 20
105.29289
 30
 0
 11
112.75000
 21
69.70711
  0
ARC
  8
Contour
 62
   7
 39
0.100
  6
CONTINUOUS
 10
317.10355
 20
69.35355
 30
 0
 40
0.50000
 50
135.00000
 51
315.00000
  0
LINE
  8
Contour
 62
   7
 39
0.100
  6
CONTINUOUS
 10
317.45711
 20
69.00000
 30
 0
 11
396.04289
 21
69.00000
  0
ARC
  8
Contour
 62
   7
 39
0.100
  6
CONTINUOUS
 10
396.39645
 20
69.35355
 30
 0
 40
0.50000
 50
225.00000
 51
405.00000
  0
LINE
  8
Contour
 62
   7
 39
0.100
  6
CONTINUOUS
 10
396.75000
 20
69.70711
 30
 0
 11
396.75000
 21
105.29289
  0
ARC
  8
Contour
 62
   7
 39
0.100
  6
CONTINUOUS
 10
396.39645
 20
105.64645
 30
 0
 40
0.50000
 50
315.00000
 51
495.00000
  0
LINE
  8
Contour
 62
   7
 39
0.100
  6
CONTINUOUS
 10
396.04289
 20
106.00000
 30
 0
 11
317.45711
 21
106.00000
  0
ARC
  8
Contour
 62
   7
 39
0.100
  6
CONTINUOUS
 10
317.10355
 20
105.64645
 30
 0
 40
0.50000
 50
45.00000
 51
225.00000
  0
LINE
  8
Contour
 62
   7
 39
0.100
  6
CONTINUOUS
 10
316.75000
 20
105.29289
 30
 0
 11
316.75000
 21
69.70711
  0
ARC
  8
Contour
 62
   7
 39
0.100
  6
CONTINUOUS
 10
425.60355
 20
80.85355
 30
 0
 40
0.50000
 50
135.00000
 51
315.00000
  0
LINE
  8
Contour
 62
   7
 39
0.100
  6
CONTINUOUS
 10
425.95711
 20
80.50000
 30
 0
 11
469.54289
 21
80.50000
  0
ARC
  8
Contour
 62
   7
 39
0.100
  6
CONTINUOUS
 10
469.89645
 20
80.85355
 30
 0
 40
0.50000
 50
225.00000
 51
405.00000
  0
LINE
  8
Contour
 62
   7
 39
0.100
  6
CONTINUOUS
 10
470.25000
 20
81.20711
 30
 0
 11
470.25000
 21
105.29289
  0
ARC
  8
Contour
 62
   7
 39
0.100
  6
CONTINUOUS
 10
469.89645
 20
105.64645
 30
 0
 40
0.50000
 50
315.00000
 51
495.00000
  0
LINE
  8
Contour
 62
   7
 39
0.100
  6
CONTINUOUS
 10
469.54289
 20
106.00000
 30
 0
 11
425.95711
 21
106.00000
  0
ARC
  8
Contour
 62
   7
 39
0.100
  6
CONTINUOUS
 10
425.60355
 20
105.64645
 30
 0
 40
0.50000
 50
45.00000
 51
225.00000
  0
LINE
  8
Contour
 62
   7
 39
0.100
  6
CONTINUOUS
 10
425.25000
 20
105.29289
 30
 0
 11
425.25000
 21
81.20711
  0
ARC
  8
Contour
 62
   7
 39
0.100
  6
CONTINUOUS
 10
485.60355
 20
80.85355
 30
 0
 40
0.50000
 50
135.00000
 51
315.00000
  0
LINE
  8
Contour
 62
   7
 39
0.100
  6
CONTINUOUS
 10
485.95711
 20
80.50000
 30
 0
 11
529.54289
 21
80.50000
  0
ARC
  8
Contour
 62
   7
 39
0.100
  6
CONTINUOUS
 10
529.89645
 20
80.85355
 30
 0
 40
0.50000
 50
225.00000
 51
405.00000
  0
LINE
  8
Contour
 62
   7
 39
0.100
  6
CONTINUOUS
 10
530.25000
 20
81.20711
 30
 0
 11
530.25000
 21
105.29289
  0
ARC
  8
Contour
 62
   7
 39
0.100
  6
CONTINUOUS
 10
529.89645
 20
105.64645
 30
 0
 40
0.50000
 50
315.00000
 51
495.00000
  0
LINE
  8
Contour
 62
   7
 39
0.100
  6
CONTINUOUS
 10
529.54289
 20
106.00000
 30
 0
 11
485.95711
 21
106.00000
  0
ARC
  8
Contour
 62
   7
 39
0.100
  6
CONTINUOUS
 10
485.60355
 20
105.64645
 30
 0
 40
0.50000
 50
45.00000
 51
225.00000
  0
LINE
  8
Contour
 62
   7
 39
0.100
  6
CONTINUOUS
 10
485.25000
 20
105.29289
 30
 0
 11
485.25000
 21
81.20711
  0
ARC
  8
Contour
 62
   7
 39
0.100
  6
CONTINUOUS
 10
545.60355
 20
80.85355
 30
 0
 40
0.50000
 50
135.00000
 51
315.00000
  0
LINE
  8
Contour
 62
   7
 39
0.100
  6
CONTINUOUS
 10
545.95711
 20
80.50000
 30
 0
 11
589.54289
 21
80.50000
  0
ARC
  8
Contour
 62
   7
 39
0.100
  6
CONTINUOUS
 10
589.89645
 20
80.85355
 30
 0
 40
0.50000
 50
225.00000
 51
405.00000
  0
LINE
  8
Contour
 62
   7
 39
0.100
  6
CONTINUOUS
 10
590.25000
 20
81.20711
 30
 0
 11
590.25000
 21
105.29289
  0
ARC
  8
Contour
 62
   7
 39
0.100
  6
CONTINUOUS
 10
589.89645
 20
105.64645
 30
 0
 40
0.50000
 50
315.00000
 51
495.00000
  0
LINE
  8
Contour
 62
   7
 39
0.100
  6
CONTINUOUS
 10
589.54289
 20
106.00000
 30
 0
 11
545.95711
 21
106.00000
  0
ARC
  8
Contour
 62
   7
 39
0.100
  6
CONTINUOUS
 10
545.60355
 20
105.64645
 30
 0
 40
0.50000
 50
45.00000
 51
225.00000
  0
LINE
  8
Contour
 62
   7
 39
0.100
  6
CONTINUOUS
 10
545.25000
 20
105.29289
 30
 0
 11
545.25000
 21
81.20711
  0
CIRCLE
  8
Contour
 62
   7
 39
0.100
  6
CONTINUOUS
 10
447.75000
 20
45.50000
 30
 0
 40
8.00000
  0
CIRCLE
  8
Contour
 62
   7
 39
0.100
  6
CONTINUOUS
 10
447.75000
 20
25.50000
 30
 0
 40
8.00000
  0
CIRCLE
  8
Contour
 62
   7
 39
0.100
  6
CONTINUOUS
 10
507.75000
 20
25.50000
 30
 0
 40
8.00000
  0
CIRCLE
  8
Contour
 62
   7
 39
0.100
  6
CONTINUOUS
 10
507.75000
 20
45.50000
 30
 0
 40
8.00000
  0
CIRCLE
  8
Contour
 62
   7
 39
0.100
  6
CONTINUOUS
 10
537.75000
 20
45.50000
 30
 0
 40
8.00000
  0
CIRCLE
  8
Contour
 62
   7
 39
0.100
  6
CONTINUOUS
 10
537.75000
 20
25.50000
 30
 0
 40
8.00000
  0
CIRCLE
  8
Contour
 62
   7
 39
0.100
  6
CONTINUOUS
 10
567.75000
 20
35.50000
 30
 0
 40
8.00000
  0
CIRCLE
  8
Contour
 62
   7
 39
0.100
  6
CONTINUOUS
 10
477.75000
 20
25.50000
 30
 0
 40
8.00000
  0
CIRCLE
  8
Contour
 62
   7
 39
0.100
  6
CONTINUOUS
 10
477.75000
 20
45.50000
 30
 0
 40
8.00000
  0
CIRCLE
  8
Contour
 62
   7
 39
0.100
  6
CONTINUOUS
 10
50.75000
 20
22.00000
 30
 0
 40
6.25000
  0
CIRCLE
  8
Contour
 62
   7
 39
0.100
  6
CONTINUOUS
 10
152.75000
 20
22.00000
 30
 0
 40
6.25000
  0
CIRCLE
  8
Contour
 62
   7
 39
0.100
  6
CONTINUOUS
 10
254.75000
 20
22.00000
 30
 0
 40
6.25000
  0
CIRCLE
  8
Contour
 62
   7
 39
0.100
  6
CONTINUOUS
 10
356.75000
 20
22.00000
 30
 0
 40
6.25000
  0
LINE
  8
Points de référence
 62
   1
 39
0.100
  6
CONTINUOUS
 10
-2.01600
 20
0.00000
 30
 0
 11
2.01600
 21
0.00000
  0
LINE
  8
Points de référence
 62
   1
 39
0.100
  6
CONTINUOUS
 10
0.00000
 20
-2.01600
 30
 0
 11
0.00000
 21
2.01600
  0
LINE
  8
Points de référence
 62
   1
 39
0.100
  6
CONTINUOUS
 10
48.73400
 20
87.50000
 30
 0
 11
52.76600
 21
87.50000
  0
LINE
  8
Points de référence
 62
   1
 39
0.100
  6
CONTINUOUS
 10
50.75000
 20
85.48400
 30
 0
 11
50.75000
 21
89.51600
  0
LINE
  8
Points de référence
 62
   1
 39
0.100
  6
CONTINUOUS
 10
252.73400
 20
87.50000
 30
 0
 11
256.76600
 21
87.50000
  0
LINE
  8
Points de référence
 62
   1
 39
0.100
  6
CONTINUOUS
 10
254.75000
 20
85.48400
 30
 0
 11
254.75000
 21
89.51600
  0
LINE
  8
Points de référence
 62
   1
 39
0.100
  6
CONTINUOUS
 10
150.73400
 20
87.50000
 30
 0
 11
154.76600
 21
87.50000
  0
LINE
  8
Points de référence
 62
   1
 39
0.100
  6
CONTINUOUS
 10
152.75000
 20
85.48400
 30
 0
 11
152.75000
 21
89.51600
  0
LINE
  8
Points de référence
 62
   1
 39
0.100
  6
CONTINUOUS
 10
354.73400
 20
87.50000
 30
 0
 11
358.76600
 21
87.50000
  0
LINE
  8
Points de référence
 62
   1
 39
0.100
  6
CONTINUOUS
 10
356.75000
 20
85.48400
 30
 0
 11
356.75000
 21
89.51600
  0
LINE
  8
Points de référence
 62
   1
 39
0.100
  6
CONTINUOUS
 10
445.73400
 20
93.25000
 30
 0
 11
449.76600
 21
93.25000
  0
LINE
  8
Points de référence
 62
   1
 39
0.100
  6
CONTINUOUS
 10
447.75000
 20
91.23400
 30
 0
 11
447.75000
 21
95.26600
  0
LINE
  8
Points de référence
 62
   1
 39
0.100
  6
CONTINUOUS
 10
505.73400
 20
93.25000
 30
 0
 11
509.76600
 21
93.25000
  0
LINE
  8
Points de référence
 62
   1
 39
0.100
  6
CONTINUOUS
 10
507.75000
 20
91.23400
 30
 0
 11
507.75000
 21
95.26600
  0
LINE
  8
Points de référence
 62
   1
 39
0.100
  6
CONTINUOUS
 10
565.73400
 20
93.25000
 30
 0
 11
569.76600
 21
93.25000
  0
LINE
  8
Points de référence
 62
   1
 39
0.100
  6
CONTINUOUS
 10
567.75000
 20
91.23400
 30
 0
 11
567.75000
 21
95.26600
  0
LINE
  8
Points de référence
 62
   1
 39
0.100
  6
CONTINUOUS
 10
445.73400
 20
45.50000
 30
 0
 11
449.76600
 21
45.50000
  0
LINE
  8
Points de référence
 62
   1
 39
0.100
  6
CONTINUOUS
 10
447.75000
 20
43.48400
 30
 0
 11
447.75000
 21
47.51600
  0
LINE
  8
Points de référence
 62
   1
 39
0.100
  6
CONTINUOUS
 10
445.73400
 20
25.50000
 30
 0
 11
449.76600
 21
25.50000
  0
LINE
  8
Points de référence
 62
   1
 39
0.100
  6
CONTINUOUS
 10
447.75000
 20
23.48400
 30
 0
 11
447.75000
 21
27.51600
  0
LINE
  8
Points de référence
 62
   1
 39
0.100
  6
CONTINUOUS
 10
505.73400
 20
25.50000
 30
 0
 11
509.76600
 21
25.50000
  0
LINE
  8
Points de référence
 62
   1
 39
0.100
  6
CONTINUOUS
 10
507.75000
 20
23.48400
 30
 0
 11
507.75000
 21
27.51600
  0
LINE
  8
Points de référence
 62
   1
 39
0.100
  6
CONTINUOUS
 10
505.73400
 20
45.50000
 30
 0
 11
509.76600
 21
45.50000
  0
LINE
  8
Points de référence
 62
   1
 39
0.100
  6
CONTINUOUS
 10
507.75000
 20
43.48400
 30
 0
 11
507.75000
 21
47.51600
  0
LINE
  8
Points de référence
 62
   1
 39
0.100
  6
CONTINUOUS
 10
535.73400
 20
45.50000
 30
 0
 11
539.76600
 21
45.50000
  0
LINE
  8
Points de référence
 62
   1
 39
0.100
  6
CONTINUOUS
 10
537.75000
 20
43.48400
 30
 0
 11
537.75000
 21
47.51600
  0
LINE
  8
Points de référence
 62
   1
 39
0.100
  6
CONTINUOUS
 10
535.73400
 20
25.50000
 30
 0
 11
539.76600
 21
25.50000
  0
LINE
  8
Points de référence
 62
   1
 39
0.100
  6
CONTINUOUS
 10
537.75000
 20
23.48400
 30
 0
 11
537.75000
 21
27.51600
  0
LINE
  8
Points de référence
 62
   1
 39
0.100
  6
CONTINUOUS
 10
565.73400
 20
35.50000
 30
 0
 11
569.76600
 21
35.50000
  0
LINE
  8
Points de référence
 62
   1
 39
0.100
  6
CONTINUOUS
 10
567.75000
 20
33.48400
 30
 0
 11
567.75000
 21
37.51600
  0
LINE
  8
Points de référence
 62
   1
 39
0.100
  6
CONTINUOUS
 10
475.73400
 20
25.50000
 30
 0
 11
479.76600
 21
25.50000
  0
LINE
  8
Points de référence
 62
   1
 39
0.100
  6
CONTINUOUS
 10
477.75000
 20
23.48400
 30
 0
 11
477.75000
 21
27.51600
  0
LINE
  8
Points de référence
 62
   1
 39
0.100
  6
CONTINUOUS
 10
475.73400
 20
45.50000
 30
 0
 11
479.76600
 21
45.50000
  0
LINE
  8
Points de référence
 62
   1
 39
0.100
  6
CONTINUOUS
 10
477.75000
 20
43.48400
 30
 0
 11
477.75000
 21
47.51600
  0
LINE
  8
Points de référence
 62
   1
 39
0.100
  6
CONTINUOUS
 10
48.73400
 20
22.00000
 30
 0
 11
52.76600
 21
22.00000
  0
LINE
  8
Points de référence
 62
   1
 39
0.100
  6
CONTINUOUS
 10
50.75000
 20
19.98400
 30
 0
 11
50.75000
 21
24.01600
  0
LINE
  8
Points de référence
 62
   1
 39
0.100
  6
CONTINUOUS
 10
150.73400
 20
22.00000
 30
 0
 11
154.76600
 21
22.00000
  0
LINE
  8
Points de référence
 62
   1
 39
0.100
  6
CONTINUOUS
 10
152.75000
 20
19.98400
 30
 0
 11
152.75000
 21
24.01600
  0
LINE
  8
Points de référence
 62
   1
 39
0.100
  6
CONTINUOUS
 10
252.73400
 20
22.00000
 30
 0
 11
256.76600
 21
22.00000
  0
LINE
  8
Points de référence
 62
   1
 39
0.100
  6
CONTINUOUS
 10
254.75000
 20
19.98400
 30
 0
 11
254.75000
 21
24.01600
  0
LINE
  8
Points de référence
 62
   1
 39
0.100
  6
CONTINUOUS
 10
354.73400
 20
22.00000
 30
 0
 11
358.76600
 21
22.00000
  0
LINE
  8
Points de référence
 62
   1
 39
0.100
  6
CONTINUOUS
 10
356.75000
 20
19.98400
 30
 0
 11
356.75000
 21
24.01600
  0
LINE
  8
Points de référence
 62
   1
 39
0.100
  6
CONTINUOUS
 10
430.03500
 20
34.17000
 30
 0
 11
434.06700
 21
34.17000
  0
LINE
  8
Points de référence
 62
   1
 39
0.100
  6
CONTINUOUS
 10
432.05100
 20
32.15400
 30
 0
 11
432.05100
 21
36.18600
  0
LINE
  8
Points de référence
 62
   1
 39
0.100
  6
CONTINUOUS
 10
441.73400
 20
69.00000
 30
 0
 11
445.76600
 21
69.00000
  0
LINE
  8
Points de référence
 62
   1
 39
0.100
  6
CONTINUOUS
 10
443.75000
 20
66.98400
 30
 0
 11
443.75000
 21
71.01600
  0
LINE
  8
Points de référence
 62
   1
 39
0.100
  6
CONTINUOUS
 10
501.73400
 20
69.00000
 30
 0
 11
505.76600
 21
69.00000
  0
LINE
  8
Points de référence
 62
   1
 39
0.100
  6
CONTINUOUS
 10
503.75000
 20
66.98400
 30
 0
 11
503.75000
 21
71.01600
  0
LINE
  8
Points de référence
 62
   1
 39
0.100
  6
CONTINUOUS
 10
562.73400
 20
69.00000
 30
 0
 11
566.76600
 21
69.00000
  0
LINE
  8
Points de référence
 62
   1
 39
0.100
  6
CONTINUOUS
 10
564.75000
 20
66.98400
 30
 0
 11
564.75000
 21
71.01600
  0
LINE
  8
Points de référence
 62
   1
 39
0.100
  6
CONTINUOUS
 10
577.98400
 20
40.50000
 30
 0
 11
582.01600
 21
40.50000
  0
LINE
  8
Points de référence
 62
   1
 39
0.100
  6
CONTINUOUS
 10
580.00000
 20
38.48400
 30
 0
 11
580.00000
 21
42.51600
  0
LINE
  8
Points de référence
 62
   1
 39
0.100
  6
CONTINUOUS
 10
577.98400
 20
27.50000
 30
 0
 11
582.01600
 21
27.50000
  0
LINE
  8
Points de référence
 62
   1
 39
0.100
  6
CONTINUOUS
 10
580.00000
 20
25.48400
 30
 0
 11
580.00000
 21
29.51600
  0
LINE
  8
Points de référence
 62
   1
 39
0.100
  6
CONTINUOUS
 10
453.98400
 20
12.00000
 30
 0
 11
458.01600
 21
12.00000
  0
LINE
  8
Points de référence
 62
   1
 39
0.100
  6
CONTINUOUS
 10
456.00000
 20
9.98400
 30
 0
 11
456.00000
 21
14.01600
  0
LINE
  8
Points de référence
 62
   1
 39
0.100
  6
CONTINUOUS
 10
501.73400
 20
12.00000
 30
 0
 11
505.76600
 21
12.00000
  0
LINE
  8
Points de référence
 62
   1
 39
0.100
  6
CONTINUOUS
 10
503.75000
 20
9.98400
 30
 0
 11
503.75000
 21
14.01600
  0
LINE
  8
Points de référence
 62
   1
 39
0.100
  6
CONTINUOUS
 10
531.73400
 20
12.00000
 30
 0
 11
535.76600
 21
12.00000
  0
LINE
  8
Points de référence
 62
   1
 39
0.100
  6
CONTINUOUS
 10
533.75000
 20
9.98400
 30
 0
 11
533.75000
 21
14.01600
  0
ENDSEC
  0
EOF
