  0
SECTION
  2
HEADER
  9
$MEASUREMENT
  70
  1
  9
$INSUNITS
  70
  4
  0
ENDSEC
  0
SECTION
  2
TABLES
  0
TABLE
  2
LTYPE
 70
     1
  0
LTYPE
  2
CONTINUOUS
 70
    64
  3
Ausgezogene Linie
 72
    65
 73
     0
 40
0.0
  0
ENDTAB
  0
TABLE
  2
LAYER
 70
     3
  0
LAYER
  2
Contour
 70
    64
 62
     7
  6
CONTINUOUS
  0
LAYER
  2
Gravure
 70
    64
 62
     7
  6
CONTINUOUS
  0
LAYER
  2
Points de référence
 70
    64
 62
     1
  6
CONTINUOUS
  0
ENDTAB
  0
TABLE
  2
STYLE
 70
     1
  0
STYLE
  2
TXT
 70
    64
 40
0.0
 41
1.0
 50
0.0
 71
     0
 42
3.500000
  3
TXT
  0
ENDTAB
  0
ENDSEC
  0
SECTION
  2
BLOCKS
  0
ENDSEC
  0
SECTION
  2
ENTITIES
  0
LINE
  8
Contour
 62
   7
 39
0.100
  6
CONTINUOUS
 10
609.00000
 20
124.00000
 30
 0
 11
609.00000
 21
0.00000
  0
LINE
  8
Contour
 62
   7
 39
0.100
  6
CONTINUOUS
 10
609.00000
 20
0.00000
 30
 0
 11
0.00000
 21
0.00000
  0
LINE
  8
Contour
 62
   7
 39
0.100
  6
CONTINUOUS
 10
0.00000
 20
0.00000
 30
 0
 11
0.00000
 21
124.00000
  0
LINE
  8
Contour
 62
   7
 39
0.100
  6
CONTINUOUS
 10
0.00000
 20
124.00000
 30
 0
 11
609.00000
 21
124.00000
  0
ARC
  8
Contour
 62
   7
 39
0.100
  6
CONTINUOUS
 10
40.85855
 20
19.35355
 30
 0
 40
0.50000
 50
135.00000
 51
315.00000
  0
LINE
  8
Contour
 62
   7
 39
0.100
  6
CONTINUOUS
 10
41.21211
 20
19.00000
 30
 0
 11
161.79789
 21
19.00000
  0
ARC
  8
Contour
 62
   7
 39
0.100
  6
CONTINUOUS
 10
162.15145
 20
19.35355
 30
 0
 40
0.50000
 50
225.00000
 51
405.00000
  0
LINE
  8
Contour
 62
   7
 39
0.100
  6
CONTINUOUS
 10
162.50500
 20
19.70711
 30
 0
 11
162.50500
 21
104.29289
  0
ARC
  8
Contour
 62
   7
 39
0.100
  6
CONTINUOUS
 10
162.15145
 20
104.64645
 30
 0
 40
0.50000
 50
315.00000
 51
495.00000
  0
LINE
  8
Contour
 62
   7
 39
0.100
  6
CONTINUOUS
 10
161.79789
 20
105.00000
 30
 0
 11
41.21211
 21
105.00000
  0
ARC
  8
Contour
 62
   7
 39
0.100
  6
CONTINUOUS
 10
40.85855
 20
104.64645
 30
 0
 40
0.50000
 50
45.00000
 51
225.00000
  0
LINE
  8
Contour
 62
   7
 39
0.100
  6
CONTINUOUS
 10
40.50500
 20
104.29289
 30
 0
 11
40.50500
 21
19.70711
  0
ARC
  8
Contour
 62
   7
 39
0.100
  6
CONTINUOUS
 10
212.60855
 20
69.35355
 30
 0
 40
0.50000
 50
135.00000
 51
315.00000
  0
LINE
  8
Contour
 62
   7
 39
0.100
  6
CONTINUOUS
 10
212.96211
 20
69.00000
 30
 0
 11
291.54789
 21
69.00000
  0
ARC
  8
Contour
 62
   7
 39
0.100
  6
CONTINUOUS
 10
291.90145
 20
69.35355
 30
 0
 40
0.50000
 50
225.00000
 51
405.00000
  0
LINE
  8
Contour
 62
   7
 39
0.100
  6
CONTINUOUS
 10
292.25500
 20
69.70711
 30
 0
 11
292.25500
 21
105.29289
  0
ARC
  8
Contour
 62
   7
 39
0.100
  6
CONTINUOUS
 10
291.90145
 20
105.64645
 30
 0
 40
0.50000
 50
315.00000
 51
495.00000
  0
LINE
  8
Contour
 62
   7
 39
0.100
  6
CONTINUOUS
 10
291.54789
 20
106.00000
 30
 0
 11
212.96211
 21
106.00000
  0
ARC
  8
Contour
 62
   7
 39
0.100
  6
CONTINUOUS
 10
212.60855
 20
105.64645
 30
 0
 40
0.50000
 50
45.00000
 51
225.00000
  0
LINE
  8
Contour
 62
   7
 39
0.100
  6
CONTINUOUS
 10
212.25500
 20
105.29289
 30
 0
 11
212.25500
 21
69.70711
  0
ARC
  8
Contour
 62
   7
 39
0.100
  6
CONTINUOUS
 10
314.60855
 20
69.35355
 30
 0
 40
0.50000
 50
135.00000
 51
315.00000
  0
LINE
  8
Contour
 62
   7
 39
0.100
  6
CONTINUOUS
 10
314.96211
 20
69.00000
 30
 0
 11
393.54789
 21
69.00000
  0
ARC
  8
Contour
 62
   7
 39
0.100
  6
CONTINUOUS
 10
393.90145
 20
69.35355
 30
 0
 40
0.50000
 50
225.00000
 51
405.00000
  0
LINE
  8
Contour
 62
   7
 39
0.100
  6
CONTINUOUS
 10
394.25500
 20
69.70711
 30
 0
 11
394.25500
 21
105.29289
  0
ARC
  8
Contour
 62
   7
 39
0.100
  6
CONTINUOUS
 10
393.90145
 20
105.64645
 30
 0
 40
0.50000
 50
315.00000
 51
495.00000
  0
LINE
  8
Contour
 62
   7
 39
0.100
  6
CONTINUOUS
 10
393.54789
 20
106.00000
 30
 0
 11
314.96211
 21
106.00000
  0
ARC
  8
Contour
 62
   7
 39
0.100
  6
CONTINUOUS
 10
314.60855
 20
105.64645
 30
 0
 40
0.50000
 50
45.00000
 51
225.00000
  0
LINE
  8
Contour
 62
   7
 39
0.100
  6
CONTINUOUS
 10
314.25500
 20
105.29289
 30
 0
 11
314.25500
 21
69.70711
  0
ARC
  8
Contour
 62
   7
 39
0.100
  6
CONTINUOUS
 10
416.60855
 20
69.35355
 30
 0
 40
0.50000
 50
135.00000
 51
315.00000
  0
LINE
  8
Contour
 62
   7
 39
0.100
  6
CONTINUOUS
 10
416.96211
 20
69.00000
 30
 0
 11
495.54789
 21
69.00000
  0
ARC
  8
Contour
 62
   7
 39
0.100
  6
CONTINUOUS
 10
495.90145
 20
69.35355
 30
 0
 40
0.50000
 50
225.00000
 51
405.00000
  0
LINE
  8
Contour
 62
   7
 39
0.100
  6
CONTINUOUS
 10
496.25500
 20
69.70711
 30
 0
 11
496.25500
 21
105.29289
  0
ARC
  8
Contour
 62
   7
 39
0.100
  6
CONTINUOUS
 10
495.90145
 20
105.64645
 30
 0
 40
0.50000
 50
315.00000
 51
495.00000
  0
LINE
  8
Contour
 62
   7
 39
0.100
  6
CONTINUOUS
 10
495.54789
 20
106.00000
 30
 0
 11
416.96211
 21
106.00000
  0
ARC
  8
Contour
 62
   7
 39
0.100
  6
CONTINUOUS
 10
416.60855
 20
105.64645
 30
 0
 40
0.50000
 50
45.00000
 51
225.00000
  0
LINE
  8
Contour
 62
   7
 39
0.100
  6
CONTINUOUS
 10
416.25500
 20
105.29289
 30
 0
 11
416.25500
 21
69.70711
  0
ARC
  8
Contour
 62
   7
 39
0.100
  6
CONTINUOUS
 10
518.60855
 20
69.35355
 30
 0
 40
0.50000
 50
135.00000
 51
315.00000
  0
LINE
  8
Contour
 62
   7
 39
0.100
  6
CONTINUOUS
 10
518.96211
 20
69.00000
 30
 0
 11
597.54789
 21
69.00000
  0
ARC
  8
Contour
 62
   7
 39
0.100
  6
CONTINUOUS
 10
597.90145
 20
69.35355
 30
 0
 40
0.50000
 50
225.00000
 51
405.00000
  0
LINE
  8
Contour
 62
   7
 39
0.100
  6
CONTINUOUS
 10
598.25500
 20
69.70711
 30
 0
 11
598.25500
 21
105.29289
  0
ARC
  8
Contour
 62
   7
 39
0.100
  6
CONTINUOUS
 10
597.90145
 20
105.64645
 30
 0
 40
0.50000
 50
315.00000
 51
495.00000
  0
LINE
  8
Contour
 62
   7
 39
0.100
  6
CONTINUOUS
 10
597.54789
 20
106.00000
 30
 0
 11
518.96211
 21
106.00000
  0
ARC
  8
Contour
 62
   7
 39
0.100
  6
CONTINUOUS
 10
518.60855
 20
105.64645
 30
 0
 40
0.50000
 50
45.00000
 51
225.00000
  0
LINE
  8
Contour
 62
   7
 39
0.100
  6
CONTINUOUS
 10
518.25500
 20
105.29289
 30
 0
 11
518.25500
 21
69.70711
  0
CIRCLE
  8
Contour
 62
   7
 39
0.100
  6
CONTINUOUS
 10
252.25500
 20
22.00000
 30
 0
 40
6.25000
  0
CIRCLE
  8
Contour
 62
   7
 39
0.100
  6
CONTINUOUS
 10
354.25500
 20
22.00000
 30
 0
 40
6.25000
  0
CIRCLE
  8
Contour
 62
   7
 39
0.100
  6
CONTINUOUS
 10
456.25500
 20
22.00000
 30
 0
 40
6.25000
  0
CIRCLE
  8
Contour
 62
   7
 39
0.100
  6
CONTINUOUS
 10
558.25500
 20
22.00000
 30
 0
 40
6.25000
  0
LINE
  8
Points de référence
 62
   1
 39
0.100
  6
CONTINUOUS
 10
-3.96700
 20
0.00000
 30
 0
 11
3.96700
 21
0.00000
  0
LINE
  8
Points de référence
 62
   1
 39
0.100
  6
CONTINUOUS
 10
0.00000
 20
-3.96700
 30
 0
 11
0.00000
 21
3.96700
  0
LINE
  8
Points de référence
 62
   1
 39
0.100
  6
CONTINUOUS
 10
97.53800
 20
62.00000
 30
 0
 11
105.47200
 21
62.00000
  0
LINE
  8
Points de référence
 62
   1
 39
0.100
  6
CONTINUOUS
 10
101.50500
 20
58.03300
 30
 0
 11
101.50500
 21
65.96700
  0
LINE
  8
Points de référence
 62
   1
 39
0.100
  6
CONTINUOUS
 10
248.28800
 20
87.50000
 30
 0
 11
256.22200
 21
87.50000
  0
LINE
  8
Points de référence
 62
   1
 39
0.100
  6
CONTINUOUS
 10
252.25500
 20
83.53300
 30
 0
 11
252.25500
 21
91.46700
  0
LINE
  8
Points de référence
 62
   1
 39
0.100
  6
CONTINUOUS
 10
350.28800
 20
87.50000
 30
 0
 11
358.22200
 21
87.50000
  0
LINE
  8
Points de référence
 62
   1
 39
0.100
  6
CONTINUOUS
 10
354.25500
 20
83.53300
 30
 0
 11
354.25500
 21
91.46700
  0
LINE
  8
Points de référence
 62
   1
 39
0.100
  6
CONTINUOUS
 10
452.28800
 20
87.50000
 30
 0
 11
460.22200
 21
87.50000
  0
LINE
  8
Points de référence
 62
   1
 39
0.100
  6
CONTINUOUS
 10
456.25500
 20
83.53300
 30
 0
 11
456.25500
 21
91.46700
  0
LINE
  8
Points de référence
 62
   1
 39
0.100
  6
CONTINUOUS
 10
554.28800
 20
87.50000
 30
 0
 11
562.22200
 21
87.50000
  0
LINE
  8
Points de référence
 62
   1
 39
0.100
  6
CONTINUOUS
 10
558.25500
 20
83.53300
 30
 0
 11
558.25500
 21
91.46700
  0
LINE
  8
Points de référence
 62
   1
 39
0.100
  6
CONTINUOUS
 10
248.28800
 20
22.00000
 30
 0
 11
256.22200
 21
22.00000
  0
LINE
  8
Points de référence
 62
   1
 39
0.100
  6
CONTINUOUS
 10
252.25500
 20
18.03300
 30
 0
 11
252.25500
 21
25.96700
  0
LINE
  8
Points de référence
 62
   1
 39
0.100
  6
CONTINUOUS
 10
350.28800
 20
22.00000
 30
 0
 11
358.22200
 21
22.00000
  0
LINE
  8
Points de référence
 62
   1
 39
0.100
  6
CONTINUOUS
 10
354.25500
 20
18.03300
 30
 0
 11
354.25500
 21
25.96700
  0
LINE
  8
Points de référence
 62
   1
 39
0.100
  6
CONTINUOUS
 10
452.28800
 20
22.00000
 30
 0
 11
460.22200
 21
22.00000
  0
LINE
  8
Points de référence
 62
   1
 39
0.100
  6
CONTINUOUS
 10
456.25500
 20
18.03300
 30
 0
 11
456.25500
 21
25.96700
  0
LINE
  8
Points de référence
 62
   1
 39
0.100
  6
CONTINUOUS
 10
554.28800
 20
22.00000
 30
 0
 11
562.22200
 21
22.00000
  0
LINE
  8
Points de référence
 62
   1
 39
0.100
  6
CONTINUOUS
 10
558.25500
 20
18.03300
 30
 0
 11
558.25500
 21
25.96700
  0
ENDSEC
  0
EOF
