999
dxflib 2.2.0.0
  0
SECTION
  2
HEADER
  9
$ACADVER
  1
AC1015
  9
$HANDSEED
  5
FFFF
  9
$USERR4
 40
0.0
  9
$DIMTDEC
 70
2
  9
$DIMTAD
 70
1
  9
$CMLSTYLE
  2
Standard
  9
$VISRETAIN
 70
1
  9
$TILEMODE
 70
1
  9
$SHADEDIF
 70
70
  9
$USERR5
 40
0.0
  9
$UCSYDIR
 10
0.0
 20
1.0
 30
0.0
  9
$CHAMFERA
 40
10.0
  9
$MENU
  1
.
  9
$DIMALTZ
 70
0
  9
$CLAYER
  8
0
  9
$OLESTARTUP
290
0
  9
$UCSXDIR
 10
1.0
 20
0.0
 30
0.0
  9
$CHAMFERB
 40
10.0
  9
$DIMADEC
 70
2
  9
$DIMUPT
 70
0
  9
$DIMASZ
 40
6.0
  9
$TRACEWID
 40
1.0
  9
$REGENMODE
 70
1
  9
$ORTHOMODE
 70
0
  9
$EXTMIN
 10
0.0
 20
-26.0
 30
0.0
  9
$ENDCAPS
280
0
  9
$MEASUREMENT
 70
1
  9
$CMLJUST
 70
0
  9
$PUCSYDIR
 10
0.0
 20
1.0
 30
0.0
  9
$ANGBASE
 50
0.0
  9
$USRTIMER
 70
1
  9
$CHAMFERC
 40
20.0
  9
$SKETCHINC
 40
1.0
  9
$DIMGAP
 40
1.524
  9
$DIMTFAC
 40
1.0
  9
$DIMSAH
 70
0
  9
$DIMALT
 70
0
  9
$DIMSHO
 70
1
  9
$VERSIONGUID
  2
{FAEB1C32-E019-11D5-929B-00C0DF256EC4}
  9
$LWDISPLAY
290
1
  9
$PUCSXDIR
 10
1.0
 20
0.0
 30
0.0
  9
$SURFTYPE
 70
6
  9
$SPLFRAME
 70
0
  9
$CHAMFERD
 40
0.0
  9
$DIMALTRND
 40
0.0
  9
$DIMALTTD
 70
3
  9
$DIMTSZ
 40
0.0
  9
$LIMMIN
 10
0.0
 20
0.0
  9
$CELWEIGHT
370
-1
  9
$SURFTAB1
 70
6
  9
$SPLINESEGS
 70
8
  9
$AUPREC
 70
2
  9
$LUNITS
 70
2
  9
$DWGCODEPAGE
  3
ANSI_1252
  9
$PSTYLEMODE
290
1
  9
$UNITMODE
 70
0
  9
$USERI1
 70
0
  9
$UCSORTHOVIEW
 70
0
  9
$SURFTAB2
 70
6
  9
$TDUUPDATE
 40
2455903.4186574770137668
  9
$TDUCREATE
 40
2455903.4186574649065733
  9
$SKPOLY
 70
0
  9
$ELEVATION
 40
0.0
  9
$DIMDSEP
 70
44
  9
$DIMCEN
 40
2.5
  9
$DIMRND
 40
0.0
  9
$INSBASE
 10
0.0
 20
0.0
 30
0.0
  9
$INSUNITS
 70
4
  9
$USERI2
 70
0
  9
$UCSORGRIGHT
 10
0.0
 20
0.0
 30
0.0
  9
$UCSORG
 10
0.0
 20
0.0
 30
0.0
  9
$PELEVATION
 40
0.0
  9
$DIMEXO
 40
1.0
  9
$TEXTSIZE
 40
3.5
  9
$FILLMODE
 70
1
  9
$EXTMAX
 10
140.0
 20
114.0
 30
0.0
  9
$JOINSTYLE
280
0
  9
$USERI3
 70
0
  9
$PUCSORGBOTTOM
 10
0.0
 20
0.0
 30
0.0
  9
$SURFU
 70
6
  9
$ANGDIR
 70
0
  9
$TDUSRTIMER
 40
0.0000000116
  9
$DIMLWD
 70
-2
  9
$DIMTZIN
 70
0
  9
$DIMTOLJ
 70
0
  9
$DIMZIN
 70
0
  9
$DIMDLE
 40
0.0
  9
$DIMSCALE
 40
1.0
  9
$WORLDVIEW
 70
1
  9
$USERI4
 70
0
  9
$SURFV
 70
6
  9
$DIMLWE
 70
-2
  9
$DIMLUNIT
 70
2
  9
$DIMATFIT
 70
3
  9
$DIMALTTZ
 70
0
  9
$DIMJUST
 70
0
  9
$QTEXTMODE
 70
0
  9
$LIMMAX
 10
420.0
 20
297.0
  9
$ACADMAINTVER
 70
6
  9
$EXTNAMES
290
1
  9
$PROXYGRAPHICS
 70
1
  9
$USERI5
 70
0
  9
$UCSORGTOP
 10
0.0
 20
0.0
 30
0.0
  9
$PDMODE
 70
0
  9
$LIMCHECK
 70
0
  9
$THICKNESS
 40
0.0
  9
$DIMAZIN
 70
0
  9
$DIMSE1
 70
0
  9
$DIMLIM
 70
0
  9
$DIMTXT
 40
3.5
  9
$ATTMODE
 70
1
  9
$XEDIT
290
1
  9
$PEXTMAX
 10
-100000000000000000000.0
 20
-100000000000000000000.0
 30
-100000000000000000000.0
  9
$PEXTMIN
 10
100000000000000000000.0
 20
100000000000000000000.0
 30
100000000000000000000.0
  9
$PUCSORG
 10
0.0
 20
0.0
 30
0.0
  9
$SPLINETYPE
 70
6
  9
$TDINDWG
 40
0.0000000116
  9
$LUPREC
 70
2
  9
$DIMSOXD
 70
0
  9
$DIMLFAC
 40
1.0
  9
$DIMSE2
 70
0
  9
$DIMTOH
 70
1
  9
$CELTYPE
  6
ByLayer
  9
$PSVPSCALE
 40
0.0
  9
$FINGERPRINTGUID
  2
{D901088E-13AB-4D07-85C3-968F75390CAF}
  9
$PLIMCHECK
 70
0
  9
$PUCSORGRIGHT
 10
0.0
 20
0.0
 30
0.0
  9
$PLINEWID
 40
0.0
  9
$DIMFRAC
 70
0
  9
$DIMSTYLE
  2
ISO-25
  9
$DIMTVP
 40
0.0
  9
$DIMASO
 70
1
  9
$DIMTM
 40
0.0
  9
$DIMDLI
 40
3.75
  9
$DISPSILH
 70
0
  9
$CECOLOR
 62
256
  9
$TREEDEPTH
 70
3020
  9
$PLIMMAX
 10
420.0
 20
297.0
  9
$PLIMMIN
 10
0.0
 20
0.0
  9
$MAXACTVP
 70
64
  9
$UCSORGBACK
 10
0.0
 20
0.0
 30
0.0
  9
$UCSORGLEFT
 10
0.0
 20
0.0
 30
0.0
  9
$TDUPDATE
 40
2455903.4186574770137668
  9
$FILLETRAD
 40
10.0
  9
$DIMALTU
 70
2
  9
$DIMDEC
 70
2
  9
$DIMCLRT
 70
0
  9
$DIMALTD
 70
3
  9
$DIMTIH
 70
1
  9
$LTSCALE
 40
1.0
  9
$CEPSNTYPE
380
0
  9
$CMLSCALE
 40
20.0
  9
$PINSBASE
 10
0.0
 20
0.0
 30
0.0
  9
$USERR1
 40
0.0
  9
$PUCSORTHOVIEW
 70
0
  9
$PDSIZE
 40
-1.0
  9
$DIMTXSTY
  7
Standard
  9
$DIMCLRD
 70
0
  9
$DIMEXE
 40
1.0
  9
$CELTSCALE
 40
1.0
  9
$PSLTSCALE
 70
1
  9
$PLINEGEN
 70
0
  9
$SHADEDGE
 70
3
  9
$USERR2
 40
0.0
  9
$PUCSORGTOP
 10
0.0
 20
0.0
 30
0.0
  9
$UCSORGFRONT
 10
0.0
 20
0.0
 30
0.0
  9
$TDCREATE
 40
2455903.4186574649065733
  9
$DIMTMOVE
 70
0
  9
$DIMAUNIT
 70
0
  9
$DIMSD1
 70
0
  9
$DIMCLRE
 70
0
  9
$DIMTOFL
 70
1
  9
$DIMALTF
 40
0.0393700787
  9
$DIMTOL
 70
0
  9
$DIMTP
 40
0.0
  9
$TEXTSTYLE
  7
Standard
  9
$USERR3
 40
0.0
  9
$PUCSORGBACK
 10
0.0
 20
0.0
 30
0.0
  9
$PUCSORGFRONT
 10
0.0
 20
0.0
 30
0.0
  9
$PUCSORGLEFT
 10
0.0
 20
0.0
 30
0.0
  9
$UCSORGBOTTOM
 10
0.0
 20
0.0
 30
0.0
  9
$AUNITS
 70
0
  9
$DIMSD2
 70
0
  9
$DIMTIX
 70
0
  9
$MIRRTEXT
 70
1
  0
ENDSEC
  0
SECTION
  2
TABLES
  0
TABLE
  2
VPORT
  5
8
100
AcDbSymbolTable
 70
1
  0
VPORT
  5
30
100
AcDbSymbolTableRecord
100
AcDbViewportTableRecord
  2
*Active
 70
0
 10
0.0
 20
0.0
 11
1.0
 21
1.0
 12
286.3055555555554861
 22
148.5
 13
0.0
 23
0.0
 14
10.0
 24
10.0
 15
10.0
 25
10.0
 16
0.0
 26
0.0
 36
1.0
 17
0.0
 27
0.0
 37
0.0
 40
297.0
 41
1.92798353909465
 42
50.0
 43
0.0
 44
0.0
 50
0.0
 51
0.0
 71
0
 72
100
 73
1
 74
3
 75
1
 76
1
 77
0
 78
0
281
0
 65
1
110
0.0
120
0.0
130
0.0
111
1.0
121
0.0
131
0.0
112
0.0
122
1.0
132
0.0
 79
0
146
0.0
  0
ENDTAB
  0
TABLE
  2
LTYPE
  5
5
100
AcDbSymbolTable
 70
21
  0
LTYPE
  5
14
100
AcDbSymbolTableRecord
100
AcDbLinetypeTableRecord
  2
ByBlock
 70
0
  3

 72
65
 73
0
 40
0.0
  0
LTYPE
  5
15
100
AcDbSymbolTableRecord
100
AcDbLinetypeTableRecord
  2
ByLayer
 70
0
  3

 72
65
 73
0
 40
0.0
  0
LTYPE
  5
16
100
AcDbSymbolTableRecord
100
AcDbLinetypeTableRecord
  2
CONTINUOUS
 70
0
  3
Solid line
 72
65
 73
0
 40
0.0
  0
LTYPE
  5
31
100
AcDbSymbolTableRecord
100
AcDbLinetypeTableRecord
  2
DOT
 70
0
  3
Dot . . . . . . . . . . . . . . . . . . . . . .
 72
65
 73
2
 40
6.3499999999999996
 49
0.0
 74
0
 49
-6.3499999999999996
 74
0
  0
LTYPE
  5
32
100
AcDbSymbolTableRecord
100
AcDbLinetypeTableRecord
  2
DOT2
 70
0
  3
Dot (.5x) .....................................
 72
65
 73
2
 40
3.1749999999999998
 49
0.0
 74
0
 49
-3.1749999999999998
 74
0
  0
LTYPE
  5
33
100
AcDbSymbolTableRecord
100
AcDbLinetypeTableRecord
  2
DOTX2
 70
0
  3
Dot (2x) .  .  .  .  .  .  .  .  .  .  .  .  .
 72
65
 73
2
 40
12.6999999999999993
 49
0.0
 74
0
 49
-12.6999999999999993
 74
0
  0
LTYPE
  5
34
100
AcDbSymbolTableRecord
100
AcDbLinetypeTableRecord
  2
DASHED
 70
0
  3
Dashed __ __ __ __ __ __ __ __ __ __ __ __ __ _
 72
65
 73
2
 40
19.0500000000000007
 49
12.6999999999999993
 74
0
 49
-6.3499999999999996
 74
0
  0
LTYPE
  5
35
100
AcDbSymbolTableRecord
100
AcDbLinetypeTableRecord
  2
DASHED2
 70
0
  3
Dashed (.5x) _ _ _ _ _ _ _ _ _ _ _ _ _ _ _ _ _
 72
65
 73
2
 40
9.5250000000000004
 49
6.3499999999999996
 74
0
 49
-3.1749999999999998
 74
0
  0
LTYPE
  5
36
100
AcDbSymbolTableRecord
100
AcDbLinetypeTableRecord
  2
DASHEDX2
 70
0
  3
Dashed (2x) ____  ____  ____  ____  ____  ___
 72
65
 73
2
 40
38.1000000000000014
 49
25.3999999999999986
 74
0
 49
-12.6999999999999993
 74
0
  0
LTYPE
  5
37
100
AcDbSymbolTableRecord
100
AcDbLinetypeTableRecord
  2
DASHDOT
 70
0
  3
Dash dot __ . __ . __ . __ . __ . __ . __ . __
 72
65
 73
4
 40
25.3999999999999986
 49
12.6999999999999993
 74
0
 49
-6.3499999999999996
 74
0
 49
0.0
 74
0
 49
-6.3499999999999996
 74
0
  0
LTYPE
  5
38
100
AcDbSymbolTableRecord
100
AcDbLinetypeTableRecord
  2
DASHDOT2
 70
0
  3
Dash dot (.5x) _._._._._._._._._._._._._._._.
 72
65
 73
4
 40
12.6999999999999993
 49
6.3499999999999996
 74
0
 49
-3.1749999999999998
 74
0
 49
0.0
 74
0
 49
-3.1749999999999998
 74
0
  0
LTYPE
  5
39
100
AcDbSymbolTableRecord
100
AcDbLinetypeTableRecord
  2
DASHDOTX2
 70
0
  3
Dash dot (2x) ____  .  ____  .  ____  .  ___
 72
65
 73
4
 40
50.7999999999999972
 49
25.3999999999999986
 74
0
 49
-12.6999999999999993
 74
0
 49
0.0
 74
0
 49
-12.6999999999999993
 74
0
  0
LTYPE
  5
3A
100
AcDbSymbolTableRecord
100
AcDbLinetypeTableRecord
  2
DIVIDE
 70
0
  3
Divide ____ . . ____ . . ____ . . ____ . . ____
 72
65
 73
6
 40
31.75
 49
12.6999999999999993
 74
0
 49
-6.3499999999999996
 74
0
 49
0.0
 74
0
 49
-6.3499999999999996
 74
0
 49
0.0
 74
0
 49
-6.3499999999999996
 74
0
  0
LTYPE
  5
3B
100
AcDbSymbolTableRecord
100
AcDbLinetypeTableRecord
  2
DIVIDE2
 70
0
  3
Divide (.5x) __..__..__..__..__..__..__..__.._
 72
65
 73
6
 40
15.875
 49
6.3499999999999996
 74
0
 49
-3.1749999999999998
 74
0
 49
0.0
 74
0
 49
-3.1749999999999998
 74
0
 49
0.0
 74
0
 49
-3.1749999999999998
 74
0
  0
LTYPE
  5
3C
100
AcDbSymbolTableRecord
100
AcDbLinetypeTableRecord
  2
DIVIDEX2
 70
0
  3
Divide (2x) ________  .  .  ________  .  .  _
 72
65
 73
6
 40
63.5
 49
25.3999999999999986
 74
0
 49
-12.6999999999999993
 74
0
 49
0.0
 74
0
 49
-12.6999999999999993
 74
0
 49
0.0
 74
0
 49
-12.6999999999999993
 74
0
  0
LTYPE
  5
3D
100
AcDbSymbolTableRecord
100
AcDbLinetypeTableRecord
  2
CENTER
 70
0
  3
Center ____ _ ____ _ ____ _ ____ _ ____ _ ____
 72
65
 73
4
 40
50.7999999999999972
 49
31.75
 74
0
 49
-6.3499999999999996
 74
0
 49
6.3499999999999996
 74
0
 49
-6.3499999999999996
 74
0
  0
LTYPE
  5
3E
100
AcDbSymbolTableRecord
100
AcDbLinetypeTableRecord
  2
CENTER2
 70
0
  3
Center (.5x) ___ _ ___ _ ___ _ ___ _ ___ _ ___
 72
65
 73
4
 40
28.5749999999999993
 49
19.0500000000000007
 74
0
 49
-3.1749999999999998
 74
0
 49
3.1749999999999998
 74
0
 49
-3.1749999999999998
 74
0
  0
LTYPE
  5
3F
100
AcDbSymbolTableRecord
100
AcDbLinetypeTableRecord
  2
CENTERX2
 70
0
  3
Center (2x) ________  __  ________  __  _____
 72
65
 73
4
 40
101.5999999999999943
 49
63.5
 74
0
 49
-12.6999999999999993
 74
0
 49
12.6999999999999993
 74
0
 49
-12.6999999999999993
 74
0
  0
LTYPE
  5
40
100
AcDbSymbolTableRecord
100
AcDbLinetypeTableRecord
  2
BORDER
 70
0
  3
Border __ __ . __ __ . __ __ . __ __ . __ __ .
 72
65
 73
6
 40
44.4500000000000028
 49
12.6999999999999993
 74
0
 49
-6.3499999999999996
 74
0
 49
12.6999999999999993
 74
0
 49
-6.3499999999999996
 74
0
 49
0.0
 74
0
 49
-6.3499999999999996
 74
0
  0
LTYPE
  5
41
100
AcDbSymbolTableRecord
100
AcDbLinetypeTableRecord
  2
BORDER2
 70
0
  3
Border (.5x) __.__.__.__.__.__.__.__.__.__.__.
 72
65
 73
6
 40
22.2250000000000014
 49
6.3499999999999996
 74
0
 49
-3.1749999999999998
 74
0
 49
6.3499999999999996
 74
0
 49
-3.1749999999999998
 74
0
 49
0.0
 74
0
 49
-3.1749999999999998
 74
0
  0
LTYPE
  5
42
100
AcDbSymbolTableRecord
100
AcDbLinetypeTableRecord
  2
BORDERX2
 70
0
  3
Border (2x) ____  ____  .  ____  ____  .  ___
 72
65
 73
6
 40
88.9000000000000057
 49
25.3999999999999986
 74
0
 49
-12.6999999999999993
 74
0
 49
25.3999999999999986
 74
0
 49
-12.6999999999999993
 74
0
 49
0.0
 74
0
 49
-12.6999999999999993
 74
0
  0
ENDTAB
  0
TABLE
  2
LAYER
  5
2
100
AcDbSymbolTable
 70
1
  0
LAYER
  5
10
100
AcDbSymbolTableRecord
100
AcDbLayerTableRecord
  2
0
 70
0
 62
7
  6
CONTINUOUS
370
-3
390
F
  0
ENDTAB
  0
TABLE
  2
STYLE
  5
3
100
AcDbSymbolTable
 70
1
  0
STYLE
  5
11
100
AcDbSymbolTableRecord
100
AcDbTextStyleTableRecord
  2
Standard
 70
0
 40
0.0
 41
0.75
 50
0.0
 71
0
 42
2.5
  3
txt
  4

  0
ENDTAB
  0
TABLE
  2
VIEW
  5
6
100
AcDbSymbolTable
 70
0
  0
ENDTAB
  0
TABLE
  2
UCS
  5
7
100
AcDbSymbolTable
 70
0
  0
ENDTAB
  0
TABLE
  2
APPID
  5
9
100
AcDbSymbolTable
 70
1
  0
APPID
  5
12
100
AcDbSymbolTableRecord
100
AcDbRegAppTableRecord
  2
ACAD
 70
0
  0
ENDTAB
  0
TABLE
  2
DIMSTYLE
  5
A
100
AcDbSymbolTable
 70
1
100
AcDbDimStyleTable
 71
0
  0
DIMSTYLE
105
27
100
AcDbSymbolTableRecord
100
AcDbDimStyleTableRecord
  2
Standard
 41
6.0
 42
1.0
 43
3.75
 44
1.0
 70
0
 73
0
 74
0
 77
1
 78
8
140
3.5
141
2.5
143
0.03937007874016
147
1.524
171
3
172
1
271
2
272
2
274
3
278
44
283
0
284
8
340
11
  0
ENDTAB
  0
TABLE
  2
BLOCK_RECORD
  5
1
100
AcDbSymbolTable
 70
1
  0
BLOCK_RECORD
  5
1F
100
AcDbSymbolTableRecord
100
AcDbBlockTableRecord
  2
*Model_Space
340
22
  0
BLOCK_RECORD
  5
1B
100
AcDbSymbolTableRecord
100
AcDbBlockTableRecord
  2
*Paper_Space
340
1E
  0
BLOCK_RECORD
  5
23
100
AcDbSymbolTableRecord
100
AcDbBlockTableRecord
  2
*Paper_Space0
340
26
  0
ENDTAB
  0
ENDSEC
  0
SECTION
  2
BLOCKS
  0
BLOCK
  5
20
100
AcDbEntity
  8
0
100
AcDbBlockBegin
  2
*Model_Space
 70
0
 10
0.0
 20
0.0
 30
0.0
  3
*Model_Space
  1

  0
ENDBLK
  5
21
100
AcDbEntity
  8
0
100
AcDbBlockEnd
  0
BLOCK
  5
1C
100
AcDbEntity
 67
1
  8
0
100
AcDbBlockBegin
  2
*Paper_Space
 70
0
 10
0.0
 20
0.0
 30
0.0
  3
*Paper_Space
  1

  0
ENDBLK
  5
1D
100
AcDbEntity
 67
1
  8
0
100
AcDbBlockEnd
  0
BLOCK
  5
24
100
AcDbEntity
  8
0
100
AcDbBlockBegin
  2
*Paper_Space0
 70
0
 10
0.0
 20
0.0
 30
0.0
  3
*Paper_Space0
  1

  0
ENDBLK
  5
25
100
AcDbEntity
  8
0
100
AcDbBlockEnd
  0
ENDSEC
  0
SECTION
  2
ENTITIES
  0
CIRCLE
  5
43
100
AcDbEntity
100
AcDbCircle
  8
0
 62
7
370
15
  6
CONTINUOUS
 10
130.0
 20
22.0
 30
0.0
 40
1.649999999999977
  0
CIRCLE
  5
44
100
AcDbEntity
100
AcDbCircle
  8
0
 62
7
370
15
  6
CONTINUOUS
 10
10.0
 20
66.0
 30
0.0
 40
1.649999999999977
  0
CIRCLE
  5
45
100
AcDbEntity
100
AcDbCircle
  8
0
 62
7
370
15
  6
CONTINUOUS
 10
130.0
 20
66.0
 30
0.0
 40
1.6500000000000059
  0
CIRCLE
  5
46
100
AcDbEntity
100
AcDbCircle
  8
0
 62
7
370
15
  6
CONTINUOUS
 10
10.0
 20
22.0
 30
0.0
 40
1.649999999999993
  0
LINE
  5
47
100
AcDbEntity
100
AcDbLine
  8
0
 62
7
370
15
  6
CONTINUOUS
 10
140.0
 20
114.0
 30
0.0
 11
0.0
 21
114.0
 31
0.0
  0
LINE
  5
48
100
AcDbEntity
100
AcDbLine
  8
0
 62
7
370
15
  6
CONTINUOUS
 10
139.9999818857000093
 20
66.0
 30
0.0
 11
140.0
 21
114.0
 31
0.0
  0
LINE
  5
49
100
AcDbEntity
100
AcDbLine
  8
0
 62
7
370
15
  6
CONTINUOUS
 10
130.0
 20
60.0
 30
0.0
 11
139.9999818857000093
 21
66.0
 31
0.0
  0
LINE
  5
4A
100
AcDbEntity
100
AcDbLine
  8
0
 62
7
370
15
  6
CONTINUOUS
 10
130.0
 20
28.0
 30
0.0
 11
130.0
 21
60.0
 31
0.0
  0
LINE
  5
4B
100
AcDbEntity
100
AcDbLine
  8
0
 62
7
370
15
  6
CONTINUOUS
 10
139.9999818857000093
 20
22.0
 30
0.0
 11
130.0
 21
28.0
 31
0.0
  0
LINE
  5
4C
100
AcDbEntity
100
AcDbLine
  8
0
 62
7
370
15
  6
CONTINUOUS
 10
140.0
 20
-26.0
 30
0.0
 11
139.9999818857000093
 21
22.0
 31
0.0
  0
LINE
  5
4D
100
AcDbEntity
100
AcDbLine
  8
0
 62
7
370
15
  6
CONTINUOUS
 10
0.0
 20
114.0
 30
0.0
 11
0.0
 21
-26.0
 31
0.0
  0
CIRCLE
  5
4E
100
AcDbEntity
100
AcDbCircle
  8
0
 62
256
370
-1
  6
ByLayer
 10
10.0
 20
66.0
 30
0.0
 40
3.5
  0
CIRCLE
  5
4F
100
AcDbEntity
100
AcDbCircle
  8
0
 62
256
370
-1
  6
ByLayer
 10
10.0
 20
22.0
 30
0.0
 40
3.5
  0
CIRCLE
  5
50
100
AcDbEntity
100
AcDbCircle
  8
0
 62
256
370
-1
  6
ByLayer
 10
130.0
 20
22.0
 30
0.0
 40
3.5
  0
CIRCLE
  5
51
100
AcDbEntity
100
AcDbCircle
  8
0
 62
256
370
-1
  6
ByLayer
 10
130.0
 20
66.0
 30
0.0
 40
3.5
  0
LINE
  5
52
100
AcDbEntity
100
AcDbLine
  8
0
 62
256
370
-1
  6
ByLayer
 10
38.3583135431576281
 20
41.6201711182650911
 30
0.0
 11
38.3583135431576281
 21
46.6201716738206429
 31
0.0
  0
LINE
  5
53
100
AcDbEntity
100
AcDbLine
  8
0
 62
256
370
-1
  6
ByLayer
 10
38.3583135431576281
 20
46.6201716738206429
 30
0.0
 11
39.7472024320465138
 21
46.6201716738206429
 31
0.0
  0
LINE
  5
54
100
AcDbEntity
100
AcDbLine
  8
0
 62
256
370
-1
  6
ByLayer
 10
38.3583135431576281
 20
44.3979488960428696
 30
0.0
 11
39.802813543157626
 21
44.3979488960428696
 31
0.0
  0
LINE
  5
55
100
AcDbEntity
100
AcDbLine
  8
0
 62
256
370
-1
  6
ByLayer
 10
41.1360913209354067
 20
43.0646155627095268
 30
0.0
 11
41.1360913209354067
 21
42.9535038960428679
 31
0.0
  0
LINE
  5
56
100
AcDbEntity
100
AcDbLine
  8
0
 62
256
370
-1
  6
ByLayer
 10
39.802813543157626
 20
41.6201711183538876
 30
0.0
 11
38.3583135431576281
 21
41.6201711182650911
 31
0.0
  0
ARC
  5
57
100
AcDbEntity
  8
0
 62
256
370
-1
  6
ByLayer
100
AcDbCircle
 10
39.7472024320465138
 20
45.5090605627095357
 30
0.0
 40
1.1111111111111112
100
AcDbArc
 50
270.0
 51
90.0
  0
ARC
  5
58
100
AcDbEntity
  8
0
 62
256
370
-1
  6
ByLayer
100
AcDbCircle
 10
39.802813543157626
 20
43.0646155627095268
 30
0.0
 40
1.3333333333333333
100
AcDbArc
 50
0.0
 51
90.0
  0
ARC
  5
59
100
AcDbEntity
  8
0
 62
256
370
-1
  6
ByLayer
100
AcDbCircle
 10
39.802813543157626
 20
42.9535038960428679
 30
0.0
 40
1.3333333333333333
100
AcDbArc
 50
270.0
 51
0.0
  0
LINE
  5
5A
100
AcDbEntity
100
AcDbLine
  8
0
 62
256
370
-1
  6
ByLayer
 10
45.0249802098242924
 20
46.6201716738206429
 30
0.0
 11
42.802813543157626
 21
46.6201716738206429
 31
0.0
  0
LINE
  5
5B
100
AcDbEntity
100
AcDbLine
  8
0
 62
256
370
-1
  6
ByLayer
 10
42.802813543157626
 20
46.6201716738206429
 30
0.0
 11
42.8028140987131778
 21
41.6201716738206429
 31
0.0
  0
LINE
  5
5C
100
AcDbEntity
100
AcDbLine
  8
0
 62
256
370
-1
  6
ByLayer
 10
42.8028140987131778
 20
41.6201716738206429
 30
0.0
 11
45.0249802098242924
 21
41.6201711187478978
 31
0.0
  0
LINE
  5
5D
100
AcDbEntity
100
AcDbLine
  8
0
 62
256
370
-1
  6
ByLayer
 10
42.802813543157626
 20
44.3979488960428696
 30
0.0
 11
44.4694246542687353
 21
44.3979488960428696
 31
0.0
  0
LINE
  5
5E
100
AcDbEntity
100
AcDbLine
  8
0
 62
256
370
-1
  6
ByLayer
 10
46.6915913209354088
 20
41.6201711182650911
 30
0.0
 11
48.3582579876020731
 21
41.6201711185056666
 31
0.0
  0
LINE
  5
5F
100
AcDbEntity
100
AcDbLine
  8
0
 62
256
370
-1
  6
ByLayer
 10
49.4693690987131873
 20
42.7312827849317571
 30
0.0
 11
49.4693690987131873
 21
45.5090605627095357
 31
0.0
  0
LINE
  5
60
100
AcDbEntity
100
AcDbLine
  8
0
 62
256
370
-1
  6
ByLayer
 10
48.3582579876020731
 20
46.6201716738206429
 30
0.0
 11
46.6915913209354088
 21
46.6201716738206429
 31
0.0
  0
LINE
  5
61
100
AcDbEntity
100
AcDbLine
  8
0
 62
256
370
-1
  6
ByLayer
 10
46.6915913209354088
 20
46.6201716738206429
 30
0.0
 11
46.6915913209354088
 21
41.6201711182650911
 31
0.0
  0
ARC
  5
62
100
AcDbEntity
  8
0
 62
256
370
-1
  6
ByLayer
100
AcDbCircle
 10
48.3582579876020731
 20
42.7312827849317571
 30
0.0
 40
1.1111111111111112
100
AcDbArc
 50
270.0
 51
0.0
  0
ARC
  5
63
100
AcDbEntity
  8
0
 62
256
370
-1
  6
ByLayer
100
AcDbCircle
 10
48.3582579876020731
 20
45.5090605627095357
 30
0.0
 40
1.1111111111111112
100
AcDbArc
 50
0.0
 51
90.0
  0
LINE
  5
64
100
AcDbEntity
100
AcDbLine
  8
0
 62
256
370
-1
  6
ByLayer
 10
54.8860357653798445
 20
46.6201716738206358
 30
0.0
 11
54.8860363209353963
 21
41.6201716738206358
 31
0.0
  0
LINE
  5
65
100
AcDbEntity
100
AcDbLine
  8
0
 62
256
370
-1
  6
ByLayer
 10
57.6638135431576231
 20
41.6201711184871428
 30
0.0
 11
57.6638135431576231
 21
46.6201716738206358
 31
0.0
  0
LINE
  5
66
100
AcDbEntity
100
AcDbLine
  8
0
 62
256
370
-1
  6
ByLayer
 10
54.8860357653798445
 20
44.3979488960428625
 30
0.0
 11
57.6638135431576231
 21
44.3979488960428625
 31
0.0
  0
LINE
  5
67
100
AcDbEntity
100
AcDbLine
  8
0
 62
256
370
-1
  6
ByLayer
 10
61.5526468764909538
 20
46.6201716738206215
 30
0.0
 11
59.3304802098242874
 21
46.6201716738206215
 31
0.0
  0
LINE
  5
68
100
AcDbEntity
100
AcDbLine
  8
0
 62
256
370
-1
  6
ByLayer
 10
59.3304802098242874
 20
46.6201716738206215
 30
0.0
 11
59.3304807653798392
 21
41.6201716738206215
 31
0.0
  0
LINE
  5
69
100
AcDbEntity
100
AcDbLine
  8
0
 62
256
370
-1
  6
ByLayer
 10
59.3304807653798392
 20
41.6201716738206215
 30
0.0
 11
61.5526468764909538
 21
41.6201711187478764
 31
0.0
  0
LINE
  5
6A
100
AcDbEntity
100
AcDbLine
  8
0
 62
256
370
-1
  6
ByLayer
 10
59.3304802098242874
 20
44.3979488960428483
 30
0.0
 11
60.9970913209353967
 21
44.3979488960428483
 31
0.0
  0
LINE
  5
6B
100
AcDbEntity
100
AcDbLine
  8
0
 62
256
370
-1
  6
ByLayer
 10
63.2192579876020702
 20
41.6201711182650698
 30
0.0
 11
64.8858690987131723
 21
46.6201716738206215
 31
0.0
  0
LINE
  5
6C
100
AcDbEntity
100
AcDbLine
  8
0
 62
256
370
-1
  6
ByLayer
 10
64.8858690987131723
 20
46.6201716738206215
 30
0.0
 11
66.5527024320465159
 21
41.6201711162609271
 31
0.0
  0
LINE
  5
6D
100
AcDbEntity
100
AcDbLine
  8
0
 62
256
370
-1
  6
ByLayer
 10
63.682257987602064
 20
43.0090605627095073
 30
0.0
 11
66.0896468764909599
 21
43.0090605627095073
 31
0.0
  0
LINE
  5
6E
100
AcDbEntity
100
AcDbLine
  8
0
 62
256
370
-1
  6
ByLayer
 10
68.219313543157611
 20
46.6201716738206144
 30
0.0
 11
71.5527579876020638
 21
46.6201716738206144
 31
0.0
  0
LINE
  5
6F
100
AcDbEntity
100
AcDbLine
  8
0
 62
256
370
-1
  6
ByLayer
 10
69.8859802098242824
 20
46.6201716738206144
 30
0.0
 11
69.8859802098242824
 21
41.6201711185056382
 31
0.0
  0
LINE
  5
70
100
AcDbEntity
100
AcDbLine
  8
0
 62
256
370
-1
  6
ByLayer
 10
77.5758690987131843
 20
44.519220562709485
 30
0.0
 11
79.1407024320465098
 21
43.7211211182650388
 31
0.0
  0
ARC
  5
71
100
AcDbEntity
  8
0
 62
256
370
-1
  6
ByLayer
100
AcDbCircle
 10
78.0805913209353974
 20
42.9396155627094842
 30
0.0
 40
3.6805555555555558
100
AcDbArc
 50
63.0745840000000015
 51
90.0
  0
ARC
  5
72
100
AcDbEntity
  8
0
 62
256
370
-1
  6
ByLayer
100
AcDbCircle
 10
78.0805913209353974
 20
45.5090605627094789
 30
0.0
 40
1.1111111111111112
100
AcDbArc
 50
90.0
 51
242.9811799999999948
  0
ARC
  5
73
100
AcDbEntity
  8
0
 62
256
370
-1
  6
ByLayer
100
AcDbCircle
 10
78.6361468764909546
 20
42.7312827849317074
 30
0.0
 40
1.1111111111111112
100
AcDbArc
 50
270.0
 51
62.9811850000000035
  0
ARC
  5
74
100
AcDbEntity
  8
0
 62
256
370
-1
  6
ByLayer
100
AcDbCircle
 10
78.6361468764909546
 20
45.3007266738205914
 30
0.0
 40
3.6805555555555558
100
AcDbArc
 50
243.0745799999999974
 51
270.0
  0
LINE
  5
75
100
AcDbEntity
100
AcDbLine
  8
0
 62
256
370
-1
  6
ByLayer
 10
81.4139249161132454
 20
46.6201716738206002
 30
0.0
 11
81.4139254716687901
 21
41.6201716738206002
 31
0.0
  0
LINE
  5
76
100
AcDbEntity
100
AcDbLine
  8
0
 62
256
370
-1
  6
ByLayer
 10
84.1917026938910169
 20
41.6201711184871073
 30
0.0
 11
84.1917026938910169
 21
46.6201716738206002
 31
0.0
  0
LINE
  5
77
100
AcDbEntity
100
AcDbLine
  8
0
 62
256
370
-1
  6
ByLayer
 10
81.4139249161132454
 20
44.397948896042827
 30
0.0
 11
84.1917026938910169
 21
44.397948896042827
 31
0.0
  0
LINE
  5
78
100
AcDbEntity
100
AcDbLine
  8
0
 62
256
370
-1
  6
ByLayer
 10
85.8584249161132362
 20
46.6201716738206073
 30
0.0
 11
85.8584249161132362
 21
41.6201711182650556
 31
0.0
  0
LINE
  5
79
100
AcDbEntity
100
AcDbLine
  8
0
 62
256
370
-1
  6
ByLayer
 10
89.747258249446574
 20
46.6201716738206144
 30
0.0
 11
87.5250915827799076
 21
46.6201716738206144
 31
0.0
  0
LINE
  5
7A
100
AcDbEntity
100
AcDbLine
  8
0
 62
256
370
-1
  6
ByLayer
 10
87.5250915827799076
 20
46.6201716738206144
 30
0.0
 11
87.5250921383354523
 21
41.6201716738206144
 31
0.0
  0
LINE
  5
7B
100
AcDbEntity
100
AcDbLine
  8
0
 62
256
370
-1
  6
ByLayer
 10
87.5250921383354523
 20
41.6201716738206144
 30
0.0
 11
89.747258249446574
 21
41.6201711187478693
 31
0.0
  0
LINE
  5
7C
100
AcDbEntity
100
AcDbLine
  8
0
 62
256
370
-1
  6
ByLayer
 10
87.5250915827799076
 20
44.3979488960428412
 30
0.0
 11
89.1917026938910169
 21
44.3979488960428412
 31
0.0
  0
LINE
  5
7D
100
AcDbEntity
100
AcDbLine
  8
0
 62
256
370
-1
  6
ByLayer
 10
91.4138693605576833
 20
46.6201716738206215
 30
0.0
 11
91.4138693605576833
 21
41.6201711182650698
 31
0.0
  0
LINE
  5
7E
100
AcDbEntity
100
AcDbLine
  8
0
 62
256
370
-1
  6
ByLayer
 10
91.4138693605576833
 20
41.6201711182650698
 30
0.0
 11
93.6360915827799118
 21
41.6201711187478764
 31
0.0
  0
LINE
  5
7F
100
AcDbEntity
100
AcDbLine
  8
0
 62
256
370
-1
  6
ByLayer
 10
95.3027026938910069
 20
41.6201711182651053
 30
0.0
 11
96.9693693605576783
 21
41.6201711185056809
 31
0.0
  0
LINE
  5
80
100
AcDbEntity
100
AcDbLine
  8
0
 62
256
370
-1
  6
ByLayer
 10
98.0804804716687926
 20
42.7312827849317713
 30
0.0
 11
98.0804804716687926
 21
45.5090605627095499
 31
0.0
  0
LINE
  5
81
100
AcDbEntity
100
AcDbLine
  8
0
 62
256
370
-1
  6
ByLayer
 10
96.9693693605576783
 20
46.6201716738206571
 30
0.0
 11
95.3027026938910069
 21
46.6201716738206571
 31
0.0
  0
LINE
  5
82
100
AcDbEntity
100
AcDbLine
  8
0
 62
256
370
-1
  6
ByLayer
 10
95.3027026938910069
 20
46.6201716738206571
 30
0.0
 11
95.3027026938910069
 21
41.6201711182651053
 31
0.0
  0
ARC
  5
83
100
AcDbEntity
  8
0
 62
256
370
-1
  6
ByLayer
100
AcDbCircle
 10
96.9693693605576783
 20
42.7312827849317713
 30
0.0
 40
1.1111111111111112
100
AcDbArc
 50
270.0
 51
0.0
  0
ARC
  5
84
100
AcDbEntity
  8
0
 62
256
370
-1
  6
ByLayer
100
AcDbCircle
 10
96.9693693605576783
 20
45.5090605627095499
 30
0.0
 40
1.1111111111111112
100
AcDbArc
 50
0.0
 51
90.0
  0
LINE
  5
85
100
AcDbEntity
100
AcDbLine
  8
0
 62
256
370
-1
  6
ByLayer
 10
17.4248704816405144
 20
66.1974246704819222
 30
0.0
 11
17.4248704816405144
 21
68.1974248927041486
 31
0.0
  0
LINE
  5
86
100
AcDbEntity
100
AcDbLine
  8
0
 62
256
370
-1
  6
ByLayer
 10
17.4248704816405144
 20
68.1974248927041486
 30
0.0
 11
18.0915371483071787
 21
67.0863137815930344
 31
0.0
  0
LINE
  5
87
100
AcDbEntity
100
AcDbLine
  8
0
 62
256
370
-1
  6
ByLayer
 10
18.0915371483071787
 20
67.0863137815930344
 30
0.0
 11
18.7582038149738466
 21
68.1974248927041486
 31
0.0
  0
LINE
  5
88
100
AcDbEntity
100
AcDbLine
  8
0
 62
256
370
-1
  6
ByLayer
 10
18.7582038149738466
 20
68.1974248927041486
 30
0.0
 11
18.7582038149738466
 21
66.1974246705744491
 31
0.0
  0
LINE
  5
89
100
AcDbEntity
100
AcDbLine
  8
0
 62
256
370
-1
  6
ByLayer
 10
19.4248704816405109
 20
68.1974248927041486
 30
0.0
 11
19.8693149260849538
 21
68.1974248927041486
 31
0.0
  0
LINE
  5
8A
100
AcDbEntity
100
AcDbLine
  8
0
 62
256
370
-1
  6
ByLayer
 10
19.8693149260849538
 20
67.3085357815930365
 30
0.0
 11
19.6470927038627323
 21
67.3085357815930365
 31
0.0
  0
LINE
  5
8B
100
AcDbEntity
100
AcDbLine
  8
0
 62
256
370
-1
  6
ByLayer
 10
20.3137593705294002
 20
66.8640915593708201
 30
0.0
 11
20.3137593705294002
 21
66.6418693371485915
 31
0.0
  0
LINE
  5
8C
100
AcDbEntity
100
AcDbLine
  8
0
 62
256
370
-1
  6
ByLayer
 10
19.8693149260849538
 20
66.1974246704720457
 30
0.0
 11
19.4248707038627373
 21
66.1974248927041486
 31
0.0
  0
ARC
  5
8D
100
AcDbEntity
  8
0
 62
256
370
-1
  6
ByLayer
100
AcDbCircle
 10
19.8693149260849538
 20
67.7529804482597058
 30
0.0
 40
0.4444444444444444
100
AcDbArc
 50
270.0
 51
90.0
  0
ARC
  5
8E
100
AcDbEntity
  8
0
 62
256
370
-1
  6
ByLayer
100
AcDbCircle
 10
19.8693149260849538
 20
66.8640915593708201
 30
0.0
 40
0.4444444444444444
100
AcDbArc
 50
0.0
 51
90.0
  0
ARC
  5
8F
100
AcDbEntity
  8
0
 62
256
370
-1
  6
ByLayer
100
AcDbCircle
 10
19.8693149260849538
 20
66.6418693371485915
 30
0.0
 40
0.4444444444444444
100
AcDbArc
 50
270.0
 51
0.0
  0
LINE
  5
90
100
AcDbEntity
100
AcDbLine
  8
0
 62
256
370
-1
  6
ByLayer
 10
20.9804482594182886
 20
67.5307580038152651
 30
0.0
 11
21.8693149260849573
 21
66.1974246706695055
 31
0.0
  0
LINE
  5
91
100
AcDbEntity
100
AcDbLine
  8
0
 62
256
370
-1
  6
ByLayer
 10
20.9804482594182886
 20
66.1974246704819222
 30
0.0
 11
21.8693149260849573
 21
67.5307580038152651
 31
0.0
  0
LINE
  5
92
100
AcDbEntity
100
AcDbLine
  8
0
 62
256
370
-1
  6
ByLayer
 10
22.5359815927516216
 20
66.8640915593708201
 30
0.0
 11
22.5359815927516216
 21
66.6418693371485915
 31
0.0
  0
LINE
  5
93
100
AcDbEntity
100
AcDbLine
  8
0
 62
256
370
-1
  6
ByLayer
 10
23.4248704816405109
 20
66.6418693371485915
 30
0.0
 11
23.4248704816405109
 21
66.8640915593708201
 31
0.0
  0
LINE
  5
94
100
AcDbEntity
100
AcDbLine
  8
0
 62
256
370
-1
  6
ByLayer
 10
22.5915371483071787
 20
67.8085355593708101
 30
0.0
 11
22.5915371483071787
 21
67.697425114926375
 31
0.0
  0
LINE
  5
95
100
AcDbEntity
100
AcDbLine
  8
0
 62
256
370
-1
  6
ByLayer
 10
23.3693149260849538
 20
67.697425114926375
 30
0.0
 11
23.3693149260849538
 21
67.8085355593708101
 31
0.0
  0
ARC
  5
96
100
AcDbEntity
  8
0
 62
256
370
-1
  6
ByLayer
100
AcDbCircle
 10
22.9804260371960645
 20
66.6418693371485915
 30
0.0
 40
0.4444444444444444
100
AcDbArc
 50
180.0
 51
0.0
  0
ARC
  5
97
100
AcDbEntity
  8
0
 62
256
370
-1
  6
ByLayer
100
AcDbCircle
 10
22.9804260371960645
 20
66.8640915593708201
 30
0.0
 40
0.4444444444444444
100
AcDbArc
 50
0.0
 51
180.0
  0
ARC
  5
98
100
AcDbEntity
  8
0
 62
256
370
-1
  6
ByLayer
100
AcDbCircle
 10
22.9804260371960645
 20
67.697425114926375
 30
0.0
 40
0.3888888888888888
100
AcDbArc
 50
180.0
 51
0.0
  0
ARC
  5
99
100
AcDbEntity
  8
0
 62
256
370
-1
  6
ByLayer
100
AcDbCircle
 10
22.9804260371960645
 20
67.8085355593708101
 30
0.0
 40
0.3888888888888888
100
AcDbArc
 50
0.0
 51
180.0
  0
LINE
  5
9A
100
AcDbEntity
100
AcDbLine
  8
0
 62
256
370
-1
  6
ByLayer
 10
24.0915149260849546
 20
66.1974246704819222
 30
0.0
 11
24.0915149260849546
 21
68.1974248927041486
 31
0.0
  0
LINE
  5
9B
100
AcDbEntity
100
AcDbLine
  8
0
 62
256
370
-1
  6
ByLayer
 10
24.0915149260849546
 20
68.1974248927041486
 30
0.0
 11
24.7581815927516189
 21
67.0863137815930344
 31
0.0
  0
LINE
  5
9C
100
AcDbEntity
100
AcDbLine
  8
0
 62
256
370
-1
  6
ByLayer
 10
24.7581815927516189
 20
67.0863137815930344
 30
0.0
 11
25.4248482594182867
 21
68.1974248927041486
 31
0.0
  0
LINE
  5
9D
100
AcDbEntity
100
AcDbLine
  8
0
 62
256
370
-1
  6
ByLayer
 10
25.4248482594182867
 20
68.1974248927041486
 30
0.0
 11
25.4248482594182867
 21
66.1974246705744491
 31
0.0
  0
LINE
  5
9E
100
AcDbEntity
100
AcDbLine
  8
0
 62
256
370
-1
  6
ByLayer
 10
26.091492703862734
 20
66.1974246704819222
 30
0.0
 11
26.091492703862734
 21
68.1974248927041486
 31
0.0
  0
LINE
  5
9F
100
AcDbEntity
100
AcDbLine
  8
0
 62
256
370
-1
  6
ByLayer
 10
26.091492703862734
 20
68.1974248927041486
 30
0.0
 11
26.7581593705293983
 21
67.0863137815930344
 31
0.0
  0
LINE
  5
A0
100
AcDbEntity
100
AcDbLine
  8
0
 62
256
370
-1
  6
ByLayer
 10
26.7581593705293983
 20
67.0863137815930344
 30
0.0
 11
27.4248260371960662
 21
68.1974248927041486
 31
0.0
  0
LINE
  5
A1
100
AcDbEntity
100
AcDbLine
  8
0
 62
256
370
-1
  6
ByLayer
 10
27.4248260371960662
 20
68.1974248927041486
 30
0.0
 11
27.4248260371960662
 21
66.1974246705744491
 31
0.0
  0
LINE
  5
A2
100
AcDbEntity
100
AcDbLine
  8
0
 62
256
370
-1
  6
ByLayer
 10
17.4248704816405144
 20
62.9974246704819265
 30
0.0
 11
17.4248704816405144
 21
64.9974248927041458
 31
0.0
  0
LINE
  5
A3
100
AcDbEntity
100
AcDbLine
  8
0
 62
256
370
-1
  6
ByLayer
 10
17.4248704816405144
 20
64.9974248927041458
 30
0.0
 11
18.0915371483071787
 21
63.8863137815930315
 31
0.0
  0
LINE
  5
A4
100
AcDbEntity
100
AcDbLine
  8
0
 62
256
370
-1
  6
ByLayer
 10
18.0915371483071787
 20
63.8863137815930315
 30
0.0
 11
18.7582038149738466
 21
64.9974248927041458
 31
0.0
  0
LINE
  5
A5
100
AcDbEntity
100
AcDbLine
  8
0
 62
256
370
-1
  6
ByLayer
 10
18.7582038149738466
 20
64.9974248927041458
 30
0.0
 11
18.7582038149738466
 21
62.9974246705744534
 31
0.0
  0
LINE
  5
A6
100
AcDbEntity
100
AcDbLine
  8
0
 62
256
370
-1
  6
ByLayer
 10
19.4248704816405109
 20
64.9974248927041458
 30
0.0
 11
19.8693149260849538
 21
64.9974248927041458
 31
0.0
  0
LINE
  5
A7
100
AcDbEntity
100
AcDbLine
  8
0
 62
256
370
-1
  6
ByLayer
 10
19.8693149260849538
 20
64.1085357815930337
 30
0.0
 11
19.6470927038627323
 21
64.1085357815930337
 31
0.0
  0
LINE
  5
A8
100
AcDbEntity
100
AcDbLine
  8
0
 62
256
370
-1
  6
ByLayer
 10
20.3137593705294002
 20
63.6640915593708101
 30
0.0
 11
20.3137593705294002
 21
63.4418693371485887
 31
0.0
  0
LINE
  5
A9
100
AcDbEntity
100
AcDbLine
  8
0
 62
256
370
-1
  6
ByLayer
 10
19.8693149260849538
 20
62.9974246704720429
 30
0.0
 11
19.4248707038627302
 21
62.9974248927041458
 31
0.0
  0
ARC
  5
AA
100
AcDbEntity
  8
0
 62
256
370
-1
  6
ByLayer
100
AcDbCircle
 10
19.8693149260849538
 20
64.5529804482597029
 30
0.0
 40
0.4444444444444444
100
AcDbArc
 50
270.0
 51
90.0
  0
ARC
  5
AB
100
AcDbEntity
  8
0
 62
256
370
-1
  6
ByLayer
100
AcDbCircle
 10
19.8693149260849538
 20
63.6640915593708101
 30
0.0
 40
0.4444444444444444
100
AcDbArc
 50
0.0
 51
90.0
  0
ARC
  5
AC
100
AcDbEntity
  8
0
 62
256
370
-1
  6
ByLayer
100
AcDbCircle
 10
19.8693149260849538
 20
63.4418693371485887
 30
0.0
 40
0.4444444444444444
100
AcDbArc
 50
270.0
 51
0.0
  0
LINE
  5
AD
100
AcDbEntity
100
AcDbLine
  8
0
 62
256
370
-1
  6
ByLayer
 10
22.4804038149738474
 20
64.9974248927041458
 30
0.0
 11
22.9248482594182903
 21
62.9974246704831558
 31
0.0
  0
LINE
  5
AE
100
AcDbEntity
100
AcDbLine
  8
0
 62
256
370
-1
  6
ByLayer
 10
22.9248482594182903
 20
62.9974246704831558
 30
0.0
 11
23.3692927038627332
 21
64.3307580038152622
 31
0.0
  0
LINE
  5
AF
100
AcDbEntity
100
AcDbLine
  8
0
 62
256
370
-1
  6
ByLayer
 10
23.3692927038627332
 20
64.3307580038152622
 30
0.0
 11
23.8137371483071796
 21
62.9974246705744534
 31
0.0
  0
LINE
  5
B0
100
AcDbEntity
100
AcDbLine
  8
0
 62
256
370
-1
  6
ByLayer
 10
23.8137371483071796
 20
62.9974246705744534
 30
0.0
 11
24.2581815927516224
 21
64.9974248927041458
 31
0.0
  0
LINE
  5
B1
100
AcDbEntity
100
AcDbLine
  8
0
 62
256
370
-1
  6
ByLayer
 10
24.9248260371960662
 20
62.9974246704819265
 30
0.0
 11
25.5914704816405099
 21
64.9974248927041458
 31
0.0
  0
LINE
  5
B2
100
AcDbEntity
100
AcDbLine
  8
0
 62
256
370
-1
  6
ByLayer
 10
25.5914704816405099
 20
64.9974248927041458
 30
0.0
 11
26.258203814973843
 21
62.9974246714573809
 31
0.0
  0
LINE
  5
B3
100
AcDbEntity
100
AcDbLine
  8
0
 62
256
370
-1
  6
ByLayer
 10
25.1100260371960644
 20
63.5529804482597029
 30
0.0
 11
26.0729815927516206
 21
63.5529804482597029
 31
0.0
  0
LINE
  5
B4
100
AcDbEntity
100
AcDbLine
  8
0
 62
256
370
-1
  6
ByLayer
 10
27.1674482594182898
 20
64.1570444482597111
 30
0.0
 11
27.7933815927516221
 21
63.8378046704819297
 31
0.0
  0
ARC
  5
B5
100
AcDbEntity
  8
0
 62
256
370
-1
  6
ByLayer
100
AcDbCircle
 10
27.3693371483071779
 20
63.5252024482597051
 30
0.0
 40
1.4722222222222221
100
AcDbArc
 50
63.0745840000000015
 51
90.0
  0
ARC
  5
B6
100
AcDbEntity
  8
0
 62
256
370
-1
  6
ByLayer
100
AcDbCircle
 10
27.3693371483071779
 20
64.5529804482597029
 30
0.0
 40
0.4444444444444444
100
AcDbArc
 50
90.0
 51
242.9811799999999948
  0
ARC
  5
B7
100
AcDbEntity
  8
0
 62
256
370
-1
  6
ByLayer
100
AcDbCircle
 10
27.5915593705293993
 20
63.4418693371485958
 30
0.0
 40
0.4444444444444444
100
AcDbArc
 50
270.0
 51
62.9811850000000035
  0
ARC
  5
B8
100
AcDbEntity
  8
0
 62
256
370
-1
  6
ByLayer
100
AcDbCircle
 10
27.5915593705293993
 20
64.4696468927041479
 30
0.0
 40
1.4722222222222221
100
AcDbArc
 50
243.0745799999999974
 51
270.0
  0
LINE
  5
B9
100
AcDbEntity
100
AcDbLine
  8
0
 62
256
370
-1
  6
ByLayer
 10
28.7026705863783107
 20
64.9974248927041458
 30
0.0
 11
28.70267080860053
 21
62.9974248927041458
 31
0.0
  0
LINE
  5
BA
100
AcDbEntity
100
AcDbLine
  8
0
 62
256
370
-1
  6
ByLayer
 10
29.8137816974894214
 20
62.9974246705707515
 30
0.0
 11
29.8137816974894214
 21
64.9974248927041458
 31
0.0
  0
LINE
  5
BB
100
AcDbEntity
100
AcDbLine
  8
0
 62
256
370
-1
  6
ByLayer
 10
28.7026705863783107
 20
64.1085357815930337
 30
0.0
 11
29.8137816974894214
 21
64.1085357815930337
 31
0.0
  0
LINE
  5
BC
100
AcDbEntity
100
AcDbLine
  8
0
 62
256
370
-1
  6
ByLayer
 10
31.3693150308227509
 20
64.9974248927041458
 30
0.0
 11
30.4804483641560857
 21
64.9974248927041458
 31
0.0
  0
LINE
  5
BD
100
AcDbEntity
100
AcDbLine
  8
0
 62
256
370
-1
  6
ByLayer
 10
30.4804483641560857
 20
64.9974248927041458
 30
0.0
 11
30.480448586378305
 21
62.9974248927041458
 31
0.0
  0
LINE
  5
BE
100
AcDbEntity
100
AcDbLine
  8
0
 62
256
370
-1
  6
ByLayer
 10
30.480448586378305
 20
62.9974248927041458
 30
0.0
 11
31.3693150308227509
 21
62.997424670675052
 31
0.0
  0
LINE
  5
BF
100
AcDbEntity
100
AcDbLine
  8
0
 62
256
370
-1
  6
ByLayer
 10
30.4804483641560857
 20
64.1085357815930337
 30
0.0
 11
31.1470928086005294
 21
64.1085357815930337
 31
0.0
  0
LINE
  5
C0
100
AcDbEntity
100
AcDbLine
  8
0
 62
256
370
-1
  6
ByLayer
 10
32.035981919711638
 20
62.9974248927041458
 30
0.0
 11
32.0359816974894187
 21
64.9974248927041458
 31
0.0
  0
LINE
  5
C1
100
AcDbEntity
100
AcDbLine
  8
0
 62
256
370
-1
  6
ByLayer
 10
32.0359816974894187
 20
64.9974248927041458
 30
0.0
 11
32.702648364156083
 21
64.9974248927041458
 31
0.0
  0
LINE
  5
C2
100
AcDbEntity
100
AcDbLine
  8
0
 62
256
370
-1
  6
ByLayer
 10
33.147092808600533
 20
64.5529804482597029
 30
0.0
 11
33.147092808600533
 21
64.3307580038152622
 31
0.0
  0
LINE
  5
C3
100
AcDbEntity
100
AcDbLine
  8
0
 62
256
370
-1
  6
ByLayer
 10
32.702648364156083
 20
63.8863137815930315
 30
0.0
 11
32.0359816974894187
 21
63.8863137815930315
 31
0.0
  0
LINE
  5
C4
100
AcDbEntity
100
AcDbLine
  8
0
 62
256
370
-1
  6
ByLayer
 10
32.702648364156083
 20
63.8863137815930315
 30
0.0
 11
33.147092808600533
 21
62.9974246705707515
 31
0.0
  0
ARC
  5
C5
100
AcDbEntity
  8
0
 62
256
370
-1
  6
ByLayer
100
AcDbCircle
 10
32.702648364156083
 20
64.5529804482597029
 30
0.0
 40
0.4444444444444444
100
AcDbArc
 50
0.0
 51
90.0
  0
ARC
  5
C6
100
AcDbEntity
  8
0
 62
256
370
-1
  6
ByLayer
100
AcDbCircle
 10
32.702648364156083
 20
64.3307580038152622
 30
0.0
 40
0.4444444444444444
100
AcDbArc
 50
270.0
 51
0.0
  0
LINE
  5
C7
100
AcDbEntity
100
AcDbLine
  8
0
 62
256
370
-1
  6
ByLayer
 10
107.5536258464477584
 20
66.1974246704819222
 30
0.0
 11
107.5536258464477584
 21
68.1974248927041486
 31
0.0
  0
LINE
  5
C8
100
AcDbEntity
100
AcDbLine
  8
0
 62
256
370
-1
  6
ByLayer
 10
107.5536258464477584
 20
68.1974248927041486
 30
0.0
 11
108.2202925131144298
 21
67.0863137815930344
 31
0.0
  0
LINE
  5
C9
100
AcDbEntity
100
AcDbLine
  8
0
 62
256
370
-1
  6
ByLayer
 10
108.2202925131144298
 20
67.0863137815930344
 30
0.0
 11
108.8869591797811012
 21
68.1974248927041486
 31
0.0
  0
LINE
  5
CA
100
AcDbEntity
100
AcDbLine
  8
0
 62
256
370
-1
  6
ByLayer
 10
108.8869591797811012
 20
68.1974248927041486
 30
0.0
 11
108.8869591797811012
 21
66.1974246705744491
 31
0.0
  0
LINE
  5
CB
100
AcDbEntity
100
AcDbLine
  8
0
 62
256
370
-1
  6
ByLayer
 10
109.5536258464477584
 20
68.1974248927041486
 30
0.0
 11
109.9980702908922012
 21
68.1974248927041486
 31
0.0
  0
LINE
  5
CC
100
AcDbEntity
100
AcDbLine
  8
0
 62
256
370
-1
  6
ByLayer
 10
109.9980702908922012
 20
67.3085357815930365
 30
0.0
 11
109.7758480686699869
 21
67.3085357815930365
 31
0.0
  0
LINE
  5
CD
100
AcDbEntity
100
AcDbLine
  8
0
 62
256
370
-1
  6
ByLayer
 10
110.4425147353366441
 20
66.8640915593708201
 30
0.0
 11
110.4425147353366441
 21
66.6418693371485915
 31
0.0
  0
LINE
  5
CE
100
AcDbEntity
100
AcDbLine
  8
0
 62
256
370
-1
  6
ByLayer
 10
109.9980702908922012
 20
66.1974246704720457
 30
0.0
 11
109.5536260686699848
 21
66.1974248927041486
 31
0.0
  0
ARC
  5
CF
100
AcDbEntity
  8
0
 62
256
370
-1
  6
ByLayer
100
AcDbCircle
 10
109.9980702908922012
 20
67.7529804482597058
 30
0.0
 40
0.4444444444444444
100
AcDbArc
 50
270.0
 51
90.0
  0
ARC
  5
D0
100
AcDbEntity
  8
0
 62
256
370
-1
  6
ByLayer
100
AcDbCircle
 10
109.9980702908922012
 20
66.8640915593708201
 30
0.0
 40
0.4444444444444444
100
AcDbArc
 50
0.0
 51
90.0
  0
ARC
  5
D1
100
AcDbEntity
  8
0
 62
256
370
-1
  6
ByLayer
100
AcDbCircle
 10
109.9980702908922012
 20
66.6418693371485915
 30
0.0
 40
0.4444444444444444
100
AcDbArc
 50
270.0
 51
0.0
  0
LINE
  5
D2
100
AcDbEntity
100
AcDbLine
  8
0
 62
256
370
-1
  6
ByLayer
 10
111.1092036242255432
 20
67.5307580038152651
 30
0.0
 11
111.9980702908922012
 21
66.1974246706695055
 31
0.0
  0
LINE
  5
D3
100
AcDbEntity
100
AcDbLine
  8
0
 62
256
370
-1
  6
ByLayer
 10
111.1092036242255432
 20
66.1974246704819222
 30
0.0
 11
111.9980702908922012
 21
67.5307580038152651
 31
0.0
  0
LINE
  5
D4
100
AcDbEntity
100
AcDbLine
  8
0
 62
256
370
-1
  6
ByLayer
 10
112.6647369575588726
 20
66.8640915593708201
 30
0.0
 11
112.6647369575588726
 21
66.6418693371485915
 31
0.0
  0
LINE
  5
D5
100
AcDbEntity
100
AcDbLine
  8
0
 62
256
370
-1
  6
ByLayer
 10
113.5536258464477584
 20
66.6418693371485915
 30
0.0
 11
113.5536258464477584
 21
66.8640915593708201
 31
0.0
  0
LINE
  5
D6
100
AcDbEntity
100
AcDbLine
  8
0
 62
256
370
-1
  6
ByLayer
 10
112.7202925131144298
 20
67.8085355593708101
 30
0.0
 11
112.7202925131144298
 21
67.697425114926375
 31
0.0
  0
LINE
  5
D7
100
AcDbEntity
100
AcDbLine
  8
0
 62
256
370
-1
  6
ByLayer
 10
113.4980702908922012
 20
67.697425114926375
 30
0.0
 11
113.4980702908922012
 21
67.8085355593708101
 31
0.0
  0
ARC
  5
D8
100
AcDbEntity
  8
0
 62
256
370
-1
  6
ByLayer
100
AcDbCircle
 10
113.1091814020033155
 20
66.6418693371485915
 30
0.0
 40
0.4444444444444444
100
AcDbArc
 50
180.0
 51
0.0
  0
ARC
  5
D9
100
AcDbEntity
  8
0
 62
256
370
-1
  6
ByLayer
100
AcDbCircle
 10
113.1091814020033155
 20
66.8640915593708201
 30
0.0
 40
0.4444444444444444
100
AcDbArc
 50
0.0
 51
180.0
  0
ARC
  5
DA
100
AcDbEntity
  8
0
 62
256
370
-1
  6
ByLayer
100
AcDbCircle
 10
113.1091814020033155
 20
67.697425114926375
 30
0.0
 40
0.3888888888888888
100
AcDbArc
 50
180.0
 51
0.0
  0
ARC
  5
DB
100
AcDbEntity
  8
0
 62
256
370
-1
  6
ByLayer
100
AcDbCircle
 10
113.1091814020033155
 20
67.8085355593708101
 30
0.0
 40
0.3888888888888888
100
AcDbArc
 50
0.0
 51
180.0
  0
LINE
  5
DC
100
AcDbEntity
100
AcDbLine
  8
0
 62
256
370
-1
  6
ByLayer
 10
114.2202702908922021
 20
66.1974246704819222
 30
0.0
 11
114.2202702908922021
 21
68.1974248927041486
 31
0.0
  0
LINE
  5
DD
100
AcDbEntity
100
AcDbLine
  8
0
 62
256
370
-1
  6
ByLayer
 10
114.2202702908922021
 20
68.1974248927041486
 30
0.0
 11
114.8869369575588735
 21
67.0863137815930344
 31
0.0
  0
LINE
  5
DE
100
AcDbEntity
100
AcDbLine
  8
0
 62
256
370
-1
  6
ByLayer
 10
114.8869369575588735
 20
67.0863137815930344
 30
0.0
 11
115.5536036242255449
 21
68.1974248927041486
 31
0.0
  0
LINE
  5
DF
100
AcDbEntity
100
AcDbLine
  8
0
 62
256
370
-1
  6
ByLayer
 10
115.5536036242255449
 20
68.1974248927041486
 30
0.0
 11
115.5536036242255449
 21
66.1974246705744491
 31
0.0
  0
LINE
  5
E0
100
AcDbEntity
100
AcDbLine
  8
0
 62
256
370
-1
  6
ByLayer
 10
116.2202480686699744
 20
66.1974246704819222
 30
0.0
 11
116.2202480686699744
 21
68.1974248927041486
 31
0.0
  0
LINE
  5
E1
100
AcDbEntity
100
AcDbLine
  8
0
 62
256
370
-1
  6
ByLayer
 10
116.2202480686699744
 20
68.1974248927041486
 30
0.0
 11
116.8869147353366458
 21
67.0863137815930344
 31
0.0
  0
LINE
  5
E2
100
AcDbEntity
100
AcDbLine
  8
0
 62
256
370
-1
  6
ByLayer
 10
116.8869147353366458
 20
67.0863137815930344
 30
0.0
 11
117.5535814020033172
 21
68.1974248927041486
 31
0.0
  0
LINE
  5
E3
100
AcDbEntity
100
AcDbLine
  8
0
 62
256
370
-1
  6
ByLayer
 10
117.5535814020033172
 20
68.1974248927041486
 30
0.0
 11
117.5535814020033172
 21
66.1974246705744491
 31
0.0
  0
LINE
  5
E4
100
AcDbEntity
100
AcDbLine
  8
0
 62
256
370
-1
  6
ByLayer
 10
107.5536258464477584
 20
62.9974246704819265
 30
0.0
 11
107.5536258464477584
 21
64.9974248927041458
 31
0.0
  0
LINE
  5
E5
100
AcDbEntity
100
AcDbLine
  8
0
 62
256
370
-1
  6
ByLayer
 10
107.5536258464477584
 20
64.9974248927041458
 30
0.0
 11
108.2202925131144298
 21
63.8863137815930315
 31
0.0
  0
LINE
  5
E6
100
AcDbEntity
100
AcDbLine
  8
0
 62
256
370
-1
  6
ByLayer
 10
108.2202925131144298
 20
63.8863137815930315
 30
0.0
 11
108.8869591797811012
 21
64.9974248927041458
 31
0.0
  0
LINE
  5
E7
100
AcDbEntity
100
AcDbLine
  8
0
 62
256
370
-1
  6
ByLayer
 10
108.8869591797811012
 20
64.9974248927041458
 30
0.0
 11
108.8869591797811012
 21
62.9974246705744534
 31
0.0
  0
LINE
  5
E8
100
AcDbEntity
100
AcDbLine
  8
0
 62
256
370
-1
  6
ByLayer
 10
109.5536258464477584
 20
64.9974248927041458
 30
0.0
 11
109.9980702908922012
 21
64.9974248927041458
 31
0.0
  0
LINE
  5
E9
100
AcDbEntity
100
AcDbLine
  8
0
 62
256
370
-1
  6
ByLayer
 10
109.9980702908922012
 20
64.1085357815930337
 30
0.0
 11
109.7758480686699869
 21
64.1085357815930337
 31
0.0
  0
LINE
  5
EA
100
AcDbEntity
100
AcDbLine
  8
0
 62
256
370
-1
  6
ByLayer
 10
110.4425147353366441
 20
63.6640915593708101
 30
0.0
 11
110.4425147353366441
 21
63.4418693371485887
 31
0.0
  0
LINE
  5
EB
100
AcDbEntity
100
AcDbLine
  8
0
 62
256
370
-1
  6
ByLayer
 10
109.9980702908922012
 20
62.9974246704720429
 30
0.0
 11
109.5536260686699848
 21
62.9974248927041458
 31
0.0
  0
ARC
  5
EC
100
AcDbEntity
  8
0
 62
256
370
-1
  6
ByLayer
100
AcDbCircle
 10
109.9980702908922012
 20
64.5529804482597029
 30
0.0
 40
0.4444444444444444
100
AcDbArc
 50
270.0
 51
90.0
  0
ARC
  5
ED
100
AcDbEntity
  8
0
 62
256
370
-1
  6
ByLayer
100
AcDbCircle
 10
109.9980702908922012
 20
63.6640915593708101
 30
0.0
 40
0.4444444444444444
100
AcDbArc
 50
0.0
 51
90.0
  0
ARC
  5
EE
100
AcDbEntity
  8
0
 62
256
370
-1
  6
ByLayer
100
AcDbCircle
 10
109.9980702908922012
 20
63.4418693371485887
 30
0.0
 40
0.4444444444444444
100
AcDbArc
 50
270.0
 51
0.0
  0
LINE
  5
EF
100
AcDbEntity
100
AcDbLine
  8
0
 62
256
370
-1
  6
ByLayer
 10
112.6091591797810878
 20
64.9974248927041458
 30
0.0
 11
113.0536036242255307
 21
62.9974246704831558
 31
0.0
  0
LINE
  5
F0
100
AcDbEntity
100
AcDbLine
  8
0
 62
256
370
-1
  6
ByLayer
 10
113.0536036242255307
 20
62.9974246704831558
 30
0.0
 11
113.4980480686699877
 21
64.3307580038152622
 31
0.0
  0
LINE
  5
F1
100
AcDbEntity
100
AcDbLine
  8
0
 62
256
370
-1
  6
ByLayer
 10
113.4980480686699877
 20
64.3307580038152622
 30
0.0
 11
113.9424925131144306
 21
62.9974246705744534
 31
0.0
  0
LINE
  5
F2
100
AcDbEntity
100
AcDbLine
  8
0
 62
256
370
-1
  6
ByLayer
 10
113.9424925131144306
 20
62.9974246705744534
 30
0.0
 11
114.3869369575588735
 21
64.9974248927041458
 31
0.0
  0
LINE
  5
F3
100
AcDbEntity
100
AcDbLine
  8
0
 62
256
370
-1
  6
ByLayer
 10
115.053581402003303
 20
62.9974246704819265
 30
0.0
 11
115.7202258464477467
 21
64.9974248927041458
 31
0.0
  0
LINE
  5
F4
100
AcDbEntity
100
AcDbLine
  8
0
 62
256
370
-1
  6
ByLayer
 10
115.7202258464477467
 20
64.9974248927041458
 30
0.0
 11
116.386959179781087
 21
62.9974246714573809
 31
0.0
  0
LINE
  5
F5
100
AcDbEntity
100
AcDbLine
  8
0
 62
256
370
-1
  6
ByLayer
 10
115.2387814020033119
 20
63.5529804482597029
 30
0.0
 11
116.2017369575588646
 21
63.5529804482597029
 31
0.0
  0
LINE
  5
F6
100
AcDbEntity
100
AcDbLine
  8
0
 62
256
370
-1
  6
ByLayer
 10
117.2962036242255408
 20
64.1570444482597111
 30
0.0
 11
117.9221369575588625
 21
63.8378046704819297
 31
0.0
  0
ARC
  5
F7
100
AcDbEntity
  8
0
 62
256
370
-1
  6
ByLayer
100
AcDbCircle
 10
117.4980925131144289
 20
63.5252024482597051
 30
0.0
 40
1.4722222222222221
100
AcDbArc
 50
63.0745840000000015
 51
90.0
  0
ARC
  5
F8
100
AcDbEntity
  8
0
 62
256
370
-1
  6
ByLayer
100
AcDbCircle
 10
117.4980925131144289
 20
64.5529804482597029
 30
0.0
 40
0.4444444444444444
100
AcDbArc
 50
90.0
 51
242.9811799999999948
  0
ARC
  5
F9
100
AcDbEntity
  8
0
 62
256
370
-1
  6
ByLayer
100
AcDbCircle
 10
117.7203147353366433
 20
63.4418693371485958
 30
0.0
 40
0.4444444444444444
100
AcDbArc
 50
270.0
 51
62.9811850000000035
  0
ARC
  5
FA
100
AcDbEntity
  8
0
 62
256
370
-1
  6
ByLayer
100
AcDbCircle
 10
117.7203147353366433
 20
64.4696468927041479
 30
0.0
 40
1.4722222222222221
100
AcDbArc
 50
243.0745799999999974
 51
270.0
  0
LINE
  5
FB
100
AcDbEntity
100
AcDbLine
  8
0
 62
256
370
-1
  6
ByLayer
 10
118.8314259511855653
 20
64.9974248927041458
 30
0.0
 11
118.8314261734077775
 21
62.9974248927041458
 31
0.0
  0
LINE
  5
FC
100
AcDbEntity
100
AcDbLine
  8
0
 62
256
370
-1
  6
ByLayer
 10
119.9425370622966796
 20
62.9974246705707515
 30
0.0
 11
119.9425370622966796
 21
64.9974248927041458
 31
0.0
  0
LINE
  5
FD
100
AcDbEntity
100
AcDbLine
  8
0
 62
256
370
-1
  6
ByLayer
 10
118.8314259511855653
 20
64.1085357815930337
 30
0.0
 11
119.9425370622966796
 21
64.1085357815930337
 31
0.0
  0
LINE
  5
FE
100
AcDbEntity
100
AcDbLine
  8
0
 62
256
370
-1
  6
ByLayer
 10
121.498070395630009
 20
64.9974248927041458
 30
0.0
 11
120.6092037289633367
 21
64.9974248927041458
 31
0.0
  0
LINE
  5
FF
100
AcDbEntity
100
AcDbLine
  8
0
 62
256
370
-1
  6
ByLayer
 10
120.6092037289633367
 20
64.9974248927041458
 30
0.0
 11
120.6092039511855489
 21
62.9974248927041458
 31
0.0
  0
LINE
  5
100
100
AcDbEntity
100
AcDbLine
  8
0
 62
256
370
-1
  6
ByLayer
 10
120.6092039511855489
 20
62.9974248927041458
 30
0.0
 11
121.498070395630009
 21
62.997424670675052
 31
0.0
  0
LINE
  5
101
100
AcDbEntity
100
AcDbLine
  8
0
 62
256
370
-1
  6
ByLayer
 10
120.6092037289633367
 20
64.1085357815930337
 30
0.0
 11
121.2758481734077805
 21
64.1085357815930337
 31
0.0
  0
LINE
  5
102
100
AcDbEntity
100
AcDbLine
  8
0
 62
256
370
-1
  6
ByLayer
 10
122.1647372845188784
 20
62.9974248927041458
 30
0.0
 11
122.1647370622966662
 21
64.9974248927041458
 31
0.0
  0
LINE
  5
103
100
AcDbEntity
100
AcDbLine
  8
0
 62
256
370
-1
  6
ByLayer
 10
122.1647370622966662
 20
64.9974248927041458
 30
0.0
 11
122.8314037289633376
 21
64.9974248927041458
 31
0.0
  0
LINE
  5
104
100
AcDbEntity
100
AcDbLine
  8
0
 62
256
370
-1
  6
ByLayer
 10
123.2758481734077805
 20
64.5529804482597029
 30
0.0
 11
123.2758481734077805
 21
64.3307580038152622
 31
0.0
  0
LINE
  5
105
100
AcDbEntity
100
AcDbLine
  8
0
 62
256
370
-1
  6
ByLayer
 10
122.8314037289633376
 20
63.8863137815930315
 30
0.0
 11
122.1647370622966662
 21
63.8863137815930315
 31
0.0
  0
LINE
  5
106
100
AcDbEntity
100
AcDbLine
  8
0
 62
256
370
-1
  6
ByLayer
 10
122.8314037289633376
 20
63.8863137815930315
 30
0.0
 11
123.2758481734077805
 21
62.9974246705707515
 31
0.0
  0
ARC
  5
107
100
AcDbEntity
  8
0
 62
256
370
-1
  6
ByLayer
100
AcDbCircle
 10
122.8314037289633376
 20
64.5529804482597029
 30
0.0
 40
0.4444444444444444
100
AcDbArc
 50
0.0
 51
90.0
  0
ARC
  5
108
100
AcDbEntity
  8
0
 62
256
370
-1
  6
ByLayer
100
AcDbCircle
 10
122.8314037289633376
 20
64.3307580038152622
 30
0.0
 40
0.4444444444444444
100
AcDbArc
 50
270.0
 51
0.0
  0
LINE
  5
109
100
AcDbEntity
100
AcDbLine
  8
0
 62
256
370
-1
  6
ByLayer
 10
17.1244412970911561
 20
22.6351929108250864
 30
0.0
 11
17.1244412970911561
 21
24.6351931330473093
 31
0.0
  0
LINE
  5
10A
100
AcDbEntity
100
AcDbLine
  8
0
 62
256
370
-1
  6
ByLayer
 10
17.1244412970911561
 20
24.6351931330473093
 30
0.0
 11
17.7911079637578204
 21
23.5240820219361986
 31
0.0
  0
LINE
  5
10B
100
AcDbEntity
100
AcDbLine
  8
0
 62
256
370
-1
  6
ByLayer
 10
17.7911079637578204
 20
23.5240820219361986
 30
0.0
 11
18.4577746304244883
 21
24.6351931330473093
 31
0.0
  0
LINE
  5
10C
100
AcDbEntity
100
AcDbLine
  8
0
 62
256
370
-1
  6
ByLayer
 10
18.4577746304244883
 20
24.6351931330473093
 30
0.0
 11
18.4577746304244883
 21
22.6351929109176169
 31
0.0
  0
LINE
  5
10D
100
AcDbEntity
100
AcDbLine
  8
0
 62
256
370
-1
  6
ByLayer
 10
19.1244412970911526
 20
24.6351931330473093
 30
0.0
 11
19.5688857415355955
 21
24.6351931330473093
 31
0.0
  0
LINE
  5
10E
100
AcDbEntity
100
AcDbLine
  8
0
 62
256
370
-1
  6
ByLayer
 10
19.5688857415355955
 20
23.7463040219361972
 30
0.0
 11
19.346663519313374
 21
23.7463040219361972
 31
0.0
  0
LINE
  5
10F
100
AcDbEntity
100
AcDbLine
  8
0
 62
256
370
-1
  6
ByLayer
 10
20.0133301859800419
 20
23.3018597997139771
 30
0.0
 11
20.0133301859800419
 21
23.0796375774917522
 31
0.0
  0
LINE
  5
110
100
AcDbEntity
100
AcDbLine
  8
0
 62
256
370
-1
  6
ByLayer
 10
19.5688857415355955
 20
22.6351929108152099
 30
0.0
 11
19.1244415193133754
 21
22.6351931330473093
 31
0.0
  0
ARC
  5
111
100
AcDbEntity
  8
0
 62
256
370
-1
  6
ByLayer
100
AcDbCircle
 10
19.5688857415355955
 20
24.1907486886028664
 30
0.0
 40
0.4444444444444444
100
AcDbArc
 50
270.0
 51
90.0
  0
ARC
  5
112
100
AcDbEntity
  8
0
 62
256
370
-1
  6
ByLayer
100
AcDbCircle
 10
19.5688857415355955
 20
23.3018597997139771
 30
0.0
 40
0.4444444444444444
100
AcDbArc
 50
0.0
 51
90.0
  0
ARC
  5
113
100
AcDbEntity
  8
0
 62
256
370
-1
  6
ByLayer
100
AcDbCircle
 10
19.5688857415355955
 20
23.0796375774917522
 30
0.0
 40
0.4444444444444444
100
AcDbArc
 50
270.0
 51
0.0
  0
LINE
  5
114
100
AcDbEntity
100
AcDbLine
  8
0
 62
256
370
-1
  6
ByLayer
 10
20.6800190748689303
 20
23.968526244158415
 30
0.0
 11
21.568885741535599
 21
22.6351929110126591
 31
0.0
  0
LINE
  5
115
100
AcDbEntity
100
AcDbLine
  8
0
 62
256
370
-1
  6
ByLayer
 10
20.6800190748689303
 20
22.6351929108250829
 30
0.0
 11
21.568885741535599
 21
23.968526244158415
 31
0.0
  0
LINE
  5
116
100
AcDbEntity
100
AcDbLine
  8
0
 62
256
370
-1
  6
ByLayer
 10
22.2355524082022633
 20
23.3018597997139736
 30
0.0
 11
22.2355524082022633
 21
23.0796375774917486
 31
0.0
  0
LINE
  5
117
100
AcDbEntity
100
AcDbLine
  8
0
 62
256
370
-1
  6
ByLayer
 10
23.1244412970911526
 20
23.0796375774917486
 30
0.0
 11
23.1244412970911526
 21
23.3018597997139736
 31
0.0
  0
LINE
  5
118
100
AcDbEntity
100
AcDbLine
  8
0
 62
256
370
-1
  6
ByLayer
 10
22.2911079637578204
 20
24.2463037997139708
 30
0.0
 11
22.2911079637578204
 21
24.1351933552695286
 31
0.0
  0
LINE
  5
119
100
AcDbEntity
100
AcDbLine
  8
0
 62
256
370
-1
  6
ByLayer
 10
23.0688857415355955
 20
24.1351933552695286
 30
0.0
 11
23.0688857415355955
 21
24.2463037997139708
 31
0.0
  0
ARC
  5
11A
100
AcDbEntity
  8
0
 62
256
370
-1
  6
ByLayer
100
AcDbCircle
 10
22.6799968526467062
 20
23.0796375774917486
 30
0.0
 40
0.4444444444444444
100
AcDbArc
 50
180.0
 51
0.0
  0
ARC
  5
11B
100
AcDbEntity
  8
0
 62
256
370
-1
  6
ByLayer
100
AcDbCircle
 10
22.6799968526467062
 20
23.3018597997139736
 30
0.0
 40
0.4444444444444444
100
AcDbArc
 50
0.0
 51
180.0
  0
ARC
  5
11C
100
AcDbEntity
  8
0
 62
256
370
-1
  6
ByLayer
100
AcDbCircle
 10
22.6799968526467062
 20
24.1351933552695286
 30
0.0
 40
0.3888888888888888
100
AcDbArc
 50
180.0
 51
0.0
  0
ARC
  5
11D
100
AcDbEntity
  8
0
 62
256
370
-1
  6
ByLayer
100
AcDbCircle
 10
22.6799968526467062
 20
24.2463037997139708
 30
0.0
 40
0.3888888888888888
100
AcDbArc
 50
0.0
 51
180.0
  0
LINE
  5
11E
100
AcDbEntity
100
AcDbLine
  8
0
 62
256
370
-1
  6
ByLayer
 10
23.7910857415355963
 20
22.6351929108250829
 30
0.0
 11
23.7910857415355963
 21
24.6351931330473057
 31
0.0
  0
LINE
  5
11F
100
AcDbEntity
100
AcDbLine
  8
0
 62
256
370
-1
  6
ByLayer
 10
23.7910857415355963
 20
24.6351931330473057
 30
0.0
 11
24.4577524082022606
 21
23.524082021936195
 31
0.0
  0
LINE
  5
120
100
AcDbEntity
100
AcDbLine
  8
0
 62
256
370
-1
  6
ByLayer
 10
24.4577524082022606
 20
23.524082021936195
 30
0.0
 11
25.1244190748689284
 21
24.6351931330473057
 31
0.0
  0
LINE
  5
121
100
AcDbEntity
100
AcDbLine
  8
0
 62
256
370
-1
  6
ByLayer
 10
25.1244190748689284
 20
24.6351931330473057
 30
0.0
 11
25.1244190748689284
 21
22.6351929109176133
 31
0.0
  0
LINE
  5
122
100
AcDbEntity
100
AcDbLine
  8
0
 62
256
370
-1
  6
ByLayer
 10
25.7910635193133757
 20
22.6351929108250864
 30
0.0
 11
25.7910635193133757
 21
24.6351931330473093
 31
0.0
  0
LINE
  5
123
100
AcDbEntity
100
AcDbLine
  8
0
 62
256
370
-1
  6
ByLayer
 10
25.7910635193133757
 20
24.6351931330473093
 30
0.0
 11
26.45773018598004
 21
23.5240820219361986
 31
0.0
  0
LINE
  5
124
100
AcDbEntity
100
AcDbLine
  8
0
 62
256
370
-1
  6
ByLayer
 10
26.45773018598004
 20
23.5240820219361986
 30
0.0
 11
27.1243968526467079
 21
24.6351931330473093
 31
0.0
  0
LINE
  5
125
100
AcDbEntity
100
AcDbLine
  8
0
 62
256
370
-1
  6
ByLayer
 10
27.1243968526467079
 20
24.6351931330473093
 30
0.0
 11
27.1243968526467079
 21
22.6351929109176169
 31
0.0
  0
LINE
  5
126
100
AcDbEntity
100
AcDbLine
  8
0
 62
256
370
-1
  6
ByLayer
 10
17.1244412970911561
 20
19.4351929108250872
 30
0.0
 11
17.1244412970911561
 21
21.43519313304731
 31
0.0
  0
LINE
  5
127
100
AcDbEntity
100
AcDbLine
  8
0
 62
256
370
-1
  6
ByLayer
 10
17.1244412970911561
 20
21.43519313304731
 30
0.0
 11
17.7911079637578204
 21
20.3240820219361993
 31
0.0
  0
LINE
  5
128
100
AcDbEntity
100
AcDbLine
  8
0
 62
256
370
-1
  6
ByLayer
 10
17.7911079637578204
 20
20.3240820219361993
 30
0.0
 11
18.4577746304244883
 21
21.43519313304731
 31
0.0
  0
LINE
  5
129
100
AcDbEntity
100
AcDbLine
  8
0
 62
256
370
-1
  6
ByLayer
 10
18.4577746304244883
 20
21.43519313304731
 30
0.0
 11
18.4577746304244883
 21
19.4351929109176176
 31
0.0
  0
LINE
  5
12A
100
AcDbEntity
100
AcDbLine
  8
0
 62
256
370
-1
  6
ByLayer
 10
19.1244412970911526
 20
21.43519313304731
 30
0.0
 11
19.5688857415355955
 21
21.43519313304731
 31
0.0
  0
LINE
  5
12B
100
AcDbEntity
100
AcDbLine
  8
0
 62
256
370
-1
  6
ByLayer
 10
19.5688857415355955
 20
20.5463040219361979
 30
0.0
 11
19.346663519313374
 21
20.5463040219361979
 31
0.0
  0
LINE
  5
12C
100
AcDbEntity
100
AcDbLine
  8
0
 62
256
370
-1
  6
ByLayer
 10
20.0133301859800419
 20
20.1018597997139778
 30
0.0
 11
20.0133301859800419
 21
19.8796375774917529
 31
0.0
  0
LINE
  5
12D
100
AcDbEntity
100
AcDbLine
  8
0
 62
256
370
-1
  6
ByLayer
 10
19.5688857415355955
 20
19.4351929108152106
 30
0.0
 11
19.1244415193133754
 21
19.43519313304731
 31
0.0
  0
ARC
  5
12E
100
AcDbEntity
  8
0
 62
256
370
-1
  6
ByLayer
100
AcDbCircle
 10
19.5688857415355955
 20
20.9907486886028636
 30
0.0
 40
0.4444444444444444
100
AcDbArc
 50
270.0
 51
90.0
  0
ARC
  5
12F
100
AcDbEntity
  8
0
 62
256
370
-1
  6
ByLayer
100
AcDbCircle
 10
19.5688857415355955
 20
20.1018597997139778
 30
0.0
 40
0.4444444444444444
100
AcDbArc
 50
0.0
 51
90.0
  0
ARC
  5
130
100
AcDbEntity
  8
0
 62
256
370
-1
  6
ByLayer
100
AcDbCircle
 10
19.5688857415355955
 20
19.8796375774917529
 30
0.0
 40
0.4444444444444444
100
AcDbArc
 50
270.0
 51
0.0
  0
LINE
  5
131
100
AcDbEntity
100
AcDbLine
  8
0
 62
256
370
-1
  6
ByLayer
 10
22.1799746304244891
 20
21.43519313304731
 30
0.0
 11
22.624419074868932
 21
19.4351929108263199
 31
0.0
  0
LINE
  5
132
100
AcDbEntity
100
AcDbLine
  8
0
 62
256
370
-1
  6
ByLayer
 10
22.624419074868932
 20
19.4351929108263199
 30
0.0
 11
23.0688635193133749
 21
20.7685262441584193
 31
0.0
  0
LINE
  5
133
100
AcDbEntity
100
AcDbLine
  8
0
 62
256
370
-1
  6
ByLayer
 10
23.0688635193133749
 20
20.7685262441584193
 30
0.0
 11
23.5133079637578213
 21
19.4351929109176176
 31
0.0
  0
LINE
  5
134
100
AcDbEntity
100
AcDbLine
  8
0
 62
256
370
-1
  6
ByLayer
 10
23.5133079637578213
 20
19.4351929109176176
 30
0.0
 11
23.9577524082022641
 21
21.43519313304731
 31
0.0
  0
LINE
  5
135
100
AcDbEntity
100
AcDbLine
  8
0
 62
256
370
-1
  6
ByLayer
 10
24.6243968526467079
 20
19.4351929108250836
 30
0.0
 11
25.2910412970911516
 21
21.4351931330473064
 31
0.0
  0
LINE
  5
136
100
AcDbEntity
100
AcDbLine
  8
0
 62
256
370
-1
  6
ByLayer
 10
25.2910412970911516
 20
21.4351931330473064
 30
0.0
 11
25.9577746304244847
 21
19.4351929118005415
 31
0.0
  0
LINE
  5
137
100
AcDbEntity
100
AcDbLine
  8
0
 62
256
370
-1
  6
ByLayer
 10
24.8095968526467061
 20
19.9907486886028636
 30
0.0
 11
25.7725524082022623
 21
19.9907486886028636
 31
0.0
  0
LINE
  5
138
100
AcDbEntity
100
AcDbLine
  8
0
 62
256
370
-1
  6
ByLayer
 10
26.8670190748689315
 20
20.5948126886028682
 30
0.0
 11
27.4929524082022638
 21
20.2755729108250904
 31
0.0
  0
ARC
  5
139
100
AcDbEntity
  8
0
 62
256
370
-1
  6
ByLayer
100
AcDbCircle
 10
27.0689079637578196
 20
19.9629706886028693
 30
0.0
 40
1.4722222222222221
100
AcDbArc
 50
63.0745840000000015
 51
90.0
  0
ARC
  5
13A
100
AcDbEntity
  8
0
 62
256
370
-1
  6
ByLayer
100
AcDbCircle
 10
27.0689079637578196
 20
20.9907486886028707
 30
0.0
 40
0.4444444444444444
100
AcDbArc
 50
90.0
 51
242.9811799999999948
  0
ARC
  5
13B
100
AcDbEntity
  8
0
 62
256
370
-1
  6
ByLayer
100
AcDbCircle
 10
27.291130185980041
 20
19.8796375774917564
 30
0.0
 40
0.4444444444444444
100
AcDbArc
 50
270.0
 51
62.9811850000000035
  0
ARC
  5
13C
100
AcDbEntity
  8
0
 62
256
370
-1
  6
ByLayer
100
AcDbCircle
 10
27.291130185980041
 20
20.9074151330473121
 30
0.0
 40
1.4722222222222221
100
AcDbArc
 50
243.0745799999999974
 51
270.0
  0
LINE
  5
13D
100
AcDbEntity
100
AcDbLine
  8
0
 62
256
370
-1
  6
ByLayer
 10
28.4022414018289524
 20
21.43519313304731
 30
0.0
 11
28.4022416240511753
 21
19.43519313304731
 31
0.0
  0
LINE
  5
13E
100
AcDbEntity
100
AcDbLine
  8
0
 62
256
370
-1
  6
ByLayer
 10
29.5133525129400631
 20
19.4351929109139121
 30
0.0
 11
29.5133525129400631
 21
21.43519313304731
 31
0.0
  0
LINE
  5
13F
100
AcDbEntity
100
AcDbLine
  8
0
 62
256
370
-1
  6
ByLayer
 10
28.4022414018289524
 20
20.5463040219361979
 30
0.0
 11
29.5133525129400631
 21
20.5463040219361979
 31
0.0
  0
LINE
  5
140
100
AcDbEntity
100
AcDbLine
  8
0
 62
256
370
-1
  6
ByLayer
 10
31.0688858462733926
 20
21.4351931330473064
 30
0.0
 11
30.1800191796067274
 21
21.4351931330473064
 31
0.0
  0
LINE
  5
141
100
AcDbEntity
100
AcDbLine
  8
0
 62
256
370
-1
  6
ByLayer
 10
30.1800191796067274
 20
21.4351931330473064
 30
0.0
 11
30.1800194018289503
 21
19.4351931330473064
 31
0.0
  0
LINE
  5
142
100
AcDbEntity
100
AcDbLine
  8
0
 62
256
370
-1
  6
ByLayer
 10
30.1800194018289503
 20
19.4351931330473064
 30
0.0
 11
31.0688858462733926
 21
19.4351929110182091
 31
0.0
  0
LINE
  5
143
100
AcDbEntity
100
AcDbLine
  8
0
 62
256
370
-1
  6
ByLayer
 10
30.1800191796067274
 20
20.5463040219361943
 30
0.0
 11
30.8466636240511711
 21
20.5463040219361943
 31
0.0
  0
LINE
  5
144
100
AcDbEntity
100
AcDbLine
  8
0
 62
256
370
-1
  6
ByLayer
 10
31.7355527351622833
 20
19.4351931330473064
 30
0.0
 11
31.7355525129400604
 21
21.4351931330473064
 31
0.0
  0
LINE
  5
145
100
AcDbEntity
100
AcDbLine
  8
0
 62
256
370
-1
  6
ByLayer
 10
31.7355525129400604
 20
21.4351931330473064
 30
0.0
 11
32.4022191796067247
 21
21.4351931330473064
 31
0.0
  0
LINE
  5
146
100
AcDbEntity
100
AcDbLine
  8
0
 62
256
370
-1
  6
ByLayer
 10
32.8466636240511747
 20
20.9907486886028636
 30
0.0
 11
32.8466636240511747
 21
20.7685262441584158
 31
0.0
  0
LINE
  5
147
100
AcDbEntity
100
AcDbLine
  8
0
 62
256
370
-1
  6
ByLayer
 10
32.4022191796067247
 20
20.3240820219361957
 30
0.0
 11
31.7355525129400604
 21
20.3240820219361957
 31
0.0
  0
LINE
  5
148
100
AcDbEntity
100
AcDbLine
  8
0
 62
256
370
-1
  6
ByLayer
 10
32.4022191796067247
 20
20.3240820219361957
 30
0.0
 11
32.8466636240511747
 21
19.4351929109139085
 31
0.0
  0
ARC
  5
149
100
AcDbEntity
  8
0
 62
256
370
-1
  6
ByLayer
100
AcDbCircle
 10
32.4022191796067247
 20
20.9907486886028636
 30
0.0
 40
0.4444444444444444
100
AcDbArc
 50
0.0
 51
90.0
  0
ARC
  5
14A
100
AcDbEntity
  8
0
 62
256
370
-1
  6
ByLayer
100
AcDbCircle
 10
32.4022191796067247
 20
20.7685262441584158
 30
0.0
 40
0.4444444444444444
100
AcDbArc
 50
270.0
 51
0.0
  0
LINE
  5
14B
100
AcDbEntity
100
AcDbLine
  8
0
 62
256
370
-1
  6
ByLayer
 10
107.2531966618984001
 20
22.6351929108250864
 30
0.0
 11
107.2531966618984001
 21
24.6351931330473093
 31
0.0
  0
LINE
  5
14C
100
AcDbEntity
100
AcDbLine
  8
0
 62
256
370
-1
  6
ByLayer
 10
107.2531966618984001
 20
24.6351931330473093
 30
0.0
 11
107.9198633285650715
 21
23.5240820219361986
 31
0.0
  0
LINE
  5
14D
100
AcDbEntity
100
AcDbLine
  8
0
 62
256
370
-1
  6
ByLayer
 10
107.9198633285650715
 20
23.5240820219361986
 30
0.0
 11
108.5865299952317429
 21
24.6351931330473093
 31
0.0
  0
LINE
  5
14E
100
AcDbEntity
100
AcDbLine
  8
0
 62
256
370
-1
  6
ByLayer
 10
108.5865299952317429
 20
24.6351931330473093
 30
0.0
 11
108.5865299952317429
 21
22.6351929109176169
 31
0.0
  0
LINE
  5
14F
100
AcDbEntity
100
AcDbLine
  8
0
 62
256
370
-1
  6
ByLayer
 10
109.2531966618984001
 20
24.6351931330473093
 30
0.0
 11
109.6976411063428429
 21
24.6351931330473093
 31
0.0
  0
LINE
  5
150
100
AcDbEntity
100
AcDbLine
  8
0
 62
256
370
-1
  6
ByLayer
 10
109.6976411063428429
 20
23.7463040219361972
 30
0.0
 11
109.4754188841206286
 21
23.7463040219361972
 31
0.0
  0
LINE
  5
151
100
AcDbEntity
100
AcDbLine
  8
0
 62
256
370
-1
  6
ByLayer
 10
110.1420855507872858
 20
23.3018597997139771
 30
0.0
 11
110.1420855507872858
 21
23.0796375774917522
 31
0.0
  0
LINE
  5
152
100
AcDbEntity
100
AcDbLine
  8
0
 62
256
370
-1
  6
ByLayer
 10
109.6976411063428429
 20
22.6351929108152099
 30
0.0
 11
109.2531968841206265
 21
22.6351931330473093
 31
0.0
  0
ARC
  5
153
100
AcDbEntity
  8
0
 62
256
370
-1
  6
ByLayer
100
AcDbCircle
 10
109.6976411063428429
 20
24.1907486886028664
 30
0.0
 40
0.4444444444444444
100
AcDbArc
 50
270.0
 51
90.0
  0
ARC
  5
154
100
AcDbEntity
  8
0
 62
256
370
-1
  6
ByLayer
100
AcDbCircle
 10
109.6976411063428429
 20
23.3018597997139771
 30
0.0
 40
0.4444444444444444
100
AcDbArc
 50
0.0
 51
90.0
  0
ARC
  5
155
100
AcDbEntity
  8
0
 62
256
370
-1
  6
ByLayer
100
AcDbCircle
 10
109.6976411063428429
 20
23.0796375774917522
 30
0.0
 40
0.4444444444444444
100
AcDbArc
 50
270.0
 51
0.0
  0
LINE
  5
156
100
AcDbEntity
100
AcDbLine
  8
0
 62
256
370
-1
  6
ByLayer
 10
110.8087744396761849
 20
23.968526244158415
 30
0.0
 11
111.6976411063428429
 21
22.6351929110126591
 31
0.0
  0
LINE
  5
157
100
AcDbEntity
100
AcDbLine
  8
0
 62
256
370
-1
  6
ByLayer
 10
110.8087744396761849
 20
22.6351929108250829
 30
0.0
 11
111.6976411063428429
 21
23.968526244158415
 31
0.0
  0
LINE
  5
158
100
AcDbEntity
100
AcDbLine
  8
0
 62
256
370
-1
  6
ByLayer
 10
112.3643077730095143
 20
23.3018597997139736
 30
0.0
 11
112.3643077730095143
 21
23.0796375774917486
 31
0.0
  0
LINE
  5
159
100
AcDbEntity
100
AcDbLine
  8
0
 62
256
370
-1
  6
ByLayer
 10
113.2531966618984001
 20
23.0796375774917486
 30
0.0
 11
113.2531966618984001
 21
23.3018597997139736
 31
0.0
  0
LINE
  5
15A
100
AcDbEntity
100
AcDbLine
  8
0
 62
256
370
-1
  6
ByLayer
 10
112.4198633285650715
 20
24.2463037997139708
 30
0.0
 11
112.4198633285650715
 21
24.1351933552695286
 31
0.0
  0
LINE
  5
15B
100
AcDbEntity
100
AcDbLine
  8
0
 62
256
370
-1
  6
ByLayer
 10
113.1976411063428429
 20
24.1351933552695286
 30
0.0
 11
113.1976411063428429
 21
24.2463037997139708
 31
0.0
  0
ARC
  5
15C
100
AcDbEntity
  8
0
 62
256
370
-1
  6
ByLayer
100
AcDbCircle
 10
112.8087522174539572
 20
23.0796375774917486
 30
0.0
 40
0.4444444444444444
100
AcDbArc
 50
180.0
 51
0.0
  0
ARC
  5
15D
100
AcDbEntity
  8
0
 62
256
370
-1
  6
ByLayer
100
AcDbCircle
 10
112.8087522174539572
 20
23.3018597997139736
 30
0.0
 40
0.4444444444444444
100
AcDbArc
 50
0.0
 51
180.0
  0
ARC
  5
15E
100
AcDbEntity
  8
0
 62
256
370
-1
  6
ByLayer
100
AcDbCircle
 10
112.8087522174539572
 20
24.1351933552695286
 30
0.0
 40
0.3888888888888888
100
AcDbArc
 50
180.0
 51
0.0
  0
ARC
  5
15F
100
AcDbEntity
  8
0
 62
256
370
-1
  6
ByLayer
100
AcDbCircle
 10
112.8087522174539572
 20
24.2463037997139708
 30
0.0
 40
0.3888888888888888
100
AcDbArc
 50
0.0
 51
180.0
  0
LINE
  5
160
100
AcDbEntity
100
AcDbLine
  8
0
 62
256
370
-1
  6
ByLayer
 10
113.9198411063428438
 20
22.6351929108250829
 30
0.0
 11
113.9198411063428438
 21
24.6351931330473057
 31
0.0
  0
LINE
  5
161
100
AcDbEntity
100
AcDbLine
  8
0
 62
256
370
-1
  6
ByLayer
 10
113.9198411063428438
 20
24.6351931330473057
 30
0.0
 11
114.5865077730095152
 21
23.524082021936195
 31
0.0
  0
LINE
  5
162
100
AcDbEntity
100
AcDbLine
  8
0
 62
256
370
-1
  6
ByLayer
 10
114.5865077730095152
 20
23.524082021936195
 30
0.0
 11
115.2531744396761866
 21
24.6351931330473057
 31
0.0
  0
LINE
  5
163
100
AcDbEntity
100
AcDbLine
  8
0
 62
256
370
-1
  6
ByLayer
 10
115.2531744396761866
 20
24.6351931330473057
 30
0.0
 11
115.2531744396761866
 21
22.6351929109176133
 31
0.0
  0
LINE
  5
164
100
AcDbEntity
100
AcDbLine
  8
0
 62
256
370
-1
  6
ByLayer
 10
115.9198188841206161
 20
22.6351929108250864
 30
0.0
 11
115.9198188841206161
 21
24.6351931330473093
 31
0.0
  0
LINE
  5
165
100
AcDbEntity
100
AcDbLine
  8
0
 62
256
370
-1
  6
ByLayer
 10
115.9198188841206161
 20
24.6351931330473093
 30
0.0
 11
116.5864855507872875
 21
23.5240820219361986
 31
0.0
  0
LINE
  5
166
100
AcDbEntity
100
AcDbLine
  8
0
 62
256
370
-1
  6
ByLayer
 10
116.5864855507872875
 20
23.5240820219361986
 30
0.0
 11
117.2531522174539589
 21
24.6351931330473093
 31
0.0
  0
LINE
  5
167
100
AcDbEntity
100
AcDbLine
  8
0
 62
256
370
-1
  6
ByLayer
 10
117.2531522174539589
 20
24.6351931330473093
 30
0.0
 11
117.2531522174539589
 21
22.6351929109176169
 31
0.0
  0
LINE
  5
168
100
AcDbEntity
100
AcDbLine
  8
0
 62
256
370
-1
  6
ByLayer
 10
107.2531966618984001
 20
19.4351929108250872
 30
0.0
 11
107.2531966618984001
 21
21.43519313304731
 31
0.0
  0
LINE
  5
169
100
AcDbEntity
100
AcDbLine
  8
0
 62
256
370
-1
  6
ByLayer
 10
107.2531966618984001
 20
21.43519313304731
 30
0.0
 11
107.9198633285650715
 21
20.3240820219361993
 31
0.0
  0
LINE
  5
16A
100
AcDbEntity
100
AcDbLine
  8
0
 62
256
370
-1
  6
ByLayer
 10
107.9198633285650715
 20
20.3240820219361993
 30
0.0
 11
108.5865299952317429
 21
21.43519313304731
 31
0.0
  0
LINE
  5
16B
100
AcDbEntity
100
AcDbLine
  8
0
 62
256
370
-1
  6
ByLayer
 10
108.5865299952317429
 20
21.43519313304731
 30
0.0
 11
108.5865299952317429
 21
19.4351929109176176
 31
0.0
  0
LINE
  5
16C
100
AcDbEntity
100
AcDbLine
  8
0
 62
256
370
-1
  6
ByLayer
 10
109.2531966618984001
 20
21.43519313304731
 30
0.0
 11
109.6976411063428429
 21
21.43519313304731
 31
0.0
  0
LINE
  5
16D
100
AcDbEntity
100
AcDbLine
  8
0
 62
256
370
-1
  6
ByLayer
 10
109.6976411063428429
 20
20.5463040219361979
 30
0.0
 11
109.4754188841206286
 21
20.5463040219361979
 31
0.0
  0
LINE
  5
16E
100
AcDbEntity
100
AcDbLine
  8
0
 62
256
370
-1
  6
ByLayer
 10
110.1420855507872858
 20
20.1018597997139778
 30
0.0
 11
110.1420855507872858
 21
19.8796375774917529
 31
0.0
  0
LINE
  5
16F
100
AcDbEntity
100
AcDbLine
  8
0
 62
256
370
-1
  6
ByLayer
 10
109.6976411063428429
 20
19.4351929108152106
 30
0.0
 11
109.2531968841206265
 21
19.43519313304731
 31
0.0
  0
ARC
  5
170
100
AcDbEntity
  8
0
 62
256
370
-1
  6
ByLayer
100
AcDbCircle
 10
109.6976411063428429
 20
20.9907486886028636
 30
0.0
 40
0.4444444444444444
100
AcDbArc
 50
270.0
 51
90.0
  0
ARC
  5
171
100
AcDbEntity
  8
0
 62
256
370
-1
  6
ByLayer
100
AcDbCircle
 10
109.6976411063428429
 20
20.1018597997139778
 30
0.0
 40
0.4444444444444444
100
AcDbArc
 50
0.0
 51
90.0
  0
ARC
  5
172
100
AcDbEntity
  8
0
 62
256
370
-1
  6
ByLayer
100
AcDbCircle
 10
109.6976411063428429
 20
19.8796375774917529
 30
0.0
 40
0.4444444444444444
100
AcDbArc
 50
270.0
 51
0.0
  0
LINE
  5
173
100
AcDbEntity
100
AcDbLine
  8
0
 62
256
370
-1
  6
ByLayer
 10
112.3087299952317295
 20
21.43519313304731
 30
0.0
 11
112.7531744396761724
 21
19.4351929108263199
 31
0.0
  0
LINE
  5
174
100
AcDbEntity
100
AcDbLine
  8
0
 62
256
370
-1
  6
ByLayer
 10
112.7531744396761724
 20
19.4351929108263199
 30
0.0
 11
113.1976188841206294
 21
20.7685262441584193
 31
0.0
  0
LINE
  5
175
100
AcDbEntity
100
AcDbLine
  8
0
 62
256
370
-1
  6
ByLayer
 10
113.1976188841206294
 20
20.7685262441584193
 30
0.0
 11
113.6420633285650723
 21
19.4351929109176176
 31
0.0
  0
LINE
  5
176
100
AcDbEntity
100
AcDbLine
  8
0
 62
256
370
-1
  6
ByLayer
 10
113.6420633285650723
 20
19.4351929109176176
 30
0.0
 11
114.0865077730095152
 21
21.43519313304731
 31
0.0
  0
LINE
  5
177
100
AcDbEntity
100
AcDbLine
  8
0
 62
256
370
-1
  6
ByLayer
 10
114.7531522174539447
 20
19.4351929108250836
 30
0.0
 11
115.4197966618983884
 21
21.4351931330473064
 31
0.0
  0
LINE
  5
178
100
AcDbEntity
100
AcDbLine
  8
0
 62
256
370
-1
  6
ByLayer
 10
115.4197966618983884
 20
21.4351931330473064
 30
0.0
 11
116.0865299952317287
 21
19.4351929118005415
 31
0.0
  0
LINE
  5
179
100
AcDbEntity
100
AcDbLine
  8
0
 62
256
370
-1
  6
ByLayer
 10
114.9383522174539536
 20
19.9907486886028636
 30
0.0
 11
115.9013077730095063
 21
19.9907486886028636
 31
0.0
  0
LINE
  5
17A
100
AcDbEntity
100
AcDbLine
  8
0
 62
256
370
-1
  6
ByLayer
 10
116.9957744396761825
 20
20.5948126886028682
 30
0.0
 11
117.6217077730095042
 21
20.2755729108250904
 31
0.0
  0
ARC
  5
17B
100
AcDbEntity
  8
0
 62
256
370
-1
  6
ByLayer
100
AcDbCircle
 10
117.1976633285650706
 20
19.9629706886028693
 30
0.0
 40
1.4722222222222221
100
AcDbArc
 50
63.0745840000000015
 51
90.0
  0
ARC
  5
17C
100
AcDbEntity
  8
0
 62
256
370
-1
  6
ByLayer
100
AcDbCircle
 10
117.1976633285650706
 20
20.9907486886028707
 30
0.0
 40
0.4444444444444444
100
AcDbArc
 50
90.0
 51
242.9811799999999948
  0
ARC
  5
17D
100
AcDbEntity
  8
0
 62
256
370
-1
  6
ByLayer
100
AcDbCircle
 10
117.419885550787285
 20
19.8796375774917564
 30
0.0
 40
0.4444444444444444
100
AcDbArc
 50
270.0
 51
62.9811850000000035
  0
ARC
  5
17E
100
AcDbEntity
  8
0
 62
256
370
-1
  6
ByLayer
100
AcDbCircle
 10
117.419885550787285
 20
20.9074151330473121
 30
0.0
 40
1.4722222222222221
100
AcDbArc
 50
243.0745799999999974
 51
270.0
  0
LINE
  5
17F
100
AcDbEntity
100
AcDbLine
  8
0
 62
256
370
-1
  6
ByLayer
 10
118.530996766636207
 20
21.43519313304731
 30
0.0
 11
118.5309969888584334
 21
19.43519313304731
 31
0.0
  0
LINE
  5
180
100
AcDbEntity
100
AcDbLine
  8
0
 62
256
370
-1
  6
ByLayer
 10
119.6421078777473213
 20
19.4351929109139121
 30
0.0
 11
119.6421078777473213
 21
21.43519313304731
 31
0.0
  0
LINE
  5
181
100
AcDbEntity
100
AcDbLine
  8
0
 62
256
370
-1
  6
ByLayer
 10
118.530996766636207
 20
20.5463040219361979
 30
0.0
 11
119.6421078777473213
 21
20.5463040219361979
 31
0.0
  0
LINE
  5
182
100
AcDbEntity
100
AcDbLine
  8
0
 62
256
370
-1
  6
ByLayer
 10
121.1976412110806507
 20
21.4351931330473064
 30
0.0
 11
120.3087745444139784
 21
21.4351931330473064
 31
0.0
  0
LINE
  5
183
100
AcDbEntity
100
AcDbLine
  8
0
 62
256
370
-1
  6
ByLayer
 10
120.3087745444139784
 20
21.4351931330473064
 30
0.0
 11
120.3087747666362048
 21
19.4351931330473064
 31
0.0
  0
LINE
  5
184
100
AcDbEntity
100
AcDbLine
  8
0
 62
256
370
-1
  6
ByLayer
 10
120.3087747666362048
 20
19.4351931330473064
 30
0.0
 11
121.1976412110806507
 21
19.4351929110182091
 31
0.0
  0
LINE
  5
185
100
AcDbEntity
100
AcDbLine
  8
0
 62
256
370
-1
  6
ByLayer
 10
120.3087745444139784
 20
20.5463040219361943
 30
0.0
 11
120.9754189888584222
 21
20.5463040219361943
 31
0.0
  0
LINE
  5
186
100
AcDbEntity
100
AcDbLine
  8
0
 62
256
370
-1
  6
ByLayer
 10
121.8643080999695343
 20
19.4351931330473064
 30
0.0
 11
121.8643078777473079
 21
21.4351931330473064
 31
0.0
  0
LINE
  5
187
100
AcDbEntity
100
AcDbLine
  8
0
 62
256
370
-1
  6
ByLayer
 10
121.8643078777473079
 20
21.4351931330473064
 30
0.0
 11
122.5309745444139793
 21
21.4351931330473064
 31
0.0
  0
LINE
  5
188
100
AcDbEntity
100
AcDbLine
  8
0
 62
256
370
-1
  6
ByLayer
 10
122.9754189888584222
 20
20.9907486886028636
 30
0.0
 11
122.9754189888584222
 21
20.7685262441584158
 31
0.0
  0
LINE
  5
189
100
AcDbEntity
100
AcDbLine
  8
0
 62
256
370
-1
  6
ByLayer
 10
122.5309745444139793
 20
20.3240820219361957
 30
0.0
 11
121.8643078777473079
 21
20.3240820219361957
 31
0.0
  0
LINE
  5
18A
100
AcDbEntity
100
AcDbLine
  8
0
 62
256
370
-1
  6
ByLayer
 10
122.5309745444139793
 20
20.3240820219361957
 30
0.0
 11
122.9754189888584222
 21
19.4351929109139085
 31
0.0
  0
ARC
  5
18B
100
AcDbEntity
  8
0
 62
256
370
-1
  6
ByLayer
100
AcDbCircle
 10
122.5309745444139793
 20
20.9907486886028636
 30
0.0
 40
0.4444444444444444
100
AcDbArc
 50
0.0
 51
90.0
  0
ARC
  5
18C
100
AcDbEntity
  8
0
 62
256
370
-1
  6
ByLayer
100
AcDbCircle
 10
122.5309745444139793
 20
20.7685262441584158
 30
0.0
 40
0.4444444444444444
100
AcDbArc
 50
270.0
 51
0.0
  0
LINE
  5
18D
100
AcDbEntity
100
AcDbLine
  8
0
 62
256
370
-1
  6
ByLayer
 10
75.5
 20
-26.0
 30
0.0
 11
75.5
 21
2.0
 31
0.0
  0
LINE
  5
18E
100
AcDbEntity
100
AcDbLine
  8
0
 62
256
370
-1
  6
ByLayer
 10
75.5
 20
2.0
 30
0.0
 11
95.5
 21
2.0
 31
0.0
  0
LINE
  5
18F
100
AcDbEntity
100
AcDbLine
  8
0
 62
256
370
-1
  6
ByLayer
 10
95.5
 20
2.0
 30
0.0
 11
95.5
 21
-26.0
 31
0.0
  0
LINE
  5
190
100
AcDbEntity
100
AcDbLine
  8
0
 62
256
370
-1
  6
ByLayer
 10
95.5
 20
-26.0
 30
0.0
 11
140.0
 21
-26.0
 31
0.0
  0
LINE
  5
191
100
AcDbEntity
100
AcDbLine
  8
0
 62
7
370
15
  6
CONTINUOUS
 10
0.0
 20
-26.0
 30
0.0
 11
75.5
 21
-26.0
 31
0.0
  0
ENDSEC
  0
SECTION
  2
OBJECTS
  0
DICTIONARY
  5
C
100
AcDbDictionary
280
0
281
1
  3
ACAD_GROUP
350
D
  3
ACAD_LAYOUT
350
1A
  3
ACAD_MLINESTYLE
350
17
  3
ACAD_PLOTSETTINGS
350
19
  3
ACAD_PLOTSTYLENAME
350
E
  3
AcDbVariableDictionary
350
192
  0
DICTIONARY
  5
D
100
AcDbDictionary
280
0
281
1
  0
ACDBDICTIONARYWDFLT
  5
E
100
AcDbDictionary
281
1
  3
Normal
350
F
100
AcDbDictionaryWithDefault
340
F
  0
ACDBPLACEHOLDER
  5
F
  0
DICTIONARY
  5
17
100
AcDbDictionary
280
0
281
1
  3
Standard
350
18
  0
MLINESTYLE
  5
18
100
AcDbMlineStyle
  2
STANDARD
 70
0
  3

 62
256
 51
90.0
 52
90.0
 71
2
 49
0.5
 62
256
  6
BYLAYER
 49
-0.5
 62
256
  6
BYLAYER
  0
DICTIONARY
  5
19
100
AcDbDictionary
280
0
281
1
  0
DICTIONARY
  5
1A
100
AcDbDictionary
281
1
  3
Layout1
350
1E
  3
Layout2
350
26
  3
Model
350
22
  0
LAYOUT
  5
1E
100
AcDbPlotSettings
  1

  2
C:\Program Files\AutoCAD 2002\plotters\DWF ePlot (optimized for plotting).pc3
  4

  6

 40
0.0
 41
0.0
 42
0.0
 43
0.0
 44
0.0
 45
0.0
 46
0.0
 47
0.0
 48
0.0
 49
0.0
140
0.0
141
0.0
142
1.0
143
1.0
 70
688
 72
0
 73
0
 74
5
  7

 75
16
147
1.0
148
0.0
149
0.0
100
AcDbLayout
  1
Layout1
 70
1
 71
1
 10
0.0
 20
0.0
 11
420.0
 21
297.0
 12
0.0
 22
0.0
 32
0.0
 14
100000000000000000000.0
 24
100000000000000000000.0
 34
100000000000000000000.0
 15
-100000000000000000000.0
 25
-100000000000000000000.0
 35
-100000000000000000000.0
146
0.0
 13
0.0
 23
0.0
 33
0.0
 16
1.0
 26
0.0
 36
0.0
 17
0.0
 27
1.0
 37
0.0
 76
0
330
1B
  0
LAYOUT
  5
22
100
AcDbPlotSettings
  1

  2
C:\Program Files\AutoCAD 2002\plotters\DWF ePlot (optimized for plotting).pc3
  4

  6

 40
0.0
 41
0.0
 42
0.0
 43
0.0
 44
0.0
 45
0.0
 46
0.0
 47
0.0
 48
0.0
 49
0.0
140
0.0
141
0.0
142
1.0
143
1.0
 70
1712
 72
0
 73
0
 74
0
  7

 75
0
147
1.0
148
0.0
149
0.0
100
AcDbLayout
  1
Model
 70
1
 71
0
 10
0.0
 20
0.0
 11
12.0
 21
9.0
 12
0.0
 22
0.0
 32
0.0
 14
0.0
 24
0.0
 34
0.0
 15
0.0
 25
0.0
 35
0.0
146
0.0
 13
0.0
 23
0.0
 33
0.0
 16
1.0
 26
0.0
 36
0.0
 17
0.0
 27
1.0
 37
0.0
 76
0
330
1F
  0
LAYOUT
  5
26
100
AcDbPlotSettings
  1

  2
C:\Program Files\AutoCAD 2002\plotters\DWF ePlot (optimized for plotting).pc3
  4

  6

 40
0.0
 41
0.0
 42
0.0
 43
0.0
 44
0.0
 45
0.0
 46
0.0
 47
0.0
 48
0.0
 49
0.0
140
0.0
141
0.0
142
1.0
143
1.0
 70
688
 72
0
 73
0
 74
5
  7

 75
16
147
1.0
148
0.0
149
0.0
100
AcDbLayout
  1
Layout2
 70
1
 71
2
 10
0.0
 20
0.0
 11
12.0
 21
9.0
 12
0.0
 22
0.0
 32
0.0
 14
0.0
 24
0.0
 34
0.0
 15
0.0
 25
0.0
 35
0.0
146
0.0
 13
0.0
 23
0.0
 33
0.0
 16
1.0
 26
0.0
 36
0.0
 17
0.0
 27
1.0
 37
0.0
 76
0
330
23
  0
DICTIONARY
  5
192
100
AcDbDictionary
281
1
  3
DIMASSOC
350
194
  3
HIDETEXT
350
193
  0
DICTIONARYVAR
  5
193
100
DictionaryVariables
280
0
  1
2
  0
DICTIONARYVAR
  5
194
100
DictionaryVariables
280
0
  1
1
  0
ENDSEC
  0
EOF
