  0
SECTION
  2
HEADER
  9
$ACADVER
  1
AC1015
  9
$ACADMAINTVER
 70
     6
  9
$DWGCODEPAGE
  3
ANSI_1252
  9
$INSBASE
 10
0.0
 20
0.0
 30
0.0
  9
$EXTMIN
 10
0.0
 20
-4.735
 30
0.0
  9
$EXTMAX
 10
54.5000841717
 20
4.735
 30
0.0
  9
$LIMMIN
 10
0.0
 20
0.0
  9
$LIMMAX
 10
420.0
 20
297.0
  9
$ORTHOMODE
 70
     0
  9
$REGENMODE
 70
     1
  9
$FILLMODE
 70
     1
  9
$QTEXTMODE
 70
     0
  9
$MIRRTEXT
 70
     1
  9
$LTSCALE
 40
1.0
  9
$ATTMODE
 70
     1
  9
$TEXTSIZE
 40
3.5
  9
$TRACEWID
 40
1.0
  9
$TEXTSTYLE
  7
STANDARD
  9
$CLAYER
  8
0
  9
$CELTYPE
  6
ByLayer
  9
$CECOLOR
 62
   256
  9
$CELTSCALE
 40
1.0
  9
$DISPSILH
 70
     0
  9
$DIMSCALE
 40
1.0
  9
$DIMASZ
 40
3.302
  9
$DIMEXO
 40
1.0
  9
$DIMDLI
 40
3.75
  9
$DIMRND
 40
0.0
  9
$DIMDLE
 40
0.0
  9
$DIMEXE
 40
1.0
  9
$DIMTP
 40
0.0
  9
$DIMTM
 40
0.0
  9
$DIMTXT
 40
3.5
  9
$DIMCEN
 40
2.5
  9
$DIMTSZ
 40
0.0
  9
$DIMTOL
 70
     0
  9
$DIMLIM
 70
     0
  9
$DIMTIH
 70
     1
  9
$DIMTOH
 70
     1
  9
$DIMSE1
 70
     0
  9
$DIMSE2
 70
     0
  9
$DIMTAD
 70
     1
  9
$DIMZIN
 70
     0
  9
$DIMBLK
  1

  9
$DIMASO
 70
     1
  9
$DIMSHO
 70
     1
  9
$DIMPOST
  1

  9
$DIMAPOST
  1

  9
$DIMALT
 70
     0
  9
$DIMALTD
 70
     3
  9
$DIMALTF
 40
0.0393700787
  9
$DIMLFAC
 40
1.0
  9
$DIMTOFL
 70
     1
  9
$DIMTVP
 40
0.0
  9
$DIMTIX
 70
     0
  9
$DIMSOXD
 70
     0
  9
$DIMSAH
 70
     0
  9
$DIMBLK1
  1

  9
$DIMBLK2
  1

  9
$DIMSTYLE
  2
ISO-25
  9
$DIMCLRD
 70
     0
  9
$DIMCLRE
 70
     0
  9
$DIMCLRT
 70
     0
  9
$DIMTFAC
 40
1.0
  9
$DIMGAP
 40
1.524
  9
$DIMJUST
 70
     0
  9
$DIMSD1
 70
     0
  9
$DIMSD2
 70
     0
  9
$DIMTOLJ
 70
     0
  9
$DIMTZIN
 70
     0
  9
$DIMALTZ
 70
     0
  9
$DIMALTTZ
 70
     0
  9
$DIMUPT
 70
     0
  9
$DIMDEC
 70
     3
  9
$DIMTDEC
 70
     3
  9
$DIMALTU
 70
     2
  9
$DIMALTTD
 70
     3
  9
$DIMTXSTY
  7
STANDARD
  9
$DIMAUNIT
 70
     0
  9
$DIMADEC
 70
     2
  9
$DIMALTRND
 40
0.0
  9
$DIMAZIN
 70
     0
  9
$DIMDSEP
 70
    44
  9
$DIMATFIT
 70
     3
  9
$DIMFRAC
 70
     0
  9
$DIMLDRBLK
  1

  9
$DIMLUNIT
 70
     2
  9
$DIMLWD
 70
    -2
  9
$DIMLWE
 70
    -2
  9
$DIMTMOVE
 70
     0
  9
$LUNITS
 70
     2
  9
$LUPREC
 70
     2
  9
$SKETCHINC
 40
1.0
  9
$FILLETRAD
 40
10.0
  9
$AUNITS
 70
     0
  9
$AUPREC
 70
     2
  9
$MENU
  1
.
  9
$ELEVATION
 40
0.0
  9
$PELEVATION
 40
0.0
  9
$THICKNESS
 40
0.0
  9
$LIMCHECK
 70
     0
  9
$CHAMFERA
 40
0.0
  9
$CHAMFERB
 40
0.0
  9
$CHAMFERC
 40
0.0
  9
$CHAMFERD
 40
0.0
  9
$SKPOLY
 70
     0
  9
$TDCREATE
 40
2458833.318698762
  9
$TDUCREATE
 40
2458833.277032095
  9
$TDUPDATE
 40
2458833.318735695
  9
$TDUUPDATE
 40
2458833.277069028
  9
$TDINDWG
 40
0.0000000116
  9
$TDUSRTIMER
 40
0.0000000116
  9
$USRTIMER
 70
     1
  9
$ANGBASE
 50
0.0
  9
$ANGDIR
 70
     0
  9
$PDMODE
 70
     0
  9
$PDSIZE
 40
-1.0
  9
$PLINEWID
 40
0.0
  9
$SPLFRAME
 70
     0
  9
$SPLINETYPE
 70
     6
  9
$SPLINESEGS
 70
     8
  9
$HANDSEED
  5
23F
  9
$SURFTAB1
 70
     6
  9
$SURFTAB2
 70
     6
  9
$SURFTYPE
 70
     6
  9
$SURFU
 70
     6
  9
$SURFV
 70
     6
  9
$UCSBASE
  2

  9
$UCSNAME
  2

  9
$UCSORG
 10
0.0
 20
0.0
 30
0.0
  9
$UCSXDIR
 10
1.0
 20
0.0
 30
0.0
  9
$UCSYDIR
 10
0.0
 20
1.0
 30
0.0
  9
$UCSORTHOREF
  2

  9
$UCSORTHOVIEW
 70
     0
  9
$UCSORGTOP
 10
0.0
 20
0.0
 30
0.0
  9
$UCSORGBOTTOM
 10
0.0
 20
0.0
 30
0.0
  9
$UCSORGLEFT
 10
0.0
 20
0.0
 30
0.0
  9
$UCSORGRIGHT
 10
0.0
 20
0.0
 30
0.0
  9
$UCSORGFRONT
 10
0.0
 20
0.0
 30
0.0
  9
$UCSORGBACK
 10
0.0
 20
0.0
 30
0.0
  9
$PUCSBASE
  2

  9
$PUCSNAME
  2

  9
$PUCSORG
 10
0.0
 20
0.0
 30
0.0
  9
$PUCSXDIR
 10
1.0
 20
0.0
 30
0.0
  9
$PUCSYDIR
 10
0.0
 20
1.0
 30
0.0
  9
$PUCSORTHOREF
  2

  9
$PUCSORTHOVIEW
 70
     0
  9
$PUCSORGTOP
 10
0.0
 20
0.0
 30
0.0
  9
$PUCSORGBOTTOM
 10
0.0
 20
0.0
 30
0.0
  9
$PUCSORGLEFT
 10
0.0
 20
0.0
 30
0.0
  9
$PUCSORGRIGHT
 10
0.0
 20
0.0
 30
0.0
  9
$PUCSORGFRONT
 10
0.0
 20
0.0
 30
0.0
  9
$PUCSORGBACK
 10
0.0
 20
0.0
 30
0.0
  9
$USERI1
 70
     0
  9
$USERI2
 70
     0
  9
$USERI3
 70
     0
  9
$USERI4
 70
     0
  9
$USERI5
 70
     0
  9
$USERR1
 40
0.0
  9
$USERR2
 40
0.0
  9
$USERR3
 40
0.0
  9
$USERR4
 40
0.0
  9
$USERR5
 40
0.0
  9
$WORLDVIEW
 70
     1
  9
$SHADEDGE
 70
     3
  9
$SHADEDIF
 70
    70
  9
$TILEMODE
 70
     1
  9
$MAXACTVP
 70
    64
  9
$PINSBASE
 10
0.0
 20
0.0
 30
0.0
  9
$PLIMCHECK
 70
     0
  9
$PEXTMIN
 10
0.0
 20
-4.735
 30
0.0
  9
$PEXTMAX
 10
54.5
 20
4.735
 30
0.0
  9
$PLIMMIN
 10
-4.2412451362
 20
-6.3254669261
  9
$PLIMMAX
 10
58.7412451362
 20
38.2076070039
  9
$UNITMODE
 70
     0
  9
$VISRETAIN
 70
     1
  9
$PLINEGEN
 70
     0
  9
$PSLTSCALE
 70
     1
  9
$TREEDEPTH
 70
  3020
  9
$CMLSTYLE
  2
Standard
  9
$CMLJUST
 70
     0
  9
$CMLSCALE
 40
20.0
  9
$PROXYGRAPHICS
 70
     1
  9
$MEASUREMENT
 70
     1
  9
$CELWEIGHT
370
    -1
  9
$ENDCAPS
280
     0
  9
$JOINSTYLE
280
     0
  9
$LWDISPLAY
290
     1
  9
$INSUNITS
 70
     4
  9
$HYPERLINKBASE
  1

  9
$STYLESHEET
  1

  9
$XEDIT
290
     1
  9
$CEPSNTYPE
380
     0
  9
$PSTYLEMODE
290
     1
  9
$FINGERPRINTGUID
  2
{60E47EF0-6D3D-4E1E-AFF0-709E59E65ECE}
  9
$VERSIONGUID
  2
{FAEB1C32-E019-11D5-929B-00C0DF256EC4}
  9
$EXTNAMES
290
     1
  9
$PSVPSCALE
 40
0.0
  9
$OLESTARTUP
290
     0
  0
ENDSEC
  0
SECTION
  2
CLASSES
  0
CLASS
  1
ACDBDICTIONARYWDFLT
  2
AcDbDictionaryWithDefault
  3
ObjectDBX Classes
 90
        0
280
     0
281
     0
  0
CLASS
  1
VISUALSTYLE
  2
AcDbVisualStyle
  3
ObjectDBX Classes
 90
     4095
280
     0
281
     0
  0
CLASS
  1
MATERIAL
  2
AcDbMaterial
  3
ObjectDBX Classes
 90
     1153
280
     0
281
     0
  0
CLASS
  1
SCALE
  2
AcDbScale
  3
ObjectDBX Classes
 90
     1153
280
     0
281
     0
  0
CLASS
  1
TABLESTYLE
  2
AcDbTableStyle
  3
ObjectDBX Classes
 90
     4095
280
     0
281
     0
  0
CLASS
  1
MLEADERSTYLE
  2
AcDbMLeaderStyle
  3
ACDB_MLEADERSTYLE_CLASS
 90
     4095
280
     0
281
     0
  0
CLASS
  1
SUN
  2
AcDbSun
  3
SCENEOE
 90
     1153
280
     0
281
     0
  0
CLASS
  1
ACDBPLACEHOLDER
  2
AcDbPlaceHolder
  3
ObjectDBX Classes
 90
        0
280
     0
281
     0
  0
CLASS
  1
LAYOUT
  2
AcDbLayout
  3
ObjectDBX Classes
 90
        0
280
     0
281
     0
  0
ENDSEC
  0
SECTION
  2
TABLES
  0
TABLE
  2
VPORT
  5
8
330
0
100
AcDbSymbolTable
 70
     1
  0
VPORT
  5
29
330
8
100
AcDbSymbolTableRecord
100
AcDbViewportTableRecord
  2
*Active
 70
     0
 10
0.0
 20
0.0
 11
1.0
 21
1.0
 12
27.2500420859
 22
0.0
 13
0.0
 23
0.0
 14
10.0
 24
10.0
 15
10.0
 25
10.0
 16
0.0
 26
0.0
 36
1.0
 17
0.0
 27
0.0
 37
0.0
 40
9.6594
 41
5.7550247277
 42
50.0
 43
0.0
 44
0.0
 50
0.0
 51
0.0
 71
     0
 72
   100
 73
     1
 74
     3
 75
     0
 76
     0
 77
     0
 78
     0
281
     0
 65
     1
110
0.0
120
0.0
130
0.0
111
1.0
121
0.0
131
0.0
112
0.0
122
1.0
132
0.0
 79
     0
146
0.0
  0
ENDTAB
  0
TABLE
  2
LTYPE
  5
5
330
0
100
AcDbSymbolTable
 70
     6
  0
LTYPE
  5
14
330
5
100
AcDbSymbolTableRecord
100
AcDbLinetypeTableRecord
  2
ByBlock
 70
     0
  3

 72
    65
 73
     0
 40
0.0
  0
LTYPE
  5
15
330
5
100
AcDbSymbolTableRecord
100
AcDbLinetypeTableRecord
  2
ByLayer
 70
     0
  3

 72
    65
 73
     0
 40
0.0
  0
LTYPE
  5
16
330
5
100
AcDbSymbolTableRecord
100
AcDbLinetypeTableRecord
  2
Continuous
 70
     0
  3
Solid line
 72
    65
 73
     0
 40
0.0
  0
LTYPE
  5
6E
330
5
100
AcDbSymbolTableRecord
100
AcDbLinetypeTableRecord
  2
HIDDEN
 70
     0
  3
Hidden __ __ __ __ __ __ __ __ __ __ __ __ __ __
 72
    65
 73
     2
 40
1.905
 49
1.27
 74
     0
 49
-0.635
 74
     0
  0
LTYPE
  5
6F
330
5
100
AcDbSymbolTableRecord
100
AcDbLinetypeTableRecord
  2
PHANTOM
 70
     0
  3
Phantom ______  __  __  ______  __  __  ______
 72
    65
 73
     6
 40
12.7
 49
6.35
 74
     0
 49
-1.27
 74
     0
 49
1.27
 74
     0
 49
-1.27
 74
     0
 49
1.27
 74
     0
 49
-1.27
 74
     0
  0
LTYPE
  5
70
330
5
100
AcDbSymbolTableRecord
100
AcDbLinetypeTableRecord
  2
CENTER
 70
     0
  3
Center ____ _ ____ _ ____ _ ____ _ ____ _ ____
 72
    65
 73
     4
 40
10.16
 49
6.35
 74
     0
 49
-1.27
 74
     0
 49
1.27
 74
     0
 49
-1.27
 74
     0
  0
LTYPE
  5
71
330
5
100
AcDbSymbolTableRecord
100
AcDbLinetypeTableRecord
  2
CENTERX2
 70
     0
  3
Center (2x) ________  __  ________  __  _____
 72
    65
 73
     4
 40
20.32
 49
12.7
 74
     0
 49
-2.54
 74
     0
 49
2.54
 74
     0
 49
-2.54
 74
     0
  0
LTYPE
  5
72
330
5
100
AcDbSymbolTableRecord
100
AcDbLinetypeTableRecord
  2
DOT2
 70
     0
  3
Dot (.5x) ........................................
 72
    65
 73
     2
 40
0.635
 49
0.0
 74
     0
 49
-0.635
 74
     0
  0
ENDTAB
  0
TABLE
  2
LAYER
  5
2
330
0
100
AcDbSymbolTable
 70
     1
  0
LAYER
  5
10
330
2
100
AcDbSymbolTableRecord
100
AcDbLayerTableRecord
  2
0
 70
     0
 62
     7
  6
Continuous
370
    -3
390
F
  0
ENDTAB
  0
TABLE
  2
STYLE
  5
3
330
0
100
AcDbSymbolTable
 70
     1
  0
STYLE
  5
11
330
3
100
AcDbSymbolTableRecord
100
AcDbTextStyleTableRecord
  2
STANDARD
 70
     0
 40
0.0
 41
1.0
 50
0.0
 71
     0
 42
3.5
  3
GOTHIC.TTF
  4

1001
ACAD
1000
CENTURY GOTHIC
1071
       34
  0
ENDTAB
  0
TABLE
  2
VIEW
  5
6
330
0
100
AcDbSymbolTable
 70
     0
  0
ENDTAB
  0
TABLE
  2
UCS
  5
7
330
0
100
AcDbSymbolTable
 70
     0
  0
ENDTAB
  0
TABLE
  2
APPID
  5
9
330
0
100
AcDbSymbolTable
 70
     1
  0
APPID
  5
12
330
9
100
AcDbSymbolTableRecord
100
AcDbRegAppTableRecord
  2
ACAD
 70
     0
  0
ENDTAB
  0
TABLE
  2
DIMSTYLE
  5
A
330
0
100
AcDbSymbolTable
 70
     1
100
AcDbDimStyleTable
  0
DIMSTYLE
105
27
330
A
100
AcDbSymbolTableRecord
100
AcDbDimStyleTableRecord
  2
ISO-25
 70
     0
 41
2.5
 42
0.625
 43
3.75
 44
1.25
 73
     0
 74
     0
 77
     1
 78
     8
140
2.5
141
2.5
143
0.0393700787
147
0.625
171
     3
172
     1
178
     0
271
     2
272
     2
274
     3
278
    44
283
     0
284
     8
340
11
  0
ENDTAB
  0
TABLE
  2
BLOCK_RECORD
  5
1
330
0
100
AcDbSymbolTable
 70
     1
  0
BLOCK_RECORD
  5
1F
330
1
100
AcDbSymbolTableRecord
100
AcDbBlockTableRecord
  2
*Model_Space
340
22
  0
BLOCK_RECORD
  5
1B
330
1
100
AcDbSymbolTableRecord
100
AcDbBlockTableRecord
  2
*Paper_Space
340
1E
  0
BLOCK_RECORD
  5
23
330
1
100
AcDbSymbolTableRecord
100
AcDbBlockTableRecord
  2
*Paper_Space0
340
26
  0
ENDTAB
  0
ENDSEC
  0
SECTION
  2
BLOCKS
  0
BLOCK
  5
20
330
1F
100
AcDbEntity
  8
0
100
AcDbBlockBegin
  2
*Model_Space
 70
     0
 10
0.0
 20
0.0
 30
0.0
  3
*Model_Space
  1

  0
ENDBLK
  5
21
330
1F
100
AcDbEntity
  8
0
100
AcDbBlockEnd
  0
BLOCK
  5
1C
330
1B
100
AcDbEntity
 67
     1
  8
0
100
AcDbBlockBegin
  2
*Paper_Space
 70
     0
 10
0.0
 20
0.0
 30
0.0
  3
*Paper_Space
  1

  0
ENDBLK
  5
1D
330
1B
100
AcDbEntity
 67
     1
  8
0
100
AcDbBlockEnd
  0
BLOCK
  5
24
330
23
100
AcDbEntity
  8
0
100
AcDbBlockBegin
  2
*Paper_Space0
 70
     0
 10
0.0
 20
0.0
 30
0.0
  3
*Paper_Space0
  1

  0
ENDBLK
  5
25
330
23
100
AcDbEntity
  8
0
100
AcDbBlockEnd
  0
ENDSEC
  0
SECTION
  2
ENTITIES
  0
LWPOLYLINE
  5
A3
330
1F
100
AcDbEntity
  8
0
  6
Continuous
 62
     7
370
    15
100
AcDbPolyline
 90
       24
 70
   128
 43
0.0
 10
46.4451927925
 20
3.4457546343
 10
46.1866827869
 20
3.429824331
 10
45.9088688886
 20
3.3747627224
 10
45.6507286269
 20
3.2820814735
 10
45.4197898582
 20
3.153081362
 10
45.2203741092
 20
2.9920872295
 10
45.0205902754
 20
2.7563909368
 10
44.8662220844
 20
2.4872967058
 10
44.7178542206
 20
2.0814104875
 10
44.6230898274
 20
1.6425775125
 10
44.546029105
 20
0.9380609883
 10
44.5201886679
 20
0.208149365
 10
44.5263040042
 20
-0.5240701259
 10
44.571601426
 20
-1.2428561904
 10
44.6469877149
 20
-1.7784481421
 10
44.780662102
 20
-2.2793605627
 10
44.9229082868
 20
-2.5983209118
 10
45.1166610709
 20
-2.8817451361
 10
45.2839285791
 20
-3.0496266688
 10
45.4798085328
 20
-3.1918606256
 10
45.6953498551
 20
-3.3013566967
 10
45.9324099224
 20
-3.3812835358
 10
46.1847092757
 20
-3.4294609412
 10
46.4451927925
 20
-3.4457546343
  0
LWPOLYLINE
  5
A5
330
1F
100
AcDbEntity
  8
0
  6
Continuous
 62
     7
370
    15
100
AcDbPolyline
 90
       24
 70
   128
 43
0.0
 10
46.4451927925
 20
-3.5200966976
 10
46.1717014551
 20
-3.5034547579
 10
45.9067707789
 20
-3.4542346369
 10
45.6579558553
 20
-3.3726279812
 10
45.4315393198
 20
-3.2607249325
 10
45.226064702
 20
-3.1155927737
 10
45.0502344849
 20
-2.9439187097
 10
44.8471672916
 20
-2.6550124862
 10
44.6974355675
 20
-2.3285377054
 10
44.5573697924
 20
-1.8180153884
 10
44.4779218576
 20
-1.2696707792
 10
44.4304121101
 20
-0.5360042208
 10
44.4239384616
 20
0.2126401819
 10
44.4512021213
 20
0.9594165244
 10
44.5319846792
 20
1.678016078
 10
44.6318027327
 20
2.127283464
 10
44.787273549
 20
2.5409600651
 10
44.9496976171
 20
2.8163249551
 10
45.159133175
 20
3.0566414308
 10
45.368717568
 20
3.2212465213
 10
45.6110054186
 20
3.3528922927
 10
45.8821172925
 20
3.4475949463
 10
46.1737572867
 20
3.5038226985
 10
46.4451927925
 20
3.5200966976
  0
LWPOLYLINE
  5
AB
330
1F
100
AcDbEntity
  8
0
  6
Continuous
 62
     7
370
    15
100
AcDbPolyline
 90
       26
 70
   128
 43
0.0
 10
9.0006250977
 20
-3.3425289827
 10
9.3702004612
 20
-3.3238878323
 10
9.6615175867
 20
-3.2797816958
 10
9.9331551267
 20
-3.2078315349
 10
10.2032587477
 20
-3.0913975083
 10
10.4312941782
 20
-2.9362689924
 10
10.6132777596
 20
-2.7416826127
 10
10.7507476194
 20
-2.5128098674
 10
10.8677593712
 20
-2.1851241527
 10
10.9377172608
 20
-1.8223156212
 10
10.9853562621
 20
-1.2466033586
 10
10.998150175
 20
-0.6366586594
 10
11.0005818512
 20
-0.0346935744
 10
10.9986510688
 20
0.568090976
 10
10.9889846283
 20
1.1488407933
 10
10.95240753
 20
1.7017089614
 10
10.8894175174
 20
2.0958888413
 10
10.7775737671
 20
2.4531936288
 10
10.6623958645
 20
2.6713450705
 10
10.5108092121
 20
2.8619222631
 10
10.3283180246
 20
3.0149916008
 10
10.1108956946
 20
3.1379042714
 10
9.8622328781
 20
3.2300386477
 10
9.5888167076
 20
3.293647722
 10
9.2990065445
 20
3.33045481
 10
9.0006250977
 20
3.3425289827
  0
LWPOLYLINE
  5
AD
330
1F
100
AcDbEntity
  8
0
  6
Continuous
 62
     7
370
    15
100
AcDbPolyline
 90
       26
 70
   128
 43
0.0
 10
9.0006250977
 20
3.4316630889
 10
9.3140506054
 20
3.4192514524
 10
9.6182262881
 20
3.3814783279
 10
9.9055029895
 20
3.3161181679
 10
10.1664092244
 20
3.2215817187
 10
10.3946768795
 20
3.0954233836
 10
10.5863184178
 20
2.9382401901
 10
10.7452895896
 20
2.7428846274
 10
10.8664212005
 20
2.5186121256
 10
10.9835913475
 20
2.1527954393
 10
11.0499966516
 20
1.7470878671
 10
11.0883181904
 20
1.1807123249
 10
11.0985523673
 20
0.5832400687
 10
11.1005769022
 20
-0.0356600774
 10
11.0980264289
 20
-0.6536362236
 10
11.0844692638
 20
-1.2813114556
 10
11.034571869
 20
-1.8709107044
 10
10.960852355
 20
-2.2442836601
 10
10.8382537455
 20
-2.5798181305
 10
10.6936947194
 20
-2.8150953216
 10
10.5028276322
 20
-3.0145694989
 10
10.2634541917
 20
-3.1738183436
 10
9.9797816281
 20
-3.2933737092
 10
9.6947735095
 20
-3.3671967658
 10
9.3886792294
 20
-3.4125248412
 10
9.0006250977
 20
-3.4316630889
  0
LWPOLYLINE
  5
B7
330
1F
100
AcDbEntity
  8
0
  6
Continuous
 62
     7
370
    15
100
AcDbPolyline
 90
        4
 70
   128
 43
0.0
 10
54.4
 20
2.1310775373
 10
54.4015797381
 20
2.1323435672
 10
54.4219726493
 20
2.1486846271
 10
54.4574093308
 20
2.1770707647
  0
LWPOLYLINE
  5
B9
330
1F
100
AcDbEntity
  8
0
  6
Continuous
 62
     7
370
    15
100
AcDbPolyline
 90
        3
 70
   128
 43
0.0
 10
54.5
 20
-2.2830900114
 10
54.4843348549
 20
-2.2117185191
 10
54.4574093308
 20
-2.1770707647
  0
LWPOLYLINE
  5
BD
330
1F
100
AcDbEntity
  8
0
  6
Continuous
 62
     7
370
    15
100
AcDbPolyline
 90
        4
 70
   128
 43
0.0
 10
54.4
 20
-2.1310775373
 10
54.4015797381
 20
-2.1323435672
 10
54.4198170696
 20
-2.1469575293
 10
54.4574093308
 20
-2.1770707647
  0
CIRCLE
  5
C2
330
1F
100
AcDbEntity
  8
0
  6
Continuous
 62
     7
370
    15
100
AcDbCircle
 10
50.3
 20
0.0
 30
0.0
 40
2.700000000000024
  0
CIRCLE
  5
C3
330
1F
100
AcDbEntity
  8
0
  6
Continuous
 62
     7
370
    15
100
AcDbCircle
 10
50.3
 20
0.0
 30
0.0
 40
2.600000000000001
  0
LWPOLYLINE
  5
C8
330
1F
100
AcDbEntity
  8
0
  6
Continuous
 62
     7
370
    15
100
AcDbPolyline
 90
        3
 70
   128
 43
0.0
 10
6.8921777741
 20
-3.4305515674
 10
3.4396322598
 20
-2.794270184
 10
0.0225321213
 20
-2.1150106191
  0
LWPOLYLINE
  5
C9
330
1F
100
AcDbEntity
  8
0
  6
Continuous
 62
     7
370
    15
100
AcDbPolyline
 90
        5
 70
   128
 43
0.0
 10
0.0225321213
 20
-2.1150106191
 10
0.050832604
 20
-2.0919786672
 10
0.0897985328
 20
-2.0602596386
 10
0.0984326877
 20
-2.0532301521
 10
0.1
 20
-2.0519540836
  0
LWPOLYLINE
  5
CA
330
1F
100
AcDbEntity
  8
0
  6
Continuous
 62
     7
370
    15
100
AcDbPolyline
 90
        3
 70
   128
 43
0.0
 10
0.1
 20
-2.0519540836
 10
3.4553754882
 20
-2.7106093415
 10
6.9079210025
 20
-3.3425289827
  0
LWPOLYLINE
  5
CD
330
1F
100
AcDbEntity
  8
0
  6
Continuous
 62
     7
370
    15
100
AcDbPolyline
 90
        3
 70
   128
 43
0.0
 10
0.0225321213
 20
-2.1150106191
 10
0.0031166074
 20
-2.1425212994
 10
0.0
 20
-2.1615966321
  0
LWPOLYLINE
  5
CE
330
1F
100
AcDbEntity
  8
0
  6
Continuous
 62
     7
370
    15
100
AcDbPolyline
 90
        3
 70
   128
 43
0.0
 10
0.0225321213
 20
2.1150106191
 10
3.4396200648
 20
2.7942678692
 10
6.8921777741
 20
3.4305515674
  0
LWPOLYLINE
  5
CF
330
1F
100
AcDbEntity
  8
0
  6
Continuous
 62
     7
370
    15
100
AcDbPolyline
 90
        3
 70
   128
 43
0.0
 10
0.0
 20
2.1615966321
 10
0.0082773527
 20
2.131367629
 10
0.0225321213
 20
2.1150106191
  0
LWPOLYLINE
  5
D2
330
1F
100
AcDbEntity
  8
0
  6
Continuous
 62
     7
370
    15
100
AcDbPolyline
 90
        3
 70
   128
 43
0.0
 10
6.9079210025
 20
3.3425289827
 10
3.4553632933
 20
2.7106070467
 10
0.1
 20
2.0519540836
  0
LWPOLYLINE
  5
D3
330
1F
100
AcDbEntity
  8
0
  6
Continuous
 62
     7
370
    15
100
AcDbPolyline
 90
        4
 70
   128
 43
0.0
 10
0.0225321213
 20
2.1150106191
 10
0.0563310477
 20
2.0875033274
 10
0.0984326877
 20
2.0532301521
 10
0.1
 20
2.0519540836
  0
CIRCLE
  5
DB
330
1F
100
AcDbEntity
  8
0
  6
Continuous
 62
     7
370
    15
100
AcDbCircle
 10
4.8
 20
0.0
 30
0.0
 40
2.700000000000001
  0
CIRCLE
  5
DD
330
1F
100
AcDbEntity
  8
0
  6
Continuous
 62
     7
370
    15
100
AcDbCircle
 10
4.8
 20
0.0
 30
0.0
 40
2.599999999999997
  0
LINE
  5
100
330
1F
100
AcDbEntity
  8
0
  6
Continuous
 62
     7
370
    15
100
AcDbLine
 10
24.9914213562
 20
-4.735
 30
0.0
 11
28.9121045786
 21
-4.735
 31
0.0
  0
LINE
  5
101
330
1F
100
AcDbEntity
  8
0
  6
Continuous
 62
     7
370
    15
100
AcDbLine
 10
28.9121045786
 20
4.735
 30
0.0
 11
24.9914213562
 21
4.735
 31
0.0
  0
LINE
  5
102
330
1F
100
AcDbEntity
  8
0
  6
Continuous
 62
     7
370
    15
100
AcDbLine
 10
39.5
 20
-4.735
 30
0.0
 11
47.4937036323
 21
-4.735
 31
0.0
  0
LINE
  5
103
330
1F
100
AcDbEntity
  8
0
  6
Continuous
 62
     7
370
    15
100
AcDbLine
 10
47.4937036323
 20
4.735
 30
0.0
 11
39.5
 21
4.735
 31
0.0
  0
LINE
  5
104
330
1F
100
AcDbEntity
  8
0
  6
Continuous
 62
     7
370
    15
100
AcDbLine
 10
13.9878954214
 20
-4.735
 30
0.0
 11
17.9085786438
 21
-4.735
 31
0.0
  0
LINE
  5
105
330
1F
100
AcDbEntity
  8
0
  6
Continuous
 62
     7
370
    15
100
AcDbLine
 10
17.9085786438
 20
4.735
 30
0.0
 11
13.9878954214
 21
4.735
 31
0.0
  0
LINE
  5
106
330
1F
100
AcDbEntity
  8
0
  6
Continuous
 62
     7
370
    15
100
AcDbLine
 10
28.9783781231
 20
-4.709885361
 30
0.0
 11
29.9216218769
 21
-3.875114639
 31
0.0
  0
LINE
  5
107
330
1F
100
AcDbEntity
  8
0
  6
Continuous
 62
     7
370
    15
100
AcDbLine
 10
29.9216218769
 20
3.875114639
 30
0.0
 11
28.9783781231
 21
4.709885361
 31
0.0
  0
LINE
  5
108
330
1F
100
AcDbEntity
  8
0
  6
Continuous
 62
     7
370
    15
100
AcDbLine
 10
13.9216218769
 20
4.709885361
 30
0.0
 11
12.9783781231
 21
3.875114639
 31
0.0
  0
LINE
  5
109
330
1F
100
AcDbEntity
  8
0
  6
Continuous
 62
     7
370
    15
100
AcDbLine
 10
12.9783781231
 20
-3.875114639
 30
0.0
 11
13.9216218769
 21
-4.709885361
 31
0.0
  0
LINE
  5
10A
330
1F
100
AcDbEntity
  8
0
  6
Continuous
 62
     7
370
    15
100
AcDbLine
 10
24.9207106781
 20
4.7057106781
 30
0.0
 11
23.1942893219
 21
2.9792893219
 31
0.0
  0
LINE
  5
10B
330
1F
100
AcDbEntity
  8
0
  6
Continuous
 62
     7
370
    15
100
AcDbLine
 10
23.1942893219
 20
-2.9792893219
 30
0.0
 11
24.9207106781
 21
-4.7057106781
 31
0.0
  0
LINE
  5
10C
330
1F
100
AcDbEntity
  8
0
  6
Continuous
 62
     7
370
    15
100
AcDbLine
 10
17.9792893219
 20
-4.7057106781
 30
0.0
 11
19.7057106781
 21
-2.9792893219
 31
0.0
  0
LINE
  5
10D
330
1F
100
AcDbEntity
  8
0
  6
Continuous
 62
     7
370
    15
100
AcDbLine
 10
19.7057106781
 20
2.9792893219
 30
0.0
 11
17.9792893219
 21
4.7057106781
 31
0.0
  0
LINE
  5
10E
330
1F
100
AcDbEntity
  8
0
  6
Continuous
 62
     7
370
    15
100
AcDbLine
 10
29.9878954214
 20
-3.85
 30
0.0
 11
39.3
 21
-3.85
 31
0.0
  0
LINE
  5
10F
330
1F
100
AcDbEntity
  8
0
  6
Continuous
 62
     7
370
    15
100
AcDbLine
 10
39.3
 20
3.85
 30
0.0
 11
29.9878954214
 21
3.85
 31
0.0
  0
LINE
  5
110
330
1F
100
AcDbEntity
  8
0
  6
Continuous
 62
     7
370
    15
100
AcDbLine
 10
6.9079210025
 20
-3.85
 30
0.0
 11
12.9121045786
 21
-3.85
 31
0.0
  0
LINE
  5
111
330
1F
100
AcDbEntity
  8
0
  6
Continuous
 62
     7
370
    15
100
AcDbLine
 10
12.9121045786
 20
3.85
 30
0.0
 11
6.9079210025
 21
3.85
 31
0.0
  0
LINE
  5
112
330
1F
100
AcDbEntity
  8
0
  6
Continuous
 62
     7
370
    15
100
AcDbLine
 10
54.5
 20
3.85
 30
0.0
 11
47.5062466419
 21
4.734210246
 31
0.0
  0
LINE
  5
113
330
1F
100
AcDbEntity
  8
0
  6
Continuous
 62
     7
370
    15
100
AcDbLine
 10
47.5062466419
 20
-4.734210246
 30
0.0
 11
54.5
 21
-3.85
 31
0.0
  0
LINE
  5
114
330
1F
100
AcDbEntity
  8
0
  6
Continuous
 62
     7
370
    15
100
AcDbLine
 10
19.7764213562
 20
-2.95
 30
0.0
 11
23.1235786438
 21
-2.95
 31
0.0
  0
LINE
  5
115
330
1F
100
AcDbEntity
  8
0
  6
Continuous
 62
     7
370
    15
100
AcDbLine
 10
23.1235786438
 20
2.95
 30
0.0
 11
19.7764213562
 21
2.95
 31
0.0
  0
LINE
  5
116
330
1F
100
AcDbEntity
  8
0
  6
Continuous
 62
     7
370
    15
100
AcDbLine
 10
0.0
 20
-2.75
 30
0.0
 11
6.8921777741
 21
-3.8487529785
 31
0.0
  0
LINE
  5
117
330
1F
100
AcDbEntity
  8
0
  6
Continuous
 62
     7
370
    15
100
AcDbLine
 10
6.8921777741
 20
3.8487529785
 30
0.0
 11
0.0
 21
2.75
 31
0.0
  0
LINE
  5
118
330
1F
100
AcDbEntity
  8
0
  6
Continuous
 62
     7
370
    15
100
AcDbLine
 10
46.4451927925
 20
-3.5200966976
 30
0.0
 11
46.4451927925
 21
3.5200966976
 31
0.0
  0
LINE
  5
119
330
1F
100
AcDbEntity
  8
0
  6
Continuous
 62
     7
370
    15
100
AcDbLine
 10
39.4
 20
-4.635
 30
0.0
 11
39.4
 21
4.635
 31
0.0
  0
LINE
  5
11A
330
1F
100
AcDbEntity
  8
0
  6
Continuous
 62
     7
370
    15
100
AcDbLine
 10
46.4451927925
 20
3.5200966976
 30
0.0
 11
47.4937036323
 21
3.5200966976
 31
0.0
  0
LINE
  5
11B
330
1F
100
AcDbEntity
  8
0
  6
Continuous
 62
     7
370
    15
100
AcDbLine
 10
47.4937036323
 20
-3.5200966976
 30
0.0
 11
46.4451927925
 21
-3.5200966976
 31
0.0
  0
LINE
  5
11C
330
1F
100
AcDbEntity
  8
0
  6
Continuous
 62
     7
370
    15
100
AcDbLine
 10
9.0006250977
 20
-3.4316630889
 30
0.0
 11
9.0006250977
 21
3.4316630889
 31
0.0
  0
LINE
  5
11D
330
1F
100
AcDbEntity
  8
0
  6
Continuous
 62
     7
370
    15
100
AcDbLine
 10
9.0006250977
 20
-3.4316630889
 30
0.0
 11
6.9079210025
 21
-3.4316630889
 31
0.0
  0
LINE
  5
11E
330
1F
100
AcDbEntity
  8
0
  6
Continuous
 62
     7
370
    15
100
AcDbLine
 10
6.9079210025
 20
3.4316630889
 30
0.0
 11
9.0006250977
 21
3.4316630889
 31
0.0
  0
LINE
  5
11F
330
1F
100
AcDbEntity
  8
0
  6
Continuous
 62
     7
370
    15
100
AcDbLine
 10
47.4937036323
 20
3.4457546343
 30
0.0
 11
47.5062466419
 21
3.5195095782
 31
0.0
  0
LINE
  5
120
330
1F
100
AcDbEntity
  8
0
  6
Continuous
 62
     7
370
    15
100
AcDbLine
 10
54.5
 20
3.85
 30
0.0
 11
54.5
 21
-3.85
 31
0.0
  0
LINE
  5
121
330
1F
100
AcDbEntity
  8
0
  6
Continuous
 62
     7
370
    15
100
AcDbLine
 10
47.5062466419
 20
-3.5195095782
 30
0.0
 11
47.4937036323
 21
-3.4457546343
 31
0.0
  0
LINE
  5
122
330
1F
100
AcDbEntity
  8
0
  6
Continuous
 62
     7
370
    15
100
AcDbLine
 10
54.4
 20
-2.1310775373
 30
0.0
 11
54.4
 21
2.1310775373
 31
0.0
  0
LINE
  5
123
330
1F
100
AcDbEntity
  8
0
  6
Continuous
 62
     7
370
    15
100
AcDbLine
 10
46.4451927925
 20
-3.4457546343
 30
0.0
 11
47.4937036323
 21
-3.4457546343
 31
0.0
  0
LINE
  5
124
330
1F
100
AcDbEntity
  8
0
  6
Continuous
 62
     7
370
    15
100
AcDbLine
 10
47.4937036323
 20
3.4457546343
 30
0.0
 11
46.4451927925
 21
3.4457546343
 31
0.0
  0
LINE
  5
125
330
1F
100
AcDbEntity
  8
0
  6
Continuous
 62
     7
370
    15
100
AcDbLine
 10
47.4937036323
 20
3.4457546343
 30
0.0
 11
47.4937036323
 21
4.735
 31
0.0
  0
LINE
  5
126
330
1F
100
AcDbEntity
  8
0
  6
Continuous
 62
     7
370
    15
100
AcDbLine
 10
47.4937036323
 20
-4.735
 30
0.0
 11
47.4937036323
 21
-3.4457546343
 31
0.0
  0
LINE
  5
127
330
1F
100
AcDbEntity
  8
0
  6
Continuous
 62
     7
370
    15
100
AcDbLine
 10
6.9079210025
 20
-3.3425289827
 30
0.0
 11
6.8921777741
 21
-3.4305515674
 31
0.0
  0
LINE
  5
128
330
1F
100
AcDbEntity
  8
0
  6
Continuous
 62
     7
370
    15
100
AcDbLine
 10
0.0
 20
-2.75
 30
0.0
 11
0.0
 21
2.75
 31
0.0
  0
LINE
  5
129
330
1F
100
AcDbEntity
  8
0
  6
Continuous
 62
     7
370
    15
100
AcDbLine
 10
6.8921777741
 20
3.4305515674
 30
0.0
 11
6.9079210025
 21
3.3425289827
 31
0.0
  0
LINE
  5
12A
330
1F
100
AcDbEntity
  8
0
  6
Continuous
 62
     7
370
    15
100
AcDbLine
 10
6.9079210025
 20
-3.3425289827
 30
0.0
 11
9.0006250977
 21
-3.3425289827
 31
0.0
  0
LINE
  5
12B
330
1F
100
AcDbEntity
  8
0
  6
Continuous
 62
     7
370
    15
100
AcDbLine
 10
6.9079210025
 20
-3.3425289827
 30
0.0
 11
6.9079210025
 21
-3.85
 31
0.0
  0
LINE
  5
12C
330
1F
100
AcDbEntity
  8
0
  6
Continuous
 62
     7
370
    15
100
AcDbLine
 10
9.0006250977
 20
3.3425289827
 30
0.0
 11
6.9079210025
 21
3.3425289827
 31
0.0
  0
LINE
  5
12D
330
1F
100
AcDbEntity
  8
0
  6
Continuous
 62
     7
370
    15
100
AcDbLine
 10
6.9079210025
 20
3.85
 30
0.0
 11
6.9079210025
 21
3.3425289827
 31
0.0
  0
LINE
  5
12E
330
1F
100
AcDbEntity
  8
0
  6
Continuous
 62
     7
370
    15
100
AcDbLine
 10
0.1
 20
2.0519540836
 30
0.0
 11
0.1
 21
-2.0519540836
 31
0.0
  0
LINE
  5
12F
330
1F
100
AcDbEntity
  8
0
  6
Continuous
 62
     8
370
    15
100
AcDbLine
 10
24.9207106781
 20
-4.7057106781
 30
0.0
 11
24.9207106781
 21
4.7057106781
 31
0.0
  0
LINE
  5
130
330
1F
100
AcDbEntity
  8
0
  6
Continuous
 62
     8
370
    15
100
AcDbLine
 10
24.9914213562
 20
4.735
 30
0.0
 11
24.9914213562
 21
-4.735
 31
0.0
  0
LINE
  5
131
330
1F
100
AcDbEntity
  8
0
  6
Continuous
 62
     8
370
    15
100
AcDbLine
 10
39.5
 20
4.735
 30
0.0
 11
39.5
 21
-4.735
 31
0.0
  0
LINE
  5
132
330
1F
100
AcDbEntity
  8
0
  6
Continuous
 62
     8
370
    15
100
AcDbLine
 10
28.9121045786
 20
-4.735
 30
0.0
 11
28.9121045786
 21
4.735
 31
0.0
  0
LINE
  5
133
330
1F
100
AcDbEntity
  8
0
  6
Continuous
 62
     8
370
    15
100
AcDbLine
 10
13.9216218769
 20
-4.709885361
 30
0.0
 11
13.9216218769
 21
4.709885361
 31
0.0
  0
LINE
  5
134
330
1F
100
AcDbEntity
  8
0
  6
Continuous
 62
     8
370
    15
100
AcDbLine
 10
13.9878954214
 20
4.735
 30
0.0
 11
13.9878954214
 21
-4.735
 31
0.0
  0
LINE
  5
135
330
1F
100
AcDbEntity
  8
0
  6
Continuous
 62
     8
370
    15
100
AcDbLine
 10
17.9085786438
 20
-4.735
 30
0.0
 11
17.9085786438
 21
4.735
 31
0.0
  0
LINE
  5
136
330
1F
100
AcDbEntity
  8
0
  6
Continuous
 62
     8
370
    15
100
AcDbLine
 10
17.9792893219
 20
4.7057106781
 30
0.0
 11
17.9792893219
 21
-4.7057106781
 31
0.0
  0
LINE
  5
137
330
1F
100
AcDbEntity
  8
0
  6
Continuous
 62
     8
370
    15
100
AcDbLine
 10
28.9783781231
 20
4.709885361
 30
0.0
 11
28.9783781231
 21
-4.709885361
 31
0.0
  0
LINE
  5
138
330
1F
100
AcDbEntity
  8
0
  6
Continuous
 62
     8
370
    15
100
AcDbLine
 10
29.9216218769
 20
-3.875114639
 30
0.0
 11
29.9216218769
 21
3.875114639
 31
0.0
  0
LINE
  5
139
330
1F
100
AcDbEntity
  8
0
  6
Continuous
 62
     8
370
    15
100
AcDbLine
 10
12.9783781231
 20
3.875114639
 30
0.0
 11
12.9783781231
 21
-3.875114639
 31
0.0
  0
LINE
  5
13A
330
1F
100
AcDbEntity
  8
0
  6
Continuous
 62
     8
370
    15
100
AcDbLine
 10
23.1942893219
 20
2.9792893219
 30
0.0
 11
23.1942893219
 21
-2.9792893219
 31
0.0
  0
LINE
  5
13B
330
1F
100
AcDbEntity
  8
0
  6
Continuous
 62
     8
370
    15
100
AcDbLine
 10
19.7057106781
 20
-2.9792893219
 30
0.0
 11
19.7057106781
 21
2.9792893219
 31
0.0
  0
LINE
  5
13C
330
1F
100
AcDbEntity
  8
0
  6
Continuous
 62
     8
370
    15
100
AcDbLine
 10
39.3
 20
-3.85
 30
0.0
 11
39.3
 21
3.85
 31
0.0
  0
LINE
  5
13D
330
1F
100
AcDbEntity
  8
0
  6
Continuous
 62
     8
370
    15
100
AcDbLine
 10
29.9878954214
 20
3.85
 30
0.0
 11
29.9878954214
 21
-3.85
 31
0.0
  0
LINE
  5
13E
330
1F
100
AcDbEntity
  8
0
  6
Continuous
 62
     8
370
    15
100
AcDbLine
 10
12.9121045786
 20
-3.85
 30
0.0
 11
12.9121045786
 21
3.85
 31
0.0
  0
LINE
  5
13F
330
1F
100
AcDbEntity
  8
0
  6
Continuous
 62
     8
370
    15
100
AcDbLine
 10
47.5062466419
 20
4.734210246
 30
0.0
 11
47.5062466419
 21
3.5195095782
 31
0.0
  0
LINE
  5
140
330
1F
100
AcDbEntity
  8
0
  6
Continuous
 62
     8
370
    15
100
AcDbLine
 10
47.5062466419
 20
-3.5195095782
 30
0.0
 11
47.5062466419
 21
-4.734210246
 31
0.0
  0
LINE
  5
141
330
1F
100
AcDbEntity
  8
0
  6
Continuous
 62
     8
370
    15
100
AcDbLine
 10
23.1235786438
 20
-2.95
 30
0.0
 11
23.1235786438
 21
2.95
 31
0.0
  0
LINE
  5
142
330
1F
100
AcDbEntity
  8
0
  6
Continuous
 62
     8
370
    15
100
AcDbLine
 10
19.7764213562
 20
2.95
 30
0.0
 11
19.7764213562
 21
-2.95
 31
0.0
  0
LINE
  5
143
330
1F
100
AcDbEntity
  8
0
  6
Continuous
 62
     8
370
    15
100
AcDbLine
 10
6.8921777741
 20
-3.8487529785
 30
0.0
 11
6.8921777741
 21
-3.4305515674
 31
0.0
  0
LINE
  5
144
330
1F
100
AcDbEntity
  8
0
  6
Continuous
 62
     8
370
    15
100
AcDbLine
 10
6.8921777741
 20
3.4305515674
 30
0.0
 11
6.8921777741
 21
3.8487529785
 31
0.0
  0
ARC
  5
145
330
1F
100
AcDbEntity
  8
0
  6
Continuous
 62
     7
370
    15
100
AcDbCircle
 10
24.9914213562
 20
4.635
 30
0.0
 40
0.1000000000000165
100
AcDbArc
 50
90.0
 51
135.0
  0
ARC
  5
146
330
1F
100
AcDbEntity
  8
0
  6
Continuous
 62
     7
370
    15
100
AcDbCircle
 10
24.9914213562
 20
-4.635
 30
0.0
 40
0.0999999999999996
100
AcDbArc
 50
225.0
 51
270.0
  0
ARC
  5
147
330
1F
100
AcDbEntity
  8
0
  6
Continuous
 62
     7
370
    15
100
AcDbCircle
 10
39.5
 20
4.635
 30
0.0
 40
0.1000000000000023
100
AcDbArc
 50
90.0
 51
180.0
  0
ARC
  5
148
330
1F
100
AcDbEntity
  8
0
  6
Continuous
 62
     7
370
    15
100
AcDbCircle
 10
39.5
 20
-4.635
 30
0.0
 40
0.1000000000000014
100
AcDbArc
 50
180.0
 51
270.0
  0
ARC
  5
149
330
1F
100
AcDbEntity
  8
0
  6
Continuous
 62
     7
370
    15
100
AcDbCircle
 10
13.9878954214
 20
4.635
 30
0.0
 40
0.0999999999999989
100
AcDbArc
 50
90.0
 51
131.5088285706
  0
ARC
  5
14A
330
1F
100
AcDbEntity
  8
0
  6
Continuous
 62
     7
370
    15
100
AcDbCircle
 10
13.9878954214
 20
-4.635
 30
0.0
 40
0.1000000000000158
100
AcDbArc
 50
228.4911714294
 51
270.0
  0
ARC
  5
14B
330
1F
100
AcDbEntity
  8
0
  6
Continuous
 62
     7
370
    15
100
AcDbCircle
 10
17.9085786438
 20
4.635
 30
0.0
 40
0.0999999999999988
100
AcDbArc
 50
45.0
 51
90.0
  0
ARC
  5
14C
330
1F
100
AcDbEntity
  8
0
  6
Continuous
 62
     7
370
    15
100
AcDbCircle
 10
17.9085786438
 20
-4.635
 30
0.0
 40
0.0999999999999908
100
AcDbArc
 50
270.0
 51
315.0
  0
ARC
  5
14D
330
1F
100
AcDbEntity
  8
0
  6
Continuous
 62
     7
370
    15
100
AcDbCircle
 10
28.9121045786
 20
4.635
 30
0.0
 40
0.1000000000000039
100
AcDbArc
 50
48.4911714294
 51
90.0
  0
ARC
  5
14E
330
1F
100
AcDbEntity
  8
0
  6
Continuous
 62
     7
370
    15
100
AcDbCircle
 10
28.9121045786
 20
-4.635
 30
0.0
 40
0.1000000000000186
100
AcDbArc
 50
270.0
 51
311.5088285706
  0
ARC
  5
14F
330
1F
100
AcDbEntity
  8
0
  6
Continuous
 62
     7
370
    15
100
AcDbCircle
 10
39.3
 20
3.95
 30
0.0
 40
0.1000000000000019
100
AcDbArc
 50
270.0
 51
0.0
  0
ARC
  5
150
330
1F
100
AcDbEntity
  8
0
  6
Continuous
 62
     7
370
    15
100
AcDbCircle
 10
39.3
 20
-3.95
 30
0.0
 40
0.1000000000000063
100
AcDbArc
 50
0.0
 51
90.0
  0
ARC
  5
151
330
1F
100
AcDbEntity
  8
0
  6
Continuous
 62
     7
370
    15
100
AcDbCircle
 10
29.9878954214
 20
-3.95
 30
0.0
 40
0.1000000000000096
100
AcDbArc
 50
90.0
 51
131.5088285706
  0
ARC
  5
152
330
1F
100
AcDbEntity
  8
0
  6
Continuous
 62
     7
370
    15
100
AcDbCircle
 10
29.9878954214
 20
3.95
 30
0.0
 40
0.0999999999999903
100
AcDbArc
 50
228.4911714294
 51
270.0
  0
ARC
  5
153
330
1F
100
AcDbEntity
  8
0
  6
Continuous
 62
     7
370
    15
100
AcDbCircle
 10
12.9121045786
 20
-3.95
 30
0.0
 40
0.1000000000000021
100
AcDbArc
 50
48.4911714294
 51
90.0
  0
ARC
  5
154
330
1F
100
AcDbEntity
  8
0
  6
Continuous
 62
     7
370
    15
100
AcDbCircle
 10
12.9121045786
 20
3.95
 30
0.0
 40
0.1000000000000026
100
AcDbArc
 50
270.0
 51
311.5088285706
  0
ARC
  5
155
330
1F
100
AcDbEntity
  8
0
  6
Continuous
 62
     7
370
    15
100
AcDbCircle
 10
47.4937036323
 20
4.635
 30
0.0
 40
0.1000000000001031
100
AcDbArc
 50
82.794406006
 51
90.0
  0
ARC
  5
156
330
1F
100
AcDbEntity
  8
0
  6
Continuous
 62
     7
370
    15
100
AcDbCircle
 10
47.4937036323
 20
-4.635
 30
0.0
 40
0.0999999999995426
100
AcDbArc
 50
270.0
 51
277.205593994
  0
ARC
  5
157
330
1F
100
AcDbEntity
  8
0
  6
Continuous
 62
     7
370
    15
100
AcDbCircle
 10
23.1235786438
 20
-3.05
 30
0.0
 40
0.1000000000000033
100
AcDbArc
 50
45.0
 51
90.0
  0
ARC
  5
158
330
1F
100
AcDbEntity
  8
0
  6
Continuous
 62
     7
370
    15
100
AcDbCircle
 10
23.1235786438
 20
3.05
 30
0.0
 40
0.1000000000000202
100
AcDbArc
 50
270.0
 51
315.0
  0
ARC
  5
159
330
1F
100
AcDbEntity
  8
0
  6
Continuous
 62
     7
370
    15
100
AcDbCircle
 10
19.7764213562
 20
-3.05
 30
0.0
 40
0.0999999999999934
100
AcDbArc
 50
90.0
 51
135.0
  0
ARC
  5
15A
330
1F
100
AcDbEntity
  8
0
  6
Continuous
 62
     7
370
    15
100
AcDbCircle
 10
19.7764213562
 20
3.05
 30
0.0
 40
0.1000000000000045
100
AcDbArc
 50
225.0
 51
270.0
  0
ARC
  5
15B
330
1F
100
AcDbEntity
  8
0
  6
Continuous
 62
     7
370
    15
100
AcDbCircle
 10
6.9079210025
 20
-3.75
 30
0.0
 40
0.1000000000000443
100
AcDbArc
 50
260.9421118714
 51
270.0
  0
ARC
  5
15C
330
1F
100
AcDbEntity
  8
0
  6
Continuous
 62
     7
370
    15
100
AcDbCircle
 10
6.9079210025
 20
3.75
 30
0.0
 40
0.100000000000108
100
AcDbArc
 50
90.0
 51
99.0578881286
  0
ARC
  5
15D
330
1F
100
AcDbEntity
  8
0
  6
Continuous
 62
     7
370
    15
100
AcDbCircle
 10
54.3588843974
 20
2.2782152839
 30
0.0
 40
0.141199774331034
100
AcDbArc
 50
314.2483447281
 51
1.9784509053
  0
ARC
  5
15E
330
1F
100
AcDbEntity
  8
0
  6
Continuous
 62
     7
370
    15
100
AcDbCircle
 10
25.1917161552
 20
-130.6931876993
 30
0.0
 40
136.0550858341813
100
AcDbArc
 50
77.5785005424
 51
80.5602138083
  0
ARC
  5
15F
330
1F
100
AcDbEntity
  8
0
  6
Continuous
 62
     7
370
    15
100
AcDbCircle
 10
24.2821960629
 20
-137.2870561237
 30
0.0
 40
142.6341407500036
100
AcDbArc
 50
77.8099976281
 51
80.6343429457
  0
ARC
  5
160
330
1F
100
AcDbEntity
  8
0
  6
Continuous
 62
     7
370
    15
100
AcDbCircle
 10
24.5957219346
 20
133.7792522165
 30
0.0
 40
139.1971340679181
100
AcDbArc
 50
279.4734461187
 51
282.3878395305
  0
ARC
  5
161
330
1F
100
AcDbEntity
  8
0
  6
Continuous
 62
     7
370
    15
100
AcDbCircle
 10
25.2437956095
 20
132.2355560474
 30
0.0
 40
137.4935506681429
100
AcDbArc
 50
279.3128476346
 51
282.2428117916
  0
ARC
  5
162
330
1F
100
AcDbEntity
  8
0
  6
Continuous
 62
     7
370
    15
100
AcDbCircle
 10
47.4937124138
 20
3.3860085557
 30
0.0
 40
0.1340881422226947
100
AcDbArc
 50
84.636301338
 51
90.0037523476
  0
ARC
  5
163
330
1F
100
AcDbEntity
  8
0
  6
Continuous
 62
     7
370
    15
100
AcDbCircle
 10
47.4937124138
 20
-3.3860085557
 30
0.0
 40
0.1340881422228749
100
AcDbArc
 50
269.9962476524
 51
275.363698662
  0
ARC
  5
164
330
1F
100
AcDbEntity
  8
0
  6
Continuous
 62
     7
370
    15
100
AcDbCircle
 10
6.9079130007
 20
3.3197296823
 30
0.0
 40
0.1119334068649617
100
AcDbArc
 50
89.9959040853
 51
98.0812175608
  0
ARC
  5
165
330
1F
100
AcDbEntity
  8
0
  6
Continuous
 62
     7
370
    15
100
AcDbCircle
 10
6.9079130007
 20
-3.3197296823
 30
0.0
 40
0.1119334068650415
100
AcDbArc
 50
261.9187824393
 51
270.0040959147
  0
LWPOLYLINE
  5
19A
330
1B
100
AcDbEntity
 67
     1
  8
0
  6
Continuous
 62
     7
370
    15
100
AcDbPolyline
 90
        4
 70
   128
 43
0.0
 10
47.5062466419
 20
-3.1663542098
 10
50.3070432722
 20
-3.1718427933
 10
52.3860381655
 20
-3.1765424485
 10
54.4574093308
 20
-3.1818789884
  0
LWPOLYLINE
  5
19B
330
1B
100
AcDbEntity
 67
     1
  8
0
  6
Continuous
 62
     7
370
    15
100
AcDbPolyline
 90
        5
 70
   128
 43
0.0
 10
54.4574093308
 20
3.1818789884
 10
52.7388203694
 20
3.1774016325
 10
51.0133333574
 20
3.1733732862
 10
49.2419052637
 20
3.1696517639
 10
47.5062466419
 20
3.1663542098
  0
LWPOLYLINE
  5
19C
330
1B
100
AcDbEntity
 67
     1
  8
0
  6
Continuous
 62
     7
370
    15
100
AcDbPolyline
 90
        3
 70
   128
 43
0.0
 10
54.5
 20
3.1
 10
54.4843348549
 20
3.1537366938
 10
54.4574093308
 20
3.1818789884
  0
LWPOLYLINE
  5
1A4
330
1B
100
AcDbEntity
 67
     1
  8
0
  6
Continuous
 62
     7
370
    15
100
AcDbPolyline
 90
        3
 70
   128
 43
0.0
 10
0.0225321213
 20
-1.7632354946
 10
3.4396200648
 20
-1.7524692056
 10
6.8921777741
 20
-1.7447680169
  0
LWPOLYLINE
  5
1A5
330
1B
100
AcDbEntity
 67
     1
  8
0
  6
Continuous
 62
     7
370
    15
100
AcDbPolyline
 90
        3
 70
   128
 43
0.0
 10
0.0
 20
-1.7
 10
0.0082773527
 20
-1.7398366159
 10
0.0225321213
 20
-1.7632354946
  0
LWPOLYLINE
  5
1A7
330
1B
100
AcDbEntity
 67
     1
  8
0
  6
Continuous
 62
     7
370
    15
100
AcDbPolyline
 90
        3
 70
   128
 43
0.0
 10
0.0225321213
 20
1.7632354946
 10
0.0031166074
 20
1.724771117
 10
0.0
 20
1.7
  0
LWPOLYLINE
  5
1A8
330
1B
100
AcDbEntity
 67
     1
  8
0
  6
Continuous
 62
     7
370
    15
100
AcDbPolyline
 90
        3
 70
   128
 43
0.0
 10
6.8921777741
 20
1.7447680169
 10
3.4396322598
 20
1.7524691737
 10
0.0225321213
 20
1.7632354946
  0
LWPOLYLINE
  5
1AC
330
1B
100
AcDbEntity
 67
     1
  8
0
  6
Continuous
 62
     7
370
    15
100
AcDbPolyline
 90
       13
 70
   128
 43
0.0
 10
46.4451927925
 20
-3.2
 10
46.1866827869
 20
-3.2167772246
 10
45.9088688886
 20
-3.2735213322
 10
45.6507286269
 20
-3.3645636242
 10
45.4197898582
 20
-3.4830268375
 10
45.2203741092
 20
-3.6189183472
 10
45.0205902754
 20
-3.7962984162
 10
44.8662220844
 20
-3.9724612011
 10
44.7178542206
 20
-4.1914630899
 10
44.6230898274
 20
-4.3754147803
 10
44.546029105
 20
-4.5700688463
 10
44.5201886679
 20
-4.657451274
 10
44.5219255449
 20
-4.6505689757
  0
LWPOLYLINE
  5
1CC
330
1B
100
AcDbEntity
 67
     1
  8
0
  6
Continuous
 62
     8
370
    15
100
AcDbPolyline
 90
       13
 70
   128
 43
0.0
 10
44.4260620996
 20
-4.7227133466
 10
44.4239384616
 20
-4.7302229496
 10
44.451245239
 20
-4.6390555488
 10
44.5319846792
 20
-4.427695455
 10
44.6304241823
 20
-4.2326915852
 10
44.787273549
 20
-3.9954657986
 10
44.9472015126
 20
-3.808695895
 10
45.159133175
 20
-3.6162367406
 10
45.3654101267
 20
-3.4722004952
 10
45.6110054186
 20
-3.3434022004
 10
45.8768318708
 20
-3.2469488041
 10
46.1737572867
 20
-3.1848785688
 10
46.4451927925
 20
-3.1668824164
  0
LWPOLYLINE
  5
1D7
330
1B
100
AcDbEntity
 67
     1
  8
0
  6
Continuous
 62
     8
370
    15
100
AcDbPolyline
 90
       14
 70
   128
 43
0.0
 10
11.0999614054
 20
3.8479153973
 10
11.1000274924
 20
3.8499016868
 10
11.0980264289
 20
3.7941085497
 10
11.0844036315
 20
3.6338733219
 10
11.034571869
 20
3.3648466735
 10
10.9621026157
 20
3.1312608225
 10
10.8382537455
 20
2.8578030747
 10
10.6961627829
 20
2.6292805071
 10
10.5028276322
 20
2.3947590143
 10
10.2684299267
 20
2.1825722365
 10
9.9797816281
 20
1.9940385181
 10
9.6994608514
 20
1.8682148351
 10
9.3886792294
 20
1.7824629613
 10
9.0006250977
 20
1.7453333333
  0
LINE
  5
1DB
330
1B
100
AcDbEntity
 67
     1
  8
0
  6
Continuous
 62
     7
370
    15
100
AcDbLine
 10
24.9914213562
 20
-4.735
 30
0.0
 11
28.9121045786
 21
-4.735
 31
0.0
  0
LINE
  5
1DC
330
1B
100
AcDbEntity
 67
     1
  8
0
  6
Continuous
 62
     7
370
    15
100
AcDbLine
 10
28.9121045786
 20
4.735
 30
0.0
 11
24.9914213562
 21
4.735
 31
0.0
  0
LINE
  5
1DD
330
1B
100
AcDbEntity
 67
     1
  8
0
  6
Continuous
 62
     7
370
    15
100
AcDbLine
 10
13.9878954214
 20
-4.735
 30
0.0
 11
17.9085786438
 21
-4.735
 31
0.0
  0
LINE
  5
1DE
330
1B
100
AcDbEntity
 67
     1
  8
0
  6
Continuous
 62
     7
370
    15
100
AcDbLine
 10
17.9085786438
 20
4.735
 30
0.0
 11
13.9878954214
 21
4.735
 31
0.0
  0
LINE
  5
1DF
330
1B
100
AcDbEntity
 67
     1
  8
0
  6
Continuous
 62
     7
370
    15
100
AcDbLine
 10
39.5
 20
-4.735
 30
0.0
 11
44.4260620996
 21
-4.735
 31
0.0
  0
LINE
  5
1E0
330
1B
100
AcDbEntity
 67
     1
  8
0
  6
Continuous
 62
     7
370
    15
100
AcDbLine
 10
44.4260620996
 20
4.735
 30
0.0
 11
39.5
 21
4.735
 31
0.0
  0
LINE
  5
1E1
330
1B
100
AcDbEntity
 67
     1
  8
0
  6
Continuous
 62
     7
370
    15
100
AcDbLine
 10
28.9783781231
 20
-4.709885361
 30
0.0
 11
29.9216218769
 21
-3.875114639
 31
0.0
  0
LINE
  5
1E2
330
1B
100
AcDbEntity
 67
     1
  8
0
  6
Continuous
 62
     7
370
    15
100
AcDbLine
 10
29.9216218769
 20
3.875114639
 30
0.0
 11
28.9783781231
 21
4.709885361
 31
0.0
  0
LINE
  5
1E3
330
1B
100
AcDbEntity
 67
     1
  8
0
  6
Continuous
 62
     7
370
    15
100
AcDbLine
 10
13.9216218769
 20
4.709885361
 30
0.0
 11
12.9783781231
 21
3.875114639
 31
0.0
  0
LINE
  5
1E4
330
1B
100
AcDbEntity
 67
     1
  8
0
  6
Continuous
 62
     7
370
    15
100
AcDbLine
 10
12.9783781231
 20
-3.875114639
 30
0.0
 11
13.9216218769
 21
-4.709885361
 31
0.0
  0
LINE
  5
1E5
330
1B
100
AcDbEntity
 67
     1
  8
0
  6
Continuous
 62
     7
370
    15
100
AcDbLine
 10
24.9207106781
 20
4.7057106781
 30
0.0
 11
23.1942893219
 21
2.9792893219
 31
0.0
  0
LINE
  5
1E6
330
1B
100
AcDbEntity
 67
     1
  8
0
  6
Continuous
 62
     7
370
    15
100
AcDbLine
 10
23.1942893219
 20
-2.9792893219
 30
0.0
 11
24.9207106781
 21
-4.7057106781
 31
0.0
  0
LINE
  5
1E7
330
1B
100
AcDbEntity
 67
     1
  8
0
  6
Continuous
 62
     7
370
    15
100
AcDbLine
 10
17.9792893219
 20
-4.7057106781
 30
0.0
 11
19.7057106781
 21
-2.9792893219
 31
0.0
  0
LINE
  5
1E8
330
1B
100
AcDbEntity
 67
     1
  8
0
  6
Continuous
 62
     7
370
    15
100
AcDbLine
 10
19.7057106781
 20
2.9792893219
 30
0.0
 11
17.9792893219
 21
4.7057106781
 31
0.0
  0
LINE
  5
1E9
330
1B
100
AcDbEntity
 67
     1
  8
0
  6
Continuous
 62
     7
370
    15
100
AcDbLine
 10
29.9878954214
 20
-3.85
 30
0.0
 11
39.3
 21
-3.85
 31
0.0
  0
LINE
  5
1EA
330
1B
100
AcDbEntity
 67
     1
  8
0
  6
Continuous
 62
     7
370
    15
100
AcDbLine
 10
39.3
 20
3.85
 30
0.0
 11
29.9878954214
 21
3.85
 31
0.0
  0
LINE
  5
1EB
330
1B
100
AcDbEntity
 67
     1
  8
0
  6
Continuous
 62
     7
370
    15
100
AcDbLine
 10
11.0999614054
 20
-3.85
 30
0.0
 11
12.9121045786
 21
-3.85
 31
0.0
  0
LINE
  5
1EC
330
1B
100
AcDbEntity
 67
     1
  8
0
  6
Continuous
 62
     7
370
    15
100
AcDbLine
 10
12.9121045786
 20
3.85
 30
0.0
 11
11.0999614054
 21
3.85
 31
0.0
  0
LINE
  5
1ED
330
1B
100
AcDbEntity
 67
     1
  8
0
  6
Continuous
 62
     7
370
    15
100
AcDbLine
 10
19.7764213562
 20
-2.95
 30
0.0
 11
23.1235786438
 21
-2.95
 31
0.0
  0
LINE
  5
1EE
330
1B
100
AcDbEntity
 67
     1
  8
0
  6
Continuous
 62
     7
370
    15
100
AcDbLine
 10
23.1235786438
 20
2.95
 30
0.0
 11
19.7764213562
 21
2.95
 31
0.0
  0
LINE
  5
1EF
330
1B
100
AcDbEntity
 67
     1
  8
0
  6
Continuous
 62
     7
370
    15
100
AcDbLine
 10
39.4
 20
-4.6349999951
 30
0.0
 11
39.4
 21
4.635
 31
0.0
  0
LINE
  5
1F0
330
1B
100
AcDbEntity
 67
     1
  8
0
  6
Continuous
 62
     7
370
    15
100
AcDbLine
 10
47.4937036323
 20
-3.2
 30
0.0
 11
47.4937036323
 21
3.2
 31
0.0
  0
LINE
  5
1F1
330
1B
100
AcDbEntity
 67
     1
  8
0
  6
Continuous
 62
     7
370
    15
100
AcDbLine
 10
47.5062466419
 20
3.1663542098
 30
0.0
 11
47.5062466419
 21
-3.1663542098
 31
0.0
  0
LINE
  5
1F2
330
1B
100
AcDbEntity
 67
     1
  8
0
  6
Continuous
 62
     7
370
    15
100
AcDbLine
 10
47.4937036323
 20
3.1668824164
 30
0.0
 11
46.4451927925
 21
3.1668824164
 31
0.0
  0
LINE
  5
1F3
330
1B
100
AcDbEntity
 67
     1
  8
0
  6
Continuous
 62
     7
370
    15
100
AcDbLine
 10
46.4451927925
 20
-3.1668824164
 30
0.0
 11
47.4937036323
 21
-3.1668824164
 31
0.0
  0
LINE
  5
1F4
330
1B
100
AcDbEntity
 67
     1
  8
0
  6
Continuous
 62
     7
370
    15
100
AcDbLine
 10
54.5
 20
-3.1
 30
0.0
 11
54.5
 21
3.1
 31
0.0
  0
LINE
  5
1F5
330
1B
100
AcDbEntity
 67
     1
  8
0
  6
Continuous
 62
     7
370
    15
100
AcDbLine
 10
6.8921777741
 20
-1.7447680169
 30
0.0
 11
6.8921777741
 21
1.7447680169
 31
0.0
  0
LINE
  5
1F6
330
1B
100
AcDbEntity
 67
     1
  8
0
  6
Continuous
 62
     7
370
    15
100
AcDbLine
 10
6.9079210025
 20
1.8
 30
0.0
 11
6.9079210025
 21
-1.8
 31
0.0
  0
LINE
  5
1F7
330
1B
100
AcDbEntity
 67
     1
  8
0
  6
Continuous
 62
     7
370
    15
100
AcDbLine
 10
9.0006250977
 20
1.7453333333
 30
0.0
 11
6.9079210025
 21
1.7453333333
 31
0.0
  0
LINE
  5
1F8
330
1B
100
AcDbEntity
 67
     1
  8
0
  6
Continuous
 62
     7
370
    15
100
AcDbLine
 10
6.9079210025
 20
-1.7453333333
 30
0.0
 11
9.0006250977
 21
-1.7453333333
 31
0.0
  0
LINE
  5
1F9
330
1B
100
AcDbEntity
 67
     1
  8
0
  6
Continuous
 62
     7
370
    15
100
AcDbLine
 10
0.0
 20
-1.7
 30
0.0
 11
0.0
 21
1.7
 31
0.0
  0
LINE
  5
1FA
330
1B
100
AcDbEntity
 67
     1
  8
0
  6
Continuous
 62
     7
370
    15
100
AcDbLine
 10
46.4451927925
 20
3.2
 30
0.0
 11
46.4451927925
 21
3.1668824164
 31
0.0
  0
LINE
  5
1FB
330
1B
100
AcDbEntity
 67
     1
  8
0
  6
Continuous
 62
     7
370
    15
100
AcDbLine
 10
46.4451927925
 20
-3.1668824164
 30
0.0
 11
46.4451927925
 21
-3.2
 31
0.0
  0
LINE
  5
1FC
330
1B
100
AcDbEntity
 67
     1
  8
0
  6
Continuous
 62
     7
370
    15
100
AcDbLine
 10
9.0006250977
 20
1.7453333333
 30
0.0
 11
9.0006250977
 21
1.8
 31
0.0
  0
LINE
  5
1FD
330
1B
100
AcDbEntity
 67
     1
  8
0
  6
Continuous
 62
     7
370
    15
100
AcDbLine
 10
9.0006250977
 20
-1.8
 30
0.0
 11
9.0006250977
 21
-1.7453333333
 31
0.0
  0
LINE
  5
1FE
330
1B
100
AcDbEntity
 67
     1
  8
0
  6
Continuous
 62
     7
370
    15
100
AcDbLine
 10
46.4451927925
 20
3.2
 30
0.0
 11
54.4
 21
3.2
 31
0.0
  0
LINE
  5
1FF
330
1B
100
AcDbEntity
 67
     1
  8
0
  6
Continuous
 62
     7
370
    15
100
AcDbLine
 10
54.4
 20
-3.2
 30
0.0
 11
46.4451927925
 21
-3.2
 31
0.0
  0
LINE
  5
200
330
1B
100
AcDbEntity
 67
     1
  8
0
  6
Continuous
 62
     7
370
    15
100
AcDbLine
 10
0.1
 20
1.8
 30
0.0
 11
9.0006250977
 21
1.8
 31
0.0
  0
LINE
  5
201
330
1B
100
AcDbEntity
 67
     1
  8
0
  6
Continuous
 62
     7
370
    15
100
AcDbLine
 10
9.0006250977
 20
-1.8
 30
0.0
 11
0.1
 21
-1.8
 31
0.0
  0
LINE
  5
202
330
1B
100
AcDbEntity
 67
     1
  8
0
  6
Continuous
 62
     8
370
    15
100
AcDbLine
 10
24.9914213562
 20
4.735
 30
0.0
 11
24.9914213562
 21
-4.735
 31
0.0
  0
LINE
  5
203
330
1B
100
AcDbEntity
 67
     1
  8
0
  6
Continuous
 62
     8
370
    15
100
AcDbLine
 10
28.9121045786
 20
-4.735
 30
0.0
 11
28.9121045786
 21
4.735
 31
0.0
  0
LINE
  5
204
330
1B
100
AcDbEntity
 67
     1
  8
0
  6
Continuous
 62
     8
370
    15
100
AcDbLine
 10
39.5
 20
4.735
 30
0.0
 11
39.5
 21
-4.735
 31
0.0
  0
LINE
  5
205
330
1B
100
AcDbEntity
 67
     1
  8
0
  6
Continuous
 62
     8
370
    15
100
AcDbLine
 10
17.9085786438
 20
-4.735
 30
0.0
 11
17.9085786438
 21
4.735
 31
0.0
  0
LINE
  5
206
330
1B
100
AcDbEntity
 67
     1
  8
0
  6
Continuous
 62
     8
370
    15
100
AcDbLine
 10
17.9792893219
 20
4.7057106781
 30
0.0
 11
17.9792893219
 21
-4.7057106781
 31
0.0
  0
LINE
  5
207
330
1B
100
AcDbEntity
 67
     1
  8
0
  6
Continuous
 62
     8
370
    15
100
AcDbLine
 10
13.9878954214
 20
4.735
 30
0.0
 11
13.9878954214
 21
-4.735
 31
0.0
  0
LINE
  5
208
330
1B
100
AcDbEntity
 67
     1
  8
0
  6
Continuous
 62
     8
370
    15
100
AcDbLine
 10
24.9207106781
 20
-4.7057106781
 30
0.0
 11
24.9207106781
 21
4.7057106781
 31
0.0
  0
LINE
  5
209
330
1B
100
AcDbEntity
 67
     1
  8
0
  6
Continuous
 62
     8
370
    15
100
AcDbLine
 10
28.9783781231
 20
4.709885361
 30
0.0
 11
28.9783781231
 21
-4.709885361
 31
0.0
  0
LINE
  5
20A
330
1B
100
AcDbEntity
 67
     1
  8
0
  6
Continuous
 62
     8
370
    15
100
AcDbLine
 10
13.9216218769
 20
-4.709885361
 30
0.0
 11
13.9216218769
 21
4.709885361
 31
0.0
  0
LINE
  5
20B
330
1B
100
AcDbEntity
 67
     1
  8
0
  6
Continuous
 62
     8
370
    15
100
AcDbLine
 10
29.9216218769
 20
-3.875114639
 30
0.0
 11
29.9216218769
 21
3.875114639
 31
0.0
  0
LINE
  5
20C
330
1B
100
AcDbEntity
 67
     1
  8
0
  6
Continuous
 62
     8
370
    15
100
AcDbLine
 10
12.9783781231
 20
3.875114639
 30
0.0
 11
12.9783781231
 21
-3.875114639
 31
0.0
  0
LINE
  5
20D
330
1B
100
AcDbEntity
 67
     1
  8
0
  6
Continuous
 62
     8
370
    15
100
AcDbLine
 10
23.1942893219
 20
2.9792893219
 30
0.0
 11
23.1942893219
 21
-2.9792893219
 31
0.0
  0
LINE
  5
20E
330
1B
100
AcDbEntity
 67
     1
  8
0
  6
Continuous
 62
     8
370
    15
100
AcDbLine
 10
19.7057106781
 20
-2.9792893219
 30
0.0
 11
19.7057106781
 21
2.9792893219
 31
0.0
  0
LINE
  5
20F
330
1B
100
AcDbEntity
 67
     1
  8
0
  6
Continuous
 62
     8
370
    15
100
AcDbLine
 10
39.3
 20
-3.85
 30
0.0
 11
39.3
 21
3.85
 31
0.0
  0
LINE
  5
210
330
1B
100
AcDbEntity
 67
     1
  8
0
  6
Continuous
 62
     8
370
    15
100
AcDbLine
 10
29.9878954214
 20
3.85
 30
0.0
 11
29.9878954214
 21
-3.85
 31
0.0
  0
LINE
  5
211
330
1B
100
AcDbEntity
 67
     1
  8
0
  6
Continuous
 62
     8
370
    15
100
AcDbLine
 10
12.9121045786
 20
-3.85
 30
0.0
 11
12.9121045786
 21
3.85
 31
0.0
  0
LINE
  5
212
330
1B
100
AcDbEntity
 67
     1
  8
0
  6
Continuous
 62
     8
370
    15
100
AcDbLine
 10
23.1235786438
 20
-2.95
 30
0.0
 11
23.1235786438
 21
2.95
 31
0.0
  0
LINE
  5
213
330
1B
100
AcDbEntity
 67
     1
  8
0
  6
Continuous
 62
     8
370
    15
100
AcDbLine
 10
19.7764213562
 20
2.95
 30
0.0
 11
19.7764213562
 21
-2.95
 31
0.0
  0
ARC
  5
214
330
1B
100
AcDbEntity
 67
     1
  8
0
  6
Continuous
 62
     7
370
    15
100
AcDbCircle
 10
39.5
 20
4.635
 30
0.0
 40
0.1000000000000023
100
AcDbArc
 50
90.0
 51
180.0
  0
ARC
  5
215
330
1B
100
AcDbEntity
 67
     1
  8
0
  6
Continuous
 62
     7
370
    15
100
AcDbCircle
 10
39.5
 20
-4.635
 30
0.0
 40
0.1000000000000014
100
AcDbArc
 50
180.0
 51
270.0
  0
ARC
  5
216
330
1B
100
AcDbEntity
 67
     1
  8
0
  6
Continuous
 62
     7
370
    15
100
AcDbCircle
 10
17.9085786438
 20
4.635
 30
0.0
 40
0.0999999999999988
100
AcDbArc
 50
45.0
 51
90.0
  0
ARC
  5
217
330
1B
100
AcDbEntity
 67
     1
  8
0
  6
Continuous
 62
     7
370
    15
100
AcDbCircle
 10
17.9085786438
 20
-4.635
 30
0.0
 40
0.0999999999999908
100
AcDbArc
 50
270.0
 51
315.0
  0
ARC
  5
218
330
1B
100
AcDbEntity
 67
     1
  8
0
  6
Continuous
 62
     7
370
    15
100
AcDbCircle
 10
24.9914213562
 20
4.635
 30
0.0
 40
0.1000000000000165
100
AcDbArc
 50
90.0
 51
135.0
  0
ARC
  5
219
330
1B
100
AcDbEntity
 67
     1
  8
0
  6
Continuous
 62
     7
370
    15
100
AcDbCircle
 10
24.9914213562
 20
-4.635
 30
0.0
 40
0.0999999999999996
100
AcDbArc
 50
225.0
 51
270.0
  0
ARC
  5
21A
330
1B
100
AcDbEntity
 67
     1
  8
0
  6
Continuous
 62
     7
370
    15
100
AcDbCircle
 10
28.9121045786
 20
4.635
 30
0.0
 40
0.1000000000000039
100
AcDbArc
 50
48.4911714294
 51
90.0
  0
ARC
  5
21B
330
1B
100
AcDbEntity
 67
     1
  8
0
  6
Continuous
 62
     7
370
    15
100
AcDbCircle
 10
28.9121045786
 20
-4.635
 30
0.0
 40
0.1000000000000186
100
AcDbArc
 50
270.0
 51
311.5088285706
  0
ARC
  5
21C
330
1B
100
AcDbEntity
 67
     1
  8
0
  6
Continuous
 62
     7
370
    15
100
AcDbCircle
 10
13.9878954214
 20
4.635
 30
0.0
 40
0.0999999999999989
100
AcDbArc
 50
90.0
 51
131.5088285706
  0
ARC
  5
21D
330
1B
100
AcDbEntity
 67
     1
  8
0
  6
Continuous
 62
     7
370
    15
100
AcDbCircle
 10
13.9878954214
 20
-4.635
 30
0.0
 40
0.1000000000000158
100
AcDbArc
 50
228.4911714294
 51
270.0
  0
ARC
  5
21E
330
1B
100
AcDbEntity
 67
     1
  8
0
  6
Continuous
 62
     7
370
    15
100
AcDbCircle
 10
39.3
 20
3.95
 30
0.0
 40
0.1000000000000019
100
AcDbArc
 50
270.0
 51
0.0
  0
ARC
  5
21F
330
1B
100
AcDbEntity
 67
     1
  8
0
  6
Continuous
 62
     7
370
    15
100
AcDbCircle
 10
39.3
 20
-3.95
 30
0.0
 40
0.1000000000000063
100
AcDbArc
 50
0.0
 51
90.0
  0
ARC
  5
220
330
1B
100
AcDbEntity
 67
     1
  8
0
  6
Continuous
 62
     7
370
    15
100
AcDbCircle
 10
29.9878954214
 20
-3.95
 30
0.0
 40
0.1000000000000096
100
AcDbArc
 50
90.0
 51
131.5088285706
  0
ARC
  5
221
330
1B
100
AcDbEntity
 67
     1
  8
0
  6
Continuous
 62
     7
370
    15
100
AcDbCircle
 10
29.9878954214
 20
3.95
 30
0.0
 40
0.0999999999999903
100
AcDbArc
 50
228.4911714294
 51
270.0
  0
ARC
  5
222
330
1B
100
AcDbEntity
 67
     1
  8
0
  6
Continuous
 62
     7
370
    15
100
AcDbCircle
 10
12.9121045786
 20
-3.95
 30
0.0
 40
0.1000000000000021
100
AcDbArc
 50
48.4911714294
 51
90.0
  0
ARC
  5
223
330
1B
100
AcDbEntity
 67
     1
  8
0
  6
Continuous
 62
     7
370
    15
100
AcDbCircle
 10
12.9121045786
 20
3.95
 30
0.0
 40
0.1000000000000026
100
AcDbArc
 50
270.0
 51
311.5088285706
  0
ARC
  5
224
330
1B
100
AcDbEntity
 67
     1
  8
0
  6
Continuous
 62
     7
370
    15
100
AcDbCircle
 10
44.4226263535
 20
4.635
 30
0.0
 40
0.0999999999999571
100
AcDbArc
 50
15.6076025008
 51
87.8727886085
  0
ARC
  5
225
330
1B
100
AcDbEntity
 67
     1
  8
0
  6
Continuous
 62
     7
370
    15
100
AcDbCircle
 10
44.4226263535
 20
-4.635
 30
0.0
 40
0.0999999999999472
100
AcDbArc
 50
271.6976743738
 51
344.3923974992
  0
ARC
  5
226
330
1B
100
AcDbEntity
 67
     1
  8
0
  6
Continuous
 62
     7
370
    15
100
AcDbCircle
 10
11.1000297752
 20
3.75
 30
0.0
 40
0.0999999999999662
100
AcDbArc
 50
89.8404047583
 51
178.6356858517
  0
ARC
  5
227
330
1B
100
AcDbEntity
 67
     1
  8
0
  6
Continuous
 62
     7
370
    15
100
AcDbCircle
 10
11.1000297752
 20
-3.75
 30
0.0
 40
0.099999999999964
100
AcDbArc
 50
181.3643141483
 51
270.0683523588
  0
ARC
  5
228
330
1B
100
AcDbEntity
 67
     1
  8
0
  6
Continuous
 62
     7
370
    15
100
AcDbCircle
 10
23.1235786438
 20
-3.05
 30
0.0
 40
0.1000000000000033
100
AcDbArc
 50
45.0
 51
90.0
  0
ARC
  5
229
330
1B
100
AcDbEntity
 67
     1
  8
0
  6
Continuous
 62
     7
370
    15
100
AcDbCircle
 10
23.1235786438
 20
3.05
 30
0.0
 40
0.1000000000000202
100
AcDbArc
 50
270.0
 51
315.0
  0
ARC
  5
22A
330
1B
100
AcDbEntity
 67
     1
  8
0
  6
Continuous
 62
     7
370
    15
100
AcDbCircle
 10
19.7764213562
 20
-3.05
 30
0.0
 40
0.0999999999999934
100
AcDbArc
 50
90.0
 51
135.0
  0
ARC
  5
22B
330
1B
100
AcDbEntity
 67
     1
  8
0
  6
Continuous
 62
     7
370
    15
100
AcDbCircle
 10
19.7764213562
 20
3.05
 30
0.0
 40
0.1000000000000045
100
AcDbArc
 50
225.0
 51
270.0
  0
ARC
  5
22C
330
1B
100
AcDbEntity
 67
     1
  8
0
  6
Continuous
 62
     7
370
    15
100
AcDbCircle
 10
47.4937144819
 20
3.0179502294
 30
0.0
 40
0.1489321874275398
100
AcDbArc
 50
85.1730383566
 51
90.0041739783
  0
ARC
  5
22D
330
1B
100
AcDbEntity
 67
     1
  8
0
  6
Continuous
 62
     7
370
    15
100
AcDbCircle
 10
47.4937144819
 20
-3.0179502294
 30
0.0
 40
0.1489321874277614
100
AcDbArc
 50
269.9958260217
 51
274.8269616434
  0
ARC
  5
22E
330
1B
100
AcDbEntity
 67
     1
  8
0
  6
Continuous
 62
     7
370
    15
100
AcDbCircle
 10
54.4
 20
-3.1
 30
0.0
 40
0.1000000000000898
100
AcDbArc
 50
270.0
 51
0.0000000686
  0
ARC
  5
22F
330
1B
100
AcDbEntity
 67
     1
  8
0
  6
Continuous
 62
     7
370
    15
100
AcDbCircle
 10
6.9078900682
 20
1.5266993063
 30
0.0
 40
0.2186340292409969
100
AcDbArc
 50
89.9918932759
 51
94.1211556419
  0
ARC
  5
230
330
1B
100
AcDbEntity
 67
     1
  8
0
  6
Continuous
 62
     7
370
    15
100
AcDbCircle
 10
6.9078900682
 20
-1.5266993063
 30
0.0
 40
0.2186340292411488
100
AcDbArc
 50
265.8788443581
 51
270.0081067241
  0
ARC
  5
231
330
1B
100
AcDbEntity
 67
     1
  8
0
  6
Continuous
 62
     7
370
    15
100
AcDbCircle
 10
46.4451300676
 20
5.199876915
 30
0.0
 40
1.999876915949855
100
AcDbArc
 50
195.9332339934
 51
270.0017970479
  0
ARC
  5
232
330
1B
100
AcDbEntity
 67
     1
  8
0
  6
Continuous
 62
     7
370
    15
100
AcDbCircle
 10
8.9995657492
 20
3.8016317107
 30
0.0
 40
2.001631990989816
100
AcDbArc
 50
270.0303233554
 51
358.578627612
  0
ARC
  5
233
330
1B
100
AcDbEntity
 67
     1
  8
0
  6
Continuous
 62
     7
370
    15
100
AcDbCircle
 10
9.0006774003
 20
-3.7999185559
 30
0.0
 40
1.999918556574145
100
AcDbArc
 50
1.4497226535
 51
90.0014984203
  0
ARC
  5
234
330
1B
100
AcDbEntity
 67
     1
  8
0
  6
Continuous
 62
     7
370
    15
100
AcDbCircle
 10
47.4629947499
 20
3.1693909714
 30
0.0
 40
0.0433583681304861
100
AcDbArc
 50
355.9837928087
 51
44.906696156
  0
ARC
  5
235
330
1B
100
AcDbEntity
 67
     1
  8
0
  6
Continuous
 62
     7
370
    15
100
AcDbCircle
 10
47.4629947499
 20
-3.1693909714
 30
0.0
 40
0.0433583681304858
100
AcDbArc
 50
315.093303844
 51
4.0162071913
  0
ARC
  5
236
330
1B
100
AcDbEntity
 67
     1
  8
0
  6
Continuous
 62
     7
370
    15
100
AcDbCircle
 10
54.4
 20
3.1
 30
0.0
 40
0.1000000000001369
100
AcDbArc
 50
54.9638392868
 51
90.0
  0
ARC
  5
237
330
1B
100
AcDbEntity
 67
     1
  8
0
  6
Continuous
 62
     7
370
    15
100
AcDbCircle
 10
6.9678576354
 20
1.7530560636
 30
0.0
 40
0.0761323395624467
100
AcDbArc
 50
141.9310252213
 51
186.2498158614
  0
ARC
  5
238
330
1B
100
AcDbEntity
 67
     1
  8
0
  6
Continuous
 62
     7
370
    15
100
AcDbCircle
 10
6.9678576354
 20
-1.7530560636
 30
0.0
 40
0.0761323395624265
100
AcDbArc
 50
173.7501841386
 51
218.0689747787
  0
ARC
  5
239
330
1B
100
AcDbEntity
 67
     1
  8
0
  6
Continuous
 62
     7
370
    15
100
AcDbCircle
 10
0.1
 20
1.7
 30
0.0
 40
0.1000000000258834
100
AcDbArc
 50
90.0000000022
 51
140.7759193412
  0
ARC
  5
23A
330
1B
100
AcDbEntity
 67
     1
  8
0
  6
Continuous
 62
     7
370
    15
100
AcDbCircle
 10
0.1
 20
-1.7
 30
0.0
 40
0.1000000000262178
100
AcDbArc
 50
219.2240806589
 51
269.9999999977
  0
ARC
  5
23B
330
1B
100
AcDbEntity
 67
     1
  8
0
  6
Continuous
 62
     8
370
    15
100
AcDbCircle
 10
46.4623277356
 20
5.2772319055
 30
0.0
 40
2.11041905139831
100
AcDbArc
 50
195.2334677012
 51
269.5347982168
  0
ARC
  5
23C
330
1B
100
AcDbEntity
 67
     1
  8
0
  6
Continuous
 62
     8
370
    15
100
AcDbCircle
 10
8.967560901
 20
-3.8776853018
 30
0.0
 40
2.132608299331447
100
AcDbArc
 50
0.7998399355
 51
89.111644258
  0
VIEWPORT
  5
23D
330
1B
100
AcDbEntity
 67
     1
  8
0
100
AcDbViewport
 10
0.0
 20
0.0
 30
0.0
 40
205.6
 41
156.0
 68
     1
 69
     1
 12
27.2500420859
 22
0.0
 13
0.0
 23
0.0
 14
10.0
 24
10.0
 15
10.0
 25
10.0
 16
0.0
 26
0.0
 36
1.0
 17
0.0
 27
0.0
 37
0.0
 42
50.0
 43
0.0
 44
0.0
 45
42.1792480224
 50
0.0
 51
0.0
 72
   100
 90
   557152
  1

281
     0
 71
     1
 74
     0
110
0.0
120
0.0
130
0.0
111
1.0
121
0.0
131
0.0
112
0.0
122
1.0
132
0.0
 79
     0
146
0.0
  0
ENDSEC
  0
SECTION
  2
OBJECTS
  0
DICTIONARY
  5
C
330
0
100
AcDbDictionary
281
     1
  3
ACAD_GROUP
350
D
  3
ACAD_LAYOUT
350
1A
  3
ACAD_MLINESTYLE
350
17
  3
ACAD_PLOTSETTINGS
350
19
  3
ACAD_PLOTSTYLENAME
350
E
  3
ACAD_SCALELIST
350
47
  0
DICTIONARY
  5
D
102
{ACAD_REACTORS
330
C
102
}
330
C
100
AcDbDictionary
281
     1
  0
DICTIONARY
  5
1A
102
{ACAD_REACTORS
330
C
102
}
330
C
100
AcDbDictionary
281
     1
  3
_Dessus
350
1E
  3
Layout2
350
26
  3
Model
350
22
  0
DICTIONARY
  5
17
102
{ACAD_REACTORS
330
C
102
}
330
C
100
AcDbDictionary
281
     1
  3
Standard
350
18
  0
DICTIONARY
  5
19
102
{ACAD_REACTORS
330
C
102
}
330
C
100
AcDbDictionary
281
     1
  0
ACDBDICTIONARYWDFLT
  5
E
102
{ACAD_REACTORS
330
C
102
}
330
C
100
AcDbDictionary
281
     1
  3
Normal
350
F
100
AcDbDictionaryWithDefault
340
F
  0
DICTIONARY
  5
47
102
{ACAD_REACTORS
330
C
102
}
330
C
100
AcDbDictionary
281
     1
  3
A0
350
48
  3
A1
350
49
  3
A2
350
4A
  3
A3
350
4B
  3
A4
350
4C
  3
A5
350
4D
  3
A6
350
4E
  3
A7
350
4F
  3
A8
350
50
  3
A9
350
51
  3
B0
350
52
  3
B1
350
53
  3
B2
350
54
  3
B3
350
55
  3
B4
350
56
  3
B5
350
57
  3
B6
350
58
  3
B7
350
59
  3
B8
350
5A
  3
B9
350
5B
  3
C0
350
5C
  3
C1
350
5D
  3
C2
350
5E
  3
C3
350
5F
  3
C4
350
60
  3
C5
350
61
  3
C6
350
62
  3
C7
350
63
  3
C8
350
64
  3
C9
350
65
  3
D0
350
66
  3
D1
350
67
  3
D2
350
68
  0
LAYOUT
  5
1E
102
{ACAD_REACTORS
330
1A
102
}
330
1A
100
AcDbPlotSettings
  1

  2
none_device
  4
ISO_A4_(210.00_x_297.00_MM)
  6

 40
7.5
 41
20.0
 42
7.5
 43
20.0
 44
210.0
 45
297.0
 46
0.0
 47
0.0
 48
0.0
 49
0.0
140
0.0
141
0.0
142
1.0
143
0.2120622568
 70
   688
 72
     1
 73
     1
 74
     1
  7

 75
     0
147
4.7155963303
148
0.0
149
4.735
100
AcDbLayout
  1
_Dessus
 70
     1
 71
     1
 10
-4.2412451362
 20
-6.3254669261
 11
58.7412451362
 21
38.2076070039
 12
0.0
 22
0.0
 32
0.0
 14
0.0
 24
-4.735
 34
0.0
 15
54.5
 25
4.735
 35
0.0
146
0.0
 13
0.0
 23
0.0
 33
0.0
 16
1.0
 26
0.0
 36
0.0
 17
0.0
 27
1.0
 37
0.0
 76
     0
330
1B
331
23D
  0
LAYOUT
  5
26
102
{ACAD_REACTORS
330
1A
102
}
330
1A
100
AcDbPlotSettings
  1

  2
none_device
  4

  6

 40
0.0
 41
0.0
 42
0.0
 43
0.0
 44
0.0
 45
0.0
 46
0.0
 47
0.0
 48
0.0
 49
0.0
140
0.0
141
0.0
142
1.0
143
1.0
 70
   688
 72
     1
 73
     0
 74
     5
  7

 75
    16
147
1.0
148
0.0
149
0.0
100
AcDbLayout
  1
Layout2
 70
     1
 71
     2
 10
0.0
 20
0.0
 11
0.0
 21
0.0
 12
0.0
 22
0.0
 32
0.0
 14
0.0
 24
0.0
 34
0.0
 15
0.0
 25
0.0
 35
0.0
146
0.0
 13
0.0
 23
0.0
 33
0.0
 16
1.0
 26
0.0
 36
0.0
 17
0.0
 27
1.0
 37
0.0
 76
     0
330
23
  0
LAYOUT
  5
22
102
{ACAD_REACTORS
330
1A
102
}
330
1A
100
AcDbPlotSettings
  1

  2
none_device
  4
ANSI_A_(11.00_x_8.50_Inches)
  6

 40
6.35
 41
19.05
 42
6.35000508
 43
19.05000254
 44
279.4
 45
215.9
 46
-4.95300254
 47
88.89999873
 48
0.0
 49
0.0
140
0.0
141
0.0
142
0.1998162052
143
1.0
 70
  1696
 72
     0
 73
     0
 74
     0
  7

 75
     0
147
0.0179189148
148
-1300.4909072572
149
0.0
100
AcDbLayout
  1
Model
 70
     1
 71
     0
 10
0.0
 20
0.0
 11
420.0
 21
297.0
 12
0.0
 22
0.0
 32
0.0
 14
0.0
 24
-4.735
 34
0.0
 15
54.5000841717
 25
4.735
 35
0.0
146
0.0
 13
0.0
 23
0.0
 33
0.0
 16
1.0
 26
0.0
 36
0.0
 17
0.0
 27
1.0
 37
0.0
 76
     0
330
1F
331
29
  0
MLINESTYLE
  5
18
102
{ACAD_REACTORS
330
17
102
}
330
17
100
AcDbMlineStyle
  2
Standard
 70
     0
  3

 62
   256
 51
90.0
 52
90.0
 71
     2
 49
0.5
 62
   256
  6
BYLAYER
 49
-0.5
 62
   256
  6
BYLAYER
  0
ACDBPLACEHOLDER
  5
F
102
{ACAD_REACTORS
330
E
102
}
330
E
  0
SCALE
  5
48
102
{ACAD_REACTORS
330
47
102
}
330
47
100
AcDbScale
 70
     0
300
1:1
140
1.0
141
1.0
290
     1
  0
SCALE
  5
49
102
{ACAD_REACTORS
330
47
102
}
330
47
100
AcDbScale
 70
     0
300
1:2
140
1.0
141
2.0
290
     0
  0
SCALE
  5
4A
102
{ACAD_REACTORS
330
47
102
}
330
47
100
AcDbScale
 70
     0
300
1:4
140
1.0
141
4.0
290
     0
  0
SCALE
  5
4B
102
{ACAD_REACTORS
330
47
102
}
330
47
100
AcDbScale
 70
     0
300
1:5
140
1.0
141
5.0
290
     0
  0
SCALE
  5
4C
102
{ACAD_REACTORS
330
47
102
}
330
47
100
AcDbScale
 70
     0
300
1:8
140
1.0
141
8.0
290
     0
  0
SCALE
  5
4D
102
{ACAD_REACTORS
330
47
102
}
330
47
100
AcDbScale
 70
     0
300
1:10
140
1.0
141
10.0
290
     0
  0
SCALE
  5
4E
102
{ACAD_REACTORS
330
47
102
}
330
47
100
AcDbScale
 70
     0
300
1:16
140
1.0
141
16.0
290
     0
  0
SCALE
  5
4F
102
{ACAD_REACTORS
330
47
102
}
330
47
100
AcDbScale
 70
     0
300
1:20
140
1.0
141
20.0
290
     0
  0
SCALE
  5
50
102
{ACAD_REACTORS
330
47
102
}
330
47
100
AcDbScale
 70
     0
300
1:30
140
1.0
141
30.0
290
     0
  0
SCALE
  5
51
102
{ACAD_REACTORS
330
47
102
}
330
47
100
AcDbScale
 70
     0
300
1:40
140
1.0
141
40.0
290
     0
  0
SCALE
  5
52
102
{ACAD_REACTORS
330
47
102
}
330
47
100
AcDbScale
 70
     0
300
1:50
140
1.0
141
50.0
290
     0
  0
SCALE
  5
53
102
{ACAD_REACTORS
330
47
102
}
330
47
100
AcDbScale
 70
     0
300
1:100
140
1.0
141
100.0
290
     0
  0
SCALE
  5
54
102
{ACAD_REACTORS
330
47
102
}
330
47
100
AcDbScale
 70
     0
300
2:1
140
2.0
141
1.0
290
     0
  0
SCALE
  5
55
102
{ACAD_REACTORS
330
47
102
}
330
47
100
AcDbScale
 70
     0
300
4:1
140
4.0
141
1.0
290
     0
  0
SCALE
  5
56
102
{ACAD_REACTORS
330
47
102
}
330
47
100
AcDbScale
 70
     0
300
8:1
140
8.0
141
1.0
290
     0
  0
SCALE
  5
57
102
{ACAD_REACTORS
330
47
102
}
330
47
100
AcDbScale
 70
     0
300
10:1
140
10.0
141
1.0
290
     0
  0
SCALE
  5
58
102
{ACAD_REACTORS
330
47
102
}
330
47
100
AcDbScale
 70
     0
300
100:1
140
100.0
141
1.0
290
     0
  0
SCALE
  5
59
102
{ACAD_REACTORS
330
47
102
}
330
47
100
AcDbScale
 70
     0
300
1/128" = 1'-0"
140
0.0078125
141
12.0
290
     0
  0
SCALE
  5
5A
102
{ACAD_REACTORS
330
47
102
}
330
47
100
AcDbScale
 70
     0
300
1/64" = 1'-0"
140
0.015625
141
12.0
290
     0
  0
SCALE
  5
5B
102
{ACAD_REACTORS
330
47
102
}
330
47
100
AcDbScale
 70
     0
300
1/32" = 1'-0"
140
0.03125
141
12.0
290
     0
  0
SCALE
  5
5C
102
{ACAD_REACTORS
330
47
102
}
330
47
100
AcDbScale
 70
     0
300
1/16" = 1'-0"
140
0.0625
141
12.0
290
     0
  0
SCALE
  5
5D
102
{ACAD_REACTORS
330
47
102
}
330
47
100
AcDbScale
 70
     0
300
3/32" = 1'-0"
140
0.09375
141
12.0
290
     0
  0
SCALE
  5
5E
102
{ACAD_REACTORS
330
47
102
}
330
47
100
AcDbScale
 70
     0
300
1/8" = 1'-0"
140
0.125
141
12.0
290
     0
  0
SCALE
  5
5F
102
{ACAD_REACTORS
330
47
102
}
330
47
100
AcDbScale
 70
     0
300
3/16" = 1'-0"
140
0.1875
141
12.0
290
     0
  0
SCALE
  5
60
102
{ACAD_REACTORS
330
47
102
}
330
47
100
AcDbScale
 70
     0
300
1/4" = 1'-0"
140
0.25
141
12.0
290
     0
  0
SCALE
  5
61
102
{ACAD_REACTORS
330
47
102
}
330
47
100
AcDbScale
 70
     0
300
3/8" = 1'-0"
140
0.375
141
12.0
290
     0
  0
SCALE
  5
62
102
{ACAD_REACTORS
330
47
102
}
330
47
100
AcDbScale
 70
     0
300
1/2" = 1'-0"
140
0.5
141
12.0
290
     0
  0
SCALE
  5
63
102
{ACAD_REACTORS
330
47
102
}
330
47
100
AcDbScale
 70
     0
300
3/4" = 1'-0"
140
0.75
141
12.0
290
     0
  0
SCALE
  5
64
102
{ACAD_REACTORS
330
47
102
}
330
47
100
AcDbScale
 70
     0
300
1" = 1'-0"
140
1.0
141
12.0
290
     0
  0
SCALE
  5
65
102
{ACAD_REACTORS
330
47
102
}
330
47
100
AcDbScale
 70
     0
300
1-1/2" = 1'-0"
140
1.5
141
12.0
290
     0
  0
SCALE
  5
66
102
{ACAD_REACTORS
330
47
102
}
330
47
100
AcDbScale
 70
     0
300
3" = 1'-0"
140
3.0
141
12.0
290
     0
  0
SCALE
  5
67
102
{ACAD_REACTORS
330
47
102
}
330
47
100
AcDbScale
 70
     0
300
6" = 1'-0"
140
6.0
141
12.0
290
     0
  0
SCALE
  5
68
102
{ACAD_REACTORS
330
47
102
}
330
47
100
AcDbScale
 70
     0
300
1'-0" = 1'-0"
140
12.0
141
12.0
290
     0
  0
ENDSEC
  0
EOF
