ISO-10303-21;
HEADER;
FILE_DESCRIPTION(('CATIA V5 STEP Exchange'),'2;1');

FILE_NAME('E:\\FAB-MAJ\\005-AXE-PRINCIPAL.stp','2019-12-06T11:44:39+00:00',('none'),('none'),'CATIA Version 5 Release 20 GA (IN-10)','CATIA V5 STEP AP203','none');

FILE_SCHEMA(('CONFIG_CONTROL_DESIGN'));

ENDSEC;
/* file written by CATIA V5R20 */
DATA;
#5=PRODUCT('005-AXE-PRINCIPAL','','',(#2)) ;
#1=APPLICATION_CONTEXT('configuration controlled 3D design of mechanical parts and assemblies') ;
#14=PRODUCT_DEFINITION('',' ',#6,#3) ;
#16=SECURITY_CLASSIFICATION(' ',' ',#15) ;
#15=SECURITY_CLASSIFICATION_LEVEL('unclassified') ;
#47=CARTESIAN_POINT(' ',(0.,0.,0.)) ;
#52=CARTESIAN_POINT('Axis2P3D Location',(0.,0.,7.30661699359)) ;
#57=CARTESIAN_POINT('Line Origine',(-0.906981577714,0.495486294147,7.90330849679)) ;
#61=CARTESIAN_POINT('Vertex',(0.,0.,7.30661699359)) ;
#63=CARTESIAN_POINT('Vertex',(-1.81396315543,0.990972588295,8.5)) ;
#66=CARTESIAN_POINT('Axis2P3D Location',(0.,0.,8.5)) ;
#70=CARTESIAN_POINT('Vertex',(1.81396315543,-0.990972588295,8.5)) ;
#73=CARTESIAN_POINT('Line Origine',(0.906981577714,-0.495486294147,7.90330849679)) ;
#84=CARTESIAN_POINT('Axis2P3D Location',(0.,0.,20.5)) ;
#89=CARTESIAN_POINT('Axis2P3D Location',(-1.60982338571E-015,-4.4408920985E-016,20.5)) ;
#93=CARTESIAN_POINT('Vertex',(5.5,-1.61813108485E-015,20.5)) ;
#95=CARTESIAN_POINT('Vertex',(-5.5,-6.84131434607E-007,20.5)) ;
#98=CARTESIAN_POINT('Axis2P3D Location',(1.7763568394E-015,-2.71064095649E-016,20.5)) ;
#107=CARTESIAN_POINT('Axis2P3D Location',(-1.11022302463E-016,4.4408920985E-016,20.5)) ;
#111=CARTESIAN_POINT('Vertex',(-1.81396315543,0.990972588295,20.5)) ;
#113=CARTESIAN_POINT('Vertex',(1.81396315543,-0.990972588295,20.5)) ;
#116=CARTESIAN_POINT('Axis2P3D Location',(1.66533453694E-016,-4.4408920985E-016,20.5)) ;
#126=CARTESIAN_POINT('Axis2P3D Location',(-4.13002965161E-014,-7.1054273576E-015,26.)) ;
#131=CARTESIAN_POINT('Line Origine',(5.75,-2.96059473233E-016,20.25)) ;
#135=CARTESIAN_POINT('Vertex',(6.,-1.46952762459E-015,20.)) ;
#138=CARTESIAN_POINT('Axis2P3D Location',(1.33226762955E-015,-1.7763568394E-015,20.)) ;
#142=CARTESIAN_POINT('Vertex',(-6.,7.34763812293E-016,20.)) ;
#145=CARTESIAN_POINT('Line Origine',(-5.75,-7.95156132055E-016,20.25)) ;
#157=CARTESIAN_POINT('Axis2P3D Location',(-1.06581410364E-014,-1.43496325933E-013,26.)) ;
#162=CARTESIAN_POINT('Axis2P3D Location',(1.30950910267E-028,1.0547118734E-015,20.)) ;
#174=CARTESIAN_POINT('Axis2P3D Location',(0.,0.,10.25)) ;
#179=CARTESIAN_POINT('Line Origine',(6.,0.,10.25)) ;
#183=CARTESIAN_POINT('Vertex',(6.,0.,5.)) ;
#186=CARTESIAN_POINT('Axis2P3D Location',(0.,0.,5.)) ;
#190=CARTESIAN_POINT('Vertex',(-6.,7.34763812293E-016,5.)) ;
#193=CARTESIAN_POINT('Line Origine',(-6.,7.34763812293E-016,10.25)) ;
#205=CARTESIAN_POINT('Axis2P3D Location',(0.,0.,5.)) ;
#217=CARTESIAN_POINT('Axis2P3D Location',(0.,0.,5.)) ;
#222=CARTESIAN_POINT('Axis2P3D Location',(0.,0.,5.)) ;
#226=CARTESIAN_POINT('Vertex',(8.,0.,5.)) ;
#228=CARTESIAN_POINT('Vertex',(-8.,9.79685083058E-016,5.)) ;
#231=CARTESIAN_POINT('Axis2P3D Location',(0.,0.,5.)) ;
#245=CARTESIAN_POINT('Axis2P3D Location',(0.,0.,2.5)) ;
#250=CARTESIAN_POINT('Line Origine',(8.,0.,2.5)) ;
#254=CARTESIAN_POINT('Vertex',(8.,0.,0.)) ;
#257=CARTESIAN_POINT('Axis2P3D Location',(0.,0.,0.)) ;
#261=CARTESIAN_POINT('Vertex',(-8.,9.79685083058E-016,0.)) ;
#264=CARTESIAN_POINT('Line Origine',(-8.,9.79685083058E-016,2.5)) ;
#276=CARTESIAN_POINT('Axis2P3D Location',(0.,0.,0.)) ;
#288=CARTESIAN_POINT('Axis2P3D Location',(0.,0.,0.)) ;
#298=CARTESIAN_POINT('Axis2P3D Location',(0.,0.,20.4)) ;
#303=CARTESIAN_POINT('Line Origine',(-1.81396315543,0.990972588295,14.6550000001)) ;
#308=CARTESIAN_POINT('Axis2P3D Location',(0.,0.,8.5)) ;
#313=CARTESIAN_POINT('Line Origine',(1.81396315543,-0.990972588295,14.6550000001)) ;
#53=DIRECTION('Axis2P3D Direction',(0.,0.,1.)) ;
#54=DIRECTION('Axis2P3D XDirection',(0.87758256189,-0.479425538604,0.)) ;
#58=DIRECTION('Vector Direction',(-0.760008792515,0.415194695654,0.5)) ;
#67=DIRECTION('Axis2P3D Direction',(0.,0.,1.)) ;
#74=DIRECTION('Vector Direction',(0.760008792515,-0.415194695654,0.5)) ;
#85=DIRECTION('Axis2P3D Direction',(0.,0.,1.)) ;
#86=DIRECTION('Axis2P3D XDirection',(1.,0.,0.)) ;
#90=DIRECTION('Axis2P3D Direction',(0.,0.,1.)) ;
#99=DIRECTION('Axis2P3D Direction',(0.,0.,1.)) ;
#108=DIRECTION('Axis2P3D Direction',(0.,0.,1.)) ;
#117=DIRECTION('Axis2P3D Direction',(0.,0.,1.)) ;
#127=DIRECTION('Axis2P3D Direction',(7.1054273576E-015,8.881784197E-016,-1.)) ;
#128=DIRECTION('Axis2P3D XDirection',(1.,3.57289790924E-016,7.11228068621E-015)) ;
#132=DIRECTION('Vector Direction',(0.707106781187,8.37382644631E-016,-0.707106781187)) ;
#139=DIRECTION('Axis2P3D Direction',(3.17337081878E-031,-8.881784197E-016,1.)) ;
#146=DIRECTION('Vector Direction',(-0.707106781187,7.76006186906E-016,-0.707106781187)) ;
#158=DIRECTION('Axis2P3D Direction',(1.7763568394E-015,2.40918396344E-014,-1.)) ;
#159=DIRECTION('Axis2P3D XDirection',(-0.809016994375,0.587785252292,1.27757634549E-014)) ;
#163=DIRECTION('Axis2P3D Direction',(-1.20700667309E-014,-1.66130216273E-014,1.)) ;
#175=DIRECTION('Axis2P3D Direction',(0.,0.,1.)) ;
#176=DIRECTION('Axis2P3D XDirection',(1.,0.,0.)) ;
#180=DIRECTION('Vector Direction',(0.,0.,1.)) ;
#187=DIRECTION('Axis2P3D Direction',(0.,0.,1.)) ;
#194=DIRECTION('Vector Direction',(0.,0.,1.)) ;
#206=DIRECTION('Axis2P3D Direction',(0.,0.,1.)) ;
#218=DIRECTION('Axis2P3D Direction',(0.,0.,1.)) ;
#219=DIRECTION('Axis2P3D XDirection',(1.,0.,0.)) ;
#223=DIRECTION('Axis2P3D Direction',(0.,0.,1.)) ;
#232=DIRECTION('Axis2P3D Direction',(0.,0.,1.)) ;
#246=DIRECTION('Axis2P3D Direction',(0.,0.,1.)) ;
#247=DIRECTION('Axis2P3D XDirection',(1.,0.,0.)) ;
#251=DIRECTION('Vector Direction',(0.,0.,1.)) ;
#258=DIRECTION('Axis2P3D Direction',(0.,0.,1.)) ;
#265=DIRECTION('Vector Direction',(0.,0.,1.)) ;
#277=DIRECTION('Axis2P3D Direction',(0.,0.,1.)) ;
#289=DIRECTION('Axis2P3D Direction',(0.,0.,1.)) ;
#290=DIRECTION('Axis2P3D XDirection',(1.,0.,0.)) ;
#299=DIRECTION('Axis2P3D Direction',(0.,-0.,-1.)) ;
#300=DIRECTION('Axis2P3D XDirection',(0.87758256189,-0.479425538604,0.)) ;
#304=DIRECTION('Vector Direction',(0.,0.,-1.)) ;
#309=DIRECTION('Axis2P3D Direction',(0.,-0.,-1.)) ;
#314=DIRECTION('Vector Direction',(0.,0.,-1.)) ;
#48=AXIS2_PLACEMENT_3D(' ',#47,$,$) ;
#55=AXIS2_PLACEMENT_3D('Cone Axis2P3D',#52,#53,#54) ;
#68=AXIS2_PLACEMENT_3D('Circle Axis2P3D',#66,#67,$) ;
#87=AXIS2_PLACEMENT_3D('Plane Axis2P3D',#84,#85,#86) ;
#91=AXIS2_PLACEMENT_3D('Circle Axis2P3D',#89,#90,$) ;
#100=AXIS2_PLACEMENT_3D('Circle Axis2P3D',#98,#99,$) ;
#109=AXIS2_PLACEMENT_3D('Circle Axis2P3D',#107,#108,$) ;
#118=AXIS2_PLACEMENT_3D('Circle Axis2P3D',#116,#117,$) ;
#129=AXIS2_PLACEMENT_3D('Cone Axis2P3D',#126,#127,#128) ;
#140=AXIS2_PLACEMENT_3D('Circle Axis2P3D',#138,#139,$) ;
#160=AXIS2_PLACEMENT_3D('Cone Axis2P3D',#157,#158,#159) ;
#164=AXIS2_PLACEMENT_3D('Circle Axis2P3D',#162,#163,$) ;
#177=AXIS2_PLACEMENT_3D('Cylinder Axis2P3D',#174,#175,#176) ;
#188=AXIS2_PLACEMENT_3D('Circle Axis2P3D',#186,#187,$) ;
#207=AXIS2_PLACEMENT_3D('Circle Axis2P3D',#205,#206,$) ;
#220=AXIS2_PLACEMENT_3D('Plane Axis2P3D',#217,#218,#219) ;
#224=AXIS2_PLACEMENT_3D('Circle Axis2P3D',#222,#223,$) ;
#233=AXIS2_PLACEMENT_3D('Circle Axis2P3D',#231,#232,$) ;
#248=AXIS2_PLACEMENT_3D('Cylinder Axis2P3D',#245,#246,#247) ;
#259=AXIS2_PLACEMENT_3D('Circle Axis2P3D',#257,#258,$) ;
#278=AXIS2_PLACEMENT_3D('Circle Axis2P3D',#276,#277,$) ;
#291=AXIS2_PLACEMENT_3D('Plane Axis2P3D',#288,#289,#290) ;
#301=AXIS2_PLACEMENT_3D('Cylinder Axis2P3D',#298,#299,#300) ;
#310=AXIS2_PLACEMENT_3D('Circle Axis2P3D',#308,#309,$) ;
#40=PRODUCT_DEFINITION_SHAPE(' ',' ',#14) ;
#31=APPROVAL_PERSON_ORGANIZATION(#25,#21,#19) ;
#25=PERSON_AND_ORGANIZATION(#22,#23) ;
#22=PERSON(' ',' ',' ',$,$,$) ;
#23=ORGANIZATION(' ',' ',' ') ;
#21=APPROVAL(#20,' ') ;
#20=APPROVAL_STATUS('not_yet_approved') ;
#19=APPROVAL_ROLE('APPROVER') ;
#13=DATE_AND_TIME(#11,#12) ;
#12=LOCAL_TIME(12,44,39.,#10) ;
#10=COORDINATED_UNIVERSAL_TIME_OFFSET(0,0,.AHEAD.) ;
#79=ORIENTED_EDGE('',*,*,#65,.T.) ;
#80=ORIENTED_EDGE('',*,*,#72,.F.) ;
#81=ORIENTED_EDGE('',*,*,#77,.F.) ;
#104=ORIENTED_EDGE('',*,*,#97,.T.) ;
#105=ORIENTED_EDGE('',*,*,#102,.T.) ;
#122=ORIENTED_EDGE('',*,*,#115,.F.) ;
#123=ORIENTED_EDGE('',*,*,#120,.F.) ;
#151=ORIENTED_EDGE('',*,*,#137,.T.) ;
#152=ORIENTED_EDGE('',*,*,#144,.T.) ;
#153=ORIENTED_EDGE('',*,*,#149,.F.) ;
#154=ORIENTED_EDGE('',*,*,#97,.F.) ;
#168=ORIENTED_EDGE('',*,*,#149,.T.) ;
#169=ORIENTED_EDGE('',*,*,#166,.T.) ;
#170=ORIENTED_EDGE('',*,*,#137,.F.) ;
#171=ORIENTED_EDGE('',*,*,#102,.F.) ;
#199=ORIENTED_EDGE('',*,*,#185,.F.) ;
#200=ORIENTED_EDGE('',*,*,#192,.T.) ;
#201=ORIENTED_EDGE('',*,*,#197,.T.) ;
#202=ORIENTED_EDGE('',*,*,#144,.F.) ;
#211=ORIENTED_EDGE('',*,*,#197,.F.) ;
#212=ORIENTED_EDGE('',*,*,#209,.T.) ;
#213=ORIENTED_EDGE('',*,*,#185,.T.) ;
#214=ORIENTED_EDGE('',*,*,#166,.F.) ;
#237=ORIENTED_EDGE('',*,*,#230,.T.) ;
#238=ORIENTED_EDGE('',*,*,#235,.T.) ;
#241=ORIENTED_EDGE('',*,*,#192,.F.) ;
#242=ORIENTED_EDGE('',*,*,#209,.F.) ;
#270=ORIENTED_EDGE('',*,*,#256,.F.) ;
#271=ORIENTED_EDGE('',*,*,#263,.T.) ;
#272=ORIENTED_EDGE('',*,*,#268,.T.) ;
#273=ORIENTED_EDGE('',*,*,#230,.F.) ;
#282=ORIENTED_EDGE('',*,*,#268,.F.) ;
#283=ORIENTED_EDGE('',*,*,#280,.T.) ;
#284=ORIENTED_EDGE('',*,*,#256,.T.) ;
#285=ORIENTED_EDGE('',*,*,#235,.F.) ;
#294=ORIENTED_EDGE('',*,*,#280,.F.) ;
#295=ORIENTED_EDGE('',*,*,#263,.F.) ;
#319=ORIENTED_EDGE('',*,*,#120,.T.) ;
#320=ORIENTED_EDGE('',*,*,#307,.F.) ;
#321=ORIENTED_EDGE('',*,*,#312,.T.) ;
#322=ORIENTED_EDGE('',*,*,#317,.T.) ;
#326=ORIENTED_EDGE('',*,*,#115,.T.) ;
#327=ORIENTED_EDGE('',*,*,#317,.F.) ;
#328=ORIENTED_EDGE('',*,*,#72,.T.) ;
#329=ORIENTED_EDGE('',*,*,#307,.T.) ;
#333=ORIENTED_EDGE('',*,*,#77,.T.) ;
#334=ORIENTED_EDGE('',*,*,#312,.F.) ;
#335=ORIENTED_EDGE('',*,*,#65,.F.) ;
#124=FACE_BOUND('',#121,.T.) ;
#243=FACE_BOUND('',#240,.T.) ;
#51=CLOSED_SHELL('Closed Shell',(#83,#125,#156,#173,#204,#216,#244,#275,#287,#297,#324,#331,#337)) ;
#59=VECTOR('Line Direction',#58,1.) ;
#75=VECTOR('Line Direction',#74,1.) ;
#133=VECTOR('Line Direction',#132,1.) ;
#147=VECTOR('Line Direction',#146,1.) ;
#181=VECTOR('Line Direction',#180,1.) ;
#195=VECTOR('Line Direction',#194,1.) ;
#252=VECTOR('Line Direction',#251,1.) ;
#266=VECTOR('Line Direction',#265,1.) ;
#305=VECTOR('Line Direction',#304,1.) ;
#315=VECTOR('Line Direction',#314,1.) ;
#339=ADVANCED_BREP_SHAPE_REPRESENTATION('NONE',(#338),#46) ;
#49=SHAPE_REPRESENTATION(' ',(#48),#46) ;
#83=ADVANCED_FACE('PartBody',(#82),#56,.F.) ;
#125=ADVANCED_FACE('PartBody',(#106,#124),#88,.T.) ;
#156=ADVANCED_FACE('PartBody',(#155),#130,.T.) ;
#173=ADVANCED_FACE('PartBody',(#172),#161,.T.) ;
#204=ADVANCED_FACE('PartBody',(#203),#178,.T.) ;
#216=ADVANCED_FACE('PartBody',(#215),#178,.T.) ;
#244=ADVANCED_FACE('PartBody',(#239,#243),#221,.T.) ;
#275=ADVANCED_FACE('PartBody',(#274),#249,.T.) ;
#287=ADVANCED_FACE('PartBody',(#286),#249,.T.) ;
#297=ADVANCED_FACE('PartBody',(#296),#292,.F.) ;
#324=ADVANCED_FACE('PartBody',(#323),#302,.F.) ;
#331=ADVANCED_FACE('PartBody',(#330),#302,.F.) ;
#337=ADVANCED_FACE('PartBody',(#336),#56,.F.) ;
#4=APPLICATION_PROTOCOL_DEFINITION('international standard','config_control_design',1994,#1) ;
#32=APPROVAL_DATE_TIME(#13,#21) ;
#338=MANIFOLD_SOLID_BREP('PartBody',#51) ;
#11=CALENDAR_DATE(2019,6,12) ;
#30=CC_DESIGN_APPROVAL(#21,(#16,#6,#14)) ;
#18=CC_DESIGN_DATE_AND_TIME_ASSIGNMENT(#13,#17,(#16)) ;
#29=CC_DESIGN_DATE_AND_TIME_ASSIGNMENT(#13,#28,(#14)) ;
#17=DATE_TIME_ROLE('classification_date') ;
#28=DATE_TIME_ROLE('creation_date') ;
#27=CC_DESIGN_PERSON_AND_ORGANIZATION_ASSIGNMENT(#25,#26,(#16)) ;
#33=CC_DESIGN_PERSON_AND_ORGANIZATION_ASSIGNMENT(#25,#34,(#6)) ;
#35=CC_DESIGN_PERSON_AND_ORGANIZATION_ASSIGNMENT(#25,#36,(#6,#14)) ;
#37=CC_DESIGN_PERSON_AND_ORGANIZATION_ASSIGNMENT(#25,#38,(#5)) ;
#26=PERSON_AND_ORGANIZATION_ROLE('classification_officer') ;
#34=PERSON_AND_ORGANIZATION_ROLE('design_supplier') ;
#36=PERSON_AND_ORGANIZATION_ROLE('creator') ;
#38=PERSON_AND_ORGANIZATION_ROLE('design_owner') ;
#39=CC_DESIGN_SECURITY_CLASSIFICATION(#16,(#6)) ;
#69=CIRCLE('generated circle',#68,2.067) ;
#92=CIRCLE('generated circle',#91,5.5) ;
#101=CIRCLE('generated circle',#100,5.5) ;
#110=CIRCLE('generated circle',#109,2.067) ;
#119=CIRCLE('generated circle',#118,2.067) ;
#141=CIRCLE('generated circle',#140,6.) ;
#165=CIRCLE('generated circle',#164,6.) ;
#189=CIRCLE('generated circle',#188,6.) ;
#208=CIRCLE('generated circle',#207,6.) ;
#225=CIRCLE('generated circle',#224,8.) ;
#234=CIRCLE('generated circle',#233,8.) ;
#260=CIRCLE('generated circle',#259,8.) ;
#279=CIRCLE('generated circle',#278,8.) ;
#311=CIRCLE('generated circle',#310,2.067) ;
#56=CONICAL_SURFACE('Cone',#55,0.,1.0471975512) ;
#130=CONICAL_SURFACE('Cone',#129,0.,0.785398163397) ;
#161=CONICAL_SURFACE('Cone',#160,0.,0.785398163397) ;
#340=SHAPE_REPRESENTATION_RELATIONSHIP(' ',' ',#49,#339) ;
#178=CYLINDRICAL_SURFACE('generated cylinder',#177,6.) ;
#249=CYLINDRICAL_SURFACE('generated cylinder',#248,8.) ;
#302=CYLINDRICAL_SURFACE('generated cylinder',#301,2.067) ;
#3=DESIGN_CONTEXT(' ',#1,'design') ;
#65=EDGE_CURVE('',#62,#64,#60,.T.) ;
#72=EDGE_CURVE('',#71,#64,#69,.F.) ;
#77=EDGE_CURVE('',#62,#71,#76,.T.) ;
#97=EDGE_CURVE('',#94,#96,#92,.T.) ;
#102=EDGE_CURVE('',#96,#94,#101,.T.) ;
#115=EDGE_CURVE('',#112,#114,#110,.T.) ;
#120=EDGE_CURVE('',#114,#112,#119,.T.) ;
#137=EDGE_CURVE('',#94,#136,#134,.T.) ;
#144=EDGE_CURVE('',#136,#143,#141,.T.) ;
#149=EDGE_CURVE('',#96,#143,#148,.T.) ;
#166=EDGE_CURVE('',#143,#136,#165,.T.) ;
#185=EDGE_CURVE('',#184,#136,#182,.T.) ;
#192=EDGE_CURVE('',#184,#191,#189,.T.) ;
#197=EDGE_CURVE('',#191,#143,#196,.T.) ;
#209=EDGE_CURVE('',#191,#184,#208,.T.) ;
#230=EDGE_CURVE('',#227,#229,#225,.T.) ;
#235=EDGE_CURVE('',#229,#227,#234,.T.) ;
#256=EDGE_CURVE('',#255,#227,#253,.T.) ;
#263=EDGE_CURVE('',#255,#262,#260,.T.) ;
#268=EDGE_CURVE('',#262,#229,#267,.T.) ;
#280=EDGE_CURVE('',#262,#255,#279,.T.) ;
#307=EDGE_CURVE('',#64,#112,#306,.F.) ;
#312=EDGE_CURVE('',#64,#71,#311,.T.) ;
#317=EDGE_CURVE('',#71,#114,#316,.F.) ;
#78=EDGE_LOOP('',(#79,#80,#81)) ;
#103=EDGE_LOOP('',(#104,#105)) ;
#121=EDGE_LOOP('',(#122,#123)) ;
#150=EDGE_LOOP('',(#151,#152,#153,#154)) ;
#167=EDGE_LOOP('',(#168,#169,#170,#171)) ;
#198=EDGE_LOOP('',(#199,#200,#201,#202)) ;
#210=EDGE_LOOP('',(#211,#212,#213,#214)) ;
#236=EDGE_LOOP('',(#237,#238)) ;
#240=EDGE_LOOP('',(#241,#242)) ;
#269=EDGE_LOOP('',(#270,#271,#272,#273)) ;
#281=EDGE_LOOP('',(#282,#283,#284,#285)) ;
#293=EDGE_LOOP('',(#294,#295)) ;
#318=EDGE_LOOP('',(#319,#320,#321,#322)) ;
#325=EDGE_LOOP('',(#326,#327,#328,#329)) ;
#332=EDGE_LOOP('',(#333,#334,#335)) ;
#82=FACE_OUTER_BOUND('',#78,.T.) ;
#106=FACE_OUTER_BOUND('',#103,.T.) ;
#155=FACE_OUTER_BOUND('',#150,.T.) ;
#172=FACE_OUTER_BOUND('',#167,.T.) ;
#203=FACE_OUTER_BOUND('',#198,.T.) ;
#215=FACE_OUTER_BOUND('',#210,.T.) ;
#239=FACE_OUTER_BOUND('',#236,.T.) ;
#274=FACE_OUTER_BOUND('',#269,.T.) ;
#286=FACE_OUTER_BOUND('',#281,.T.) ;
#296=FACE_OUTER_BOUND('',#293,.T.) ;
#323=FACE_OUTER_BOUND('',#318,.T.) ;
#330=FACE_OUTER_BOUND('',#325,.T.) ;
#336=FACE_OUTER_BOUND('',#332,.T.) ;
#45=UNCERTAINTY_MEASURE_WITH_UNIT(LENGTH_MEASURE(0.005),#41,'distance_accuracy_value','CONFUSED CURVE UNCERTAINTY') ;
#60=LINE('Line',#57,#59) ;
#76=LINE('Line',#73,#75) ;
#134=LINE('Line',#131,#133) ;
#148=LINE('Line',#145,#147) ;
#182=LINE('Line',#179,#181) ;
#196=LINE('Line',#193,#195) ;
#253=LINE('Line',#250,#252) ;
#267=LINE('Line',#264,#266) ;
#306=LINE('Line',#303,#305) ;
#316=LINE('Line',#313,#315) ;
#2=MECHANICAL_CONTEXT(' ',#1,'mechanical') ;
#24=PERSONAL_ADDRESS(' ',' ',' ',' ',' ',' ',' ',' ',' ',' ',' ',' ',(#22),' ') ;
#88=PLANE('Plane',#87) ;
#221=PLANE('Plane',#220) ;
#292=PLANE('Plane',#291) ;
#43=PLANE_ANGLE_MEASURE_WITH_UNIT(PLANE_ANGLE_MEASURE(0.0174532925199),#42) ;
#7=PRODUCT_CATEGORY('part',$) ;
#9=PRODUCT_CATEGORY_RELATIONSHIP(' ',' ',#7,#8) ;
#6=PRODUCT_DEFINITION_FORMATION_WITH_SPECIFIED_SOURCE('',' ',#5,.NOT_KNOWN.) ;
#8=PRODUCT_RELATED_PRODUCT_CATEGORY('detail',$,(#5)) ;
#50=SHAPE_DEFINITION_REPRESENTATION(#40,#49) ;
#62=VERTEX_POINT('',#61) ;
#64=VERTEX_POINT('',#63) ;
#71=VERTEX_POINT('',#70) ;
#94=VERTEX_POINT('',#93) ;
#96=VERTEX_POINT('',#95) ;
#112=VERTEX_POINT('',#111) ;
#114=VERTEX_POINT('',#113) ;
#136=VERTEX_POINT('',#135) ;
#143=VERTEX_POINT('',#142) ;
#184=VERTEX_POINT('',#183) ;
#191=VERTEX_POINT('',#190) ;
#227=VERTEX_POINT('',#226) ;
#229=VERTEX_POINT('',#228) ;
#255=VERTEX_POINT('',#254) ;
#262=VERTEX_POINT('',#261) ;
#41=(LENGTH_UNIT()NAMED_UNIT(*)SI_UNIT(.MILLI.,.METRE.)) ;
#42=(NAMED_UNIT(*)PLANE_ANGLE_UNIT()SI_UNIT($,.RADIAN.)) ;
#44=(NAMED_UNIT(*)SI_UNIT($,.STERADIAN.)SOLID_ANGLE_UNIT()) ;
#46=(GEOMETRIC_REPRESENTATION_CONTEXT(3)GLOBAL_UNCERTAINTY_ASSIGNED_CONTEXT((#45))GLOBAL_UNIT_ASSIGNED_CONTEXT((#41,#42,#44))REPRESENTATION_CONTEXT(' ',' ')) ;
ENDSEC;
END-ISO-10303-21;
