  0
SECTION
  2
HEADER
  9
$ACADVER
  1
AC1015
  9
$ACADMAINTVER
 70
     6
  9
$DWGCODEPAGE
  3
ANSI_1252
  9
$INSBASE
 10
0.0
 20
0.0
 30
0.0
  9
$EXTMIN
 10
-234.733335538
 20
-222.3544986398
 30
0.0
  9
$EXTMAX
 10
234.733335538
 20
222.3544986398
 30
0.0
  9
$LIMMIN
 10
0.0
 20
0.0
  9
$LIMMAX
 10
420.0
 20
297.0
  9
$ORTHOMODE
 70
     0
  9
$REGENMODE
 70
     1
  9
$FILLMODE
 70
     1
  9
$QTEXTMODE
 70
     0
  9
$MIRRTEXT
 70
     1
  9
$LTSCALE
 40
1.0
  9
$ATTMODE
 70
     1
  9
$TEXTSIZE
 40
3.5
  9
$TRACEWID
 40
1.0
  9
$TEXTSTYLE
  7
Standard
  9
$CLAYER
  8
0
  9
$CELTYPE
  6
ByLayer
  9
$CECOLOR
 62
   256
  9
$CELTSCALE
 40
1.0
  9
$DISPSILH
 70
     0
  9
$DIMSCALE
 40
1.0
  9
$DIMASZ
 40
3.302
  9
$DIMEXO
 40
1.0
  9
$DIMDLI
 40
3.75
  9
$DIMRND
 40
0.0
  9
$DIMDLE
 40
0.0
  9
$DIMEXE
 40
1.0
  9
$DIMTP
 40
0.0
  9
$DIMTM
 40
0.0
  9
$DIMTXT
 40
3.5
  9
$DIMCEN
 40
2.5
  9
$DIMTSZ
 40
0.0
  9
$DIMTOL
 70
     0
  9
$DIMLIM
 70
     0
  9
$DIMTIH
 70
     1
  9
$DIMTOH
 70
     1
  9
$DIMSE1
 70
     0
  9
$DIMSE2
 70
     0
  9
$DIMTAD
 70
     1
  9
$DIMZIN
 70
     0
  9
$DIMBLK
  1

  9
$DIMASO
 70
     1
  9
$DIMSHO
 70
     1
  9
$DIMPOST
  1

  9
$DIMAPOST
  1

  9
$DIMALT
 70
     0
  9
$DIMALTD
 70
     3
  9
$DIMALTF
 40
0.0393700787
  9
$DIMLFAC
 40
1.0
  9
$DIMTOFL
 70
     1
  9
$DIMTVP
 40
0.0
  9
$DIMTIX
 70
     0
  9
$DIMSOXD
 70
     0
  9
$DIMSAH
 70
     0
  9
$DIMBLK1
  1

  9
$DIMBLK2
  1

  9
$DIMSTYLE
  2
ISO-25
  9
$DIMCLRD
 70
     0
  9
$DIMCLRE
 70
     0
  9
$DIMCLRT
 70
     0
  9
$DIMTFAC
 40
1.0
  9
$DIMGAP
 40
1.524
  9
$DIMJUST
 70
     0
  9
$DIMSD1
 70
     0
  9
$DIMSD2
 70
     0
  9
$DIMTOLJ
 70
     0
  9
$DIMTZIN
 70
     0
  9
$DIMALTZ
 70
     0
  9
$DIMALTTZ
 70
     0
  9
$DIMUPT
 70
     0
  9
$DIMDEC
 70
     2
  9
$DIMTDEC
 70
     2
  9
$DIMALTU
 70
     2
  9
$DIMALTTD
 70
     3
  9
$DIMTXSTY
  7
Standard
  9
$DIMAUNIT
 70
     0
  9
$DIMADEC
 70
     2
  9
$DIMALTRND
 40
0.0
  9
$DIMAZIN
 70
     0
  9
$DIMDSEP
 70
    44
  9
$DIMATFIT
 70
     3
  9
$DIMFRAC
 70
     0
  9
$DIMLDRBLK
  1

  9
$DIMLUNIT
 70
     2
  9
$DIMLWD
 70
    -2
  9
$DIMLWE
 70
    -2
  9
$DIMTMOVE
 70
     0
  9
$LUNITS
 70
     2
  9
$LUPREC
 70
     2
  9
$SKETCHINC
 40
1.0
  9
$FILLETRAD
 40
10.0
  9
$AUNITS
 70
     0
  9
$AUPREC
 70
     2
  9
$MENU
  1
.
  9
$ELEVATION
 40
0.0
  9
$PELEVATION
 40
0.0
  9
$THICKNESS
 40
0.0
  9
$LIMCHECK
 70
     0
  9
$CHAMFERA
 40
10.0
  9
$CHAMFERB
 40
10.0
  9
$CHAMFERC
 40
20.0
  9
$CHAMFERD
 40
0.0
  9
$SKPOLY
 70
     0
  9
$TDCREATE
 40
2458803.467735706
  9
$TDUCREATE
 40
2458803.426069039
  9
$TDUPDATE
 40
2458803.467874375
  9
$TDUUPDATE
 40
2458803.426207708
  9
$TDINDWG
 40
0.0000000116
  9
$TDUSRTIMER
 40
0.0000000116
  9
$USRTIMER
 70
     1
  9
$ANGBASE
 50
0.0
  9
$ANGDIR
 70
     0
  9
$PDMODE
 70
     0
  9
$PDSIZE
 40
-1.0
  9
$PLINEWID
 40
0.0
  9
$SPLFRAME
 70
     0
  9
$SPLINETYPE
 70
     6
  9
$SPLINESEGS
 70
     8
  9
$HANDSEED
  5
172
  9
$SURFTAB1
 70
     6
  9
$SURFTAB2
 70
     6
  9
$SURFTYPE
 70
     6
  9
$SURFU
 70
     6
  9
$SURFV
 70
     6
  9
$UCSBASE
  2

  9
$UCSNAME
  2

  9
$UCSORG
 10
0.0
 20
0.0
 30
0.0
  9
$UCSXDIR
 10
1.0
 20
0.0
 30
0.0
  9
$UCSYDIR
 10
0.0
 20
1.0
 30
0.0
  9
$UCSORTHOREF
  2

  9
$UCSORTHOVIEW
 70
     0
  9
$UCSORGTOP
 10
0.0
 20
0.0
 30
0.0
  9
$UCSORGBOTTOM
 10
0.0
 20
0.0
 30
0.0
  9
$UCSORGLEFT
 10
0.0
 20
0.0
 30
0.0
  9
$UCSORGRIGHT
 10
0.0
 20
0.0
 30
0.0
  9
$UCSORGFRONT
 10
0.0
 20
0.0
 30
0.0
  9
$UCSORGBACK
 10
0.0
 20
0.0
 30
0.0
  9
$PUCSBASE
  2

  9
$PUCSNAME
  2

  9
$PUCSORG
 10
0.0
 20
0.0
 30
0.0
  9
$PUCSXDIR
 10
1.0
 20
0.0
 30
0.0
  9
$PUCSYDIR
 10
0.0
 20
1.0
 30
0.0
  9
$PUCSORTHOREF
  2

  9
$PUCSORTHOVIEW
 70
     0
  9
$PUCSORGTOP
 10
0.0
 20
0.0
 30
0.0
  9
$PUCSORGBOTTOM
 10
0.0
 20
0.0
 30
0.0
  9
$PUCSORGLEFT
 10
0.0
 20
0.0
 30
0.0
  9
$PUCSORGRIGHT
 10
0.0
 20
0.0
 30
0.0
  9
$PUCSORGFRONT
 10
0.0
 20
0.0
 30
0.0
  9
$PUCSORGBACK
 10
0.0
 20
0.0
 30
0.0
  9
$USERI1
 70
     0
  9
$USERI2
 70
     0
  9
$USERI3
 70
     0
  9
$USERI4
 70
     0
  9
$USERI5
 70
     0
  9
$USERR1
 40
0.0
  9
$USERR2
 40
0.0
  9
$USERR3
 40
0.0
  9
$USERR4
 40
0.0
  9
$USERR5
 40
0.0
  9
$WORLDVIEW
 70
     1
  9
$SHADEDGE
 70
     3
  9
$SHADEDIF
 70
    70
  9
$TILEMODE
 70
     1
  9
$MAXACTVP
 70
    64
  9
$PINSBASE
 10
0.0
 20
0.0
 30
0.0
  9
$PLIMCHECK
 70
     0
  9
$PEXTMIN
 10
-234.7471719577
 20
-234.7471719577
 30
0.0
  9
$PEXTMAX
 10
234.7471719577
 20
234.7471719577
 30
0.0
  9
$PLIMMIN
 10
0.0
 20
0.0
  9
$PLIMMAX
 10
420.0
 20
297.0
  9
$UNITMODE
 70
     0
  9
$VISRETAIN
 70
     1
  9
$PLINEGEN
 70
     0
  9
$PSLTSCALE
 70
     1
  9
$TREEDEPTH
 70
  3020
  9
$CMLSTYLE
  2
Standard
  9
$CMLJUST
 70
     0
  9
$CMLSCALE
 40
20.0
  9
$PROXYGRAPHICS
 70
     1
  9
$MEASUREMENT
 70
     1
  9
$CELWEIGHT
370
    -1
  9
$ENDCAPS
280
     0
  9
$JOINSTYLE
280
     0
  9
$LWDISPLAY
290
     1
  9
$INSUNITS
 70
     4
  9
$HYPERLINKBASE
  1

  9
$STYLESHEET
  1

  9
$XEDIT
290
     1
  9
$CEPSNTYPE
380
     0
  9
$PSTYLEMODE
290
     1
  9
$FINGERPRINTGUID
  2
{CB27CE35-4FB5-4587-A347-A119697CC011}
  9
$VERSIONGUID
  2
{FAEB1C32-E019-11D5-929B-00C0DF256EC4}
  9
$EXTNAMES
290
     1
  9
$PSVPSCALE
 40
0.0
  9
$OLESTARTUP
290
     0
  0
ENDSEC
  0
SECTION
  2
CLASSES
  0
CLASS
  1
ACDBDICTIONARYWDFLT
  2
AcDbDictionaryWithDefault
  3
ObjectDBX Classes
 90
        0
280
     0
281
     0
  0
CLASS
  1
VISUALSTYLE
  2
AcDbVisualStyle
  3
ObjectDBX Classes
 90
     4095
280
     0
281
     0
  0
CLASS
  1
MATERIAL
  2
AcDbMaterial
  3
ObjectDBX Classes
 90
     1153
280
     0
281
     0
  0
CLASS
  1
ACDBPLACEHOLDER
  2
AcDbPlaceHolder
  3
ObjectDBX Classes
 90
        0
280
     0
281
     0
  0
CLASS
  1
LAYOUT
  2
AcDbLayout
  3
ObjectDBX Classes
 90
        0
280
     0
281
     0
  0
ENDSEC
  0
SECTION
  2
TABLES
  0
TABLE
  2
VPORT
  5
8
330
0
100
AcDbSymbolTable
 70
     1
  0
VPORT
  5
29
330
8
100
AcDbSymbolTableRecord
100
AcDbViewportTableRecord
  2
*Active
 70
     0
 10
0.0
 20
0.0
 11
1.0
 21
1.0
 12
0.0
 22
0.0
 13
0.0
 23
0.0
 14
10.0
 24
10.0
 15
10.0
 25
10.0
 16
0.0
 26
0.0
 36
1.0
 17
0.0
 27
0.0
 37
0.0
 40
453.6031772252
 41
1.0556716278
 42
50.0
 43
0.0
 44
0.0
 50
0.0
 51
0.0
 71
     0
 72
   100
 73
     1
 74
     3
 75
     0
 76
     0
 77
     0
 78
     0
281
     0
 65
     1
110
0.0
120
0.0
130
0.0
111
1.0
121
0.0
131
0.0
112
0.0
122
1.0
132
0.0
 79
     0
146
0.0
  0
ENDTAB
  0
TABLE
  2
LTYPE
  5
5
330
0
100
AcDbSymbolTable
 70
     6
  0
LTYPE
  5
14
330
5
100
AcDbSymbolTableRecord
100
AcDbLinetypeTableRecord
  2
ByBlock
 70
     0
  3

 72
    65
 73
     0
 40
0.0
  0
LTYPE
  5
15
330
5
100
AcDbSymbolTableRecord
100
AcDbLinetypeTableRecord
  2
ByLayer
 70
     0
  3

 72
    65
 73
     0
 40
0.0
  0
LTYPE
  5
16
330
5
100
AcDbSymbolTableRecord
100
AcDbLinetypeTableRecord
  2
Continuous
 70
     0
  3
Solid line
 72
    65
 73
     0
 40
0.0
  0
LTYPE
  5
3F
330
5
100
AcDbSymbolTableRecord
100
AcDbLinetypeTableRecord
  2
HIDDEN
 70
     0
  3
Hidden __ __ __ __ __ __ __ __ __ __ __ __ __ __
 72
    65
 73
     2
 40
1.905
 49
1.27
 74
     0
 49
-0.635
 74
     0
  0
LTYPE
  5
40
330
5
100
AcDbSymbolTableRecord
100
AcDbLinetypeTableRecord
  2
PHANTOM
 70
     0
  3
Phantom ______  __  __  ______  __  __  ______
 72
    65
 73
     6
 40
12.7
 49
6.35
 74
     0
 49
-1.27
 74
     0
 49
1.27
 74
     0
 49
-1.27
 74
     0
 49
1.27
 74
     0
 49
-1.27
 74
     0
  0
LTYPE
  5
41
330
5
100
AcDbSymbolTableRecord
100
AcDbLinetypeTableRecord
  2
CENTER
 70
     0
  3
Center ____ _ ____ _ ____ _ ____ _ ____ _ ____
 72
    65
 73
     4
 40
10.16
 49
6.35
 74
     0
 49
-1.27
 74
     0
 49
1.27
 74
     0
 49
-1.27
 74
     0
  0
LTYPE
  5
42
330
5
100
AcDbSymbolTableRecord
100
AcDbLinetypeTableRecord
  2
CENTERX2
 70
     0
  3
Center (2x) ________  __  ________  __  _____
 72
    65
 73
     4
 40
20.32
 49
12.7
 74
     0
 49
-2.54
 74
     0
 49
2.54
 74
     0
 49
-2.54
 74
     0
  0
LTYPE
  5
43
330
5
100
AcDbSymbolTableRecord
100
AcDbLinetypeTableRecord
  2
DOT2
 70
     0
  3
Dot (.5x) ........................................
 72
    65
 73
     2
 40
0.635
 49
0.0
 74
     0
 49
-0.635
 74
     0
  0
ENDTAB
  0
TABLE
  2
LAYER
  5
2
330
0
100
AcDbSymbolTable
 70
     1
  0
LAYER
  5
10
330
2
100
AcDbSymbolTableRecord
100
AcDbLayerTableRecord
  2
0
 70
     0
 62
     7
  6
Continuous
370
    -3
390
F
  0
ENDTAB
  0
TABLE
  2
STYLE
  5
3
330
0
100
AcDbSymbolTable
 70
     1
  0
STYLE
  5
11
330
3
100
AcDbSymbolTableRecord
100
AcDbTextStyleTableRecord
  2
Standard
 70
     0
 40
0.0
 41
1.0
 50
0.0
 71
     0
 42
3.5
  3
txt
  4

  0
ENDTAB
  0
TABLE
  2
VIEW
  5
6
330
0
100
AcDbSymbolTable
 70
     0
  0
ENDTAB
  0
TABLE
  2
UCS
  5
7
330
0
100
AcDbSymbolTable
 70
     0
  0
ENDTAB
  0
TABLE
  2
APPID
  5
9
330
0
100
AcDbSymbolTable
 70
     1
  0
APPID
  5
12
330
9
100
AcDbSymbolTableRecord
100
AcDbRegAppTableRecord
  2
ACAD
 70
     0
  0
ENDTAB
  0
TABLE
  2
DIMSTYLE
  5
A
330
0
100
AcDbSymbolTable
 70
     1
100
AcDbDimStyleTable
  0
DIMSTYLE
105
27
330
A
100
AcDbSymbolTableRecord
100
AcDbDimStyleTableRecord
  2
ISO-25
 70
     0
 41
2.5
 42
0.625
 43
3.75
 44
1.25
 73
     0
 74
     0
 77
     1
 78
     8
140
2.5
141
2.5
143
0.0393700787
147
0.625
171
     3
172
     1
178
     0
271
     2
272
     2
274
     3
278
    44
283
     0
284
     8
340
11
  0
ENDTAB
  0
TABLE
  2
BLOCK_RECORD
  5
1
330
0
100
AcDbSymbolTable
 70
     9
  0
BLOCK_RECORD
  5
1F
330
1
100
AcDbSymbolTableRecord
100
AcDbBlockTableRecord
  2
*Model_Space
340
22
  0
BLOCK_RECORD
  5
1B
330
1
100
AcDbSymbolTableRecord
100
AcDbBlockTableRecord
  2
*Paper_Space
340
1E
  0
BLOCK_RECORD
  5
23
330
1
100
AcDbSymbolTableRecord
100
AcDbBlockTableRecord
  2
*Paper_Space0
340
26
  0
BLOCK_RECORD
  5
7F
330
1
100
AcDbSymbolTableRecord
100
AcDbBlockTableRecord
  2
*Paper_Space1
340
80
  0
BLOCK_RECORD
  5
97
330
1
100
AcDbSymbolTableRecord
100
AcDbBlockTableRecord
  2
*Paper_Space2
340
98
  0
BLOCK_RECORD
  5
B3
330
1
100
AcDbSymbolTableRecord
100
AcDbBlockTableRecord
  2
*Paper_Space3
340
B4
  0
BLOCK_RECORD
  5
CB
330
1
100
AcDbSymbolTableRecord
100
AcDbBlockTableRecord
  2
*Paper_Space4
340
CC
  0
BLOCK_RECORD
  5
E3
330
1
100
AcDbSymbolTableRecord
100
AcDbBlockTableRecord
  2
*Paper_Space5
340
E4
  0
BLOCK_RECORD
  5
F1
330
1
100
AcDbSymbolTableRecord
100
AcDbBlockTableRecord
  2
*Paper_Space6
340
F2
  0
BLOCK_RECORD
  5
119
330
1
100
AcDbSymbolTableRecord
100
AcDbBlockTableRecord
  2
*Paper_Space7
340
11A
  0
BLOCK_RECORD
  5
141
330
1
100
AcDbSymbolTableRecord
100
AcDbBlockTableRecord
  2
*Paper_Space8
340
142
  0
ENDTAB
  0
ENDSEC
  0
SECTION
  2
BLOCKS
  0
BLOCK
  5
20
330
1F
100
AcDbEntity
  8
0
100
AcDbBlockBegin
  2
*Model_Space
 70
     0
 10
0.0
 20
0.0
 30
0.0
  3
*Model_Space
  1

  0
ENDBLK
  5
21
330
1F
100
AcDbEntity
  8
0
100
AcDbBlockEnd
  0
BLOCK
  5
1C
330
1B
100
AcDbEntity
 67
     1
  8
0
100
AcDbBlockBegin
  2
*Paper_Space
 70
     0
 10
0.0
 20
0.0
 30
0.0
  3
*Paper_Space
  1

  0
ENDBLK
  5
1D
330
1B
100
AcDbEntity
 67
     1
  8
0
100
AcDbBlockEnd
  0
BLOCK
  5
24
330
23
100
AcDbEntity
  8
0
100
AcDbBlockBegin
  2
*Paper_Space0
 70
     0
 10
0.0
 20
0.0
 30
0.0
  3
*Paper_Space0
  1

  0
LINE
  5
75
330
23
100
AcDbEntity
  8
0
  6
Continuous
 62
     7
370
    15
100
AcDbLine
 10
75.0
 20
1.0
 30
0.0
 11
75.0
 21
19.0
 31
0.0
  0
LINE
  5
76
330
23
100
AcDbEntity
  8
0
  6
Continuous
 62
     7
370
    15
100
AcDbLine
 10
-75.0
 20
19.0
 30
0.0
 11
-75.0
 21
1.0
 31
0.0
  0
LINE
  5
77
330
23
100
AcDbEntity
  8
0
  6
Continuous
 62
     7
370
    15
100
AcDbLine
 10
-75.0
 20
1.0
 30
0.0
 11
-74.0
 21
0.0
 31
0.0
  0
LINE
  5
78
330
23
100
AcDbEntity
  8
0
  6
Continuous
 62
     7
370
    15
100
AcDbLine
 10
74.0
 20
0.0
 30
0.0
 11
75.0
 21
1.0
 31
0.0
  0
LINE
  5
79
330
23
100
AcDbEntity
  8
0
  6
Continuous
 62
     7
370
    15
100
AcDbLine
 10
-55.0
 20
20.0
 30
0.0
 11
-55.0
 21
19.0
 31
0.0
  0
LINE
  5
7A
330
23
100
AcDbEntity
  8
0
  6
Continuous
 62
     7
370
    15
100
AcDbLine
 10
55.0
 20
19.0
 30
0.0
 11
55.0
 21
20.0
 31
0.0
  0
LINE
  5
7B
330
23
100
AcDbEntity
  8
0
  6
Continuous
 62
     7
370
    15
100
AcDbLine
 10
-75.0
 20
19.0
 30
0.0
 11
75.0
 21
19.0
 31
0.0
  0
LINE
  5
7C
330
23
100
AcDbEntity
  8
0
  6
Continuous
 62
     7
370
    15
100
AcDbLine
 10
-75.0
 20
1.0
 30
0.0
 11
75.0
 21
1.0
 31
0.0
  0
LINE
  5
7D
330
23
100
AcDbEntity
  8
0
  6
Continuous
 62
     7
370
    15
100
AcDbLine
 10
74.0
 20
0.0
 30
0.0
 11
-74.0
 21
0.0
 31
0.0
  0
LINE
  5
7E
330
23
100
AcDbEntity
  8
0
  6
Continuous
 62
     7
370
    15
100
AcDbLine
 10
-55.0
 20
20.0
 30
0.0
 11
55.0
 21
20.0
 31
0.0
  0
VIEWPORT
  5
169
330
23
100
AcDbEntity
  8
0
100
AcDbViewport
 10
0.0
 20
0.0
 30
0.0
 40
243.84
 41
204.216
 68
     1
 69
     1
 12
0.0
 22
0.0
 13
0.0
 23
0.0
 14
10.0
 24
10.0
 15
10.0
 25
10.0
 16
0.0
 26
0.0
 36
1.0
 17
0.0
 27
0.0
 37
0.0
 42
50.0
 43
0.0
 44
0.0
 45
453.6031772252
 50
0.0
 51
0.0
 72
   100
 90
   557152
  1

281
     0
 71
     1
 74
     0
110
0.0
120
0.0
130
0.0
111
1.0
121
0.0
131
0.0
112
0.0
122
1.0
132
0.0
 79
     0
146
0.0
  0
ENDBLK
  5
25
330
23
100
AcDbEntity
  8
0
100
AcDbBlockEnd
  0
BLOCK
  5
81
330
7F
100
AcDbEntity
  8
0
100
AcDbBlockBegin
  2
*Paper_Space1
 70
     0
 10
0.0
 20
0.0
 30
0.0
  3
*Paper_Space1
  1

  0
LINE
  5
8D
330
7F
100
AcDbEntity
  8
0
  6
Continuous
 62
     7
370
    15
100
AcDbLine
 10
75.0
 20
1.0
 30
0.0
 11
75.0
 21
19.0
 31
0.0
  0
LINE
  5
8E
330
7F
100
AcDbEntity
  8
0
  6
Continuous
 62
     7
370
    15
100
AcDbLine
 10
-75.0
 20
19.0
 30
0.0
 11
-75.0
 21
1.0
 31
0.0
  0
LINE
  5
8F
330
7F
100
AcDbEntity
  8
0
  6
Continuous
 62
     7
370
    15
100
AcDbLine
 10
-75.0
 20
1.0
 30
0.0
 11
-74.0
 21
0.0
 31
0.0
  0
LINE
  5
90
330
7F
100
AcDbEntity
  8
0
  6
Continuous
 62
     7
370
    15
100
AcDbLine
 10
74.0
 20
0.0
 30
0.0
 11
75.0
 21
1.0
 31
0.0
  0
LINE
  5
91
330
7F
100
AcDbEntity
  8
0
  6
Continuous
 62
     7
370
    15
100
AcDbLine
 10
-55.0
 20
20.0
 30
0.0
 11
-55.0
 21
19.0
 31
0.0
  0
LINE
  5
92
330
7F
100
AcDbEntity
  8
0
  6
Continuous
 62
     7
370
    15
100
AcDbLine
 10
55.0
 20
19.0
 30
0.0
 11
55.0
 21
20.0
 31
0.0
  0
LINE
  5
93
330
7F
100
AcDbEntity
  8
0
  6
Continuous
 62
     7
370
    15
100
AcDbLine
 10
-75.0
 20
19.0
 30
0.0
 11
75.0
 21
19.0
 31
0.0
  0
LINE
  5
94
330
7F
100
AcDbEntity
  8
0
  6
Continuous
 62
     7
370
    15
100
AcDbLine
 10
-75.0
 20
1.0
 30
0.0
 11
75.0
 21
1.0
 31
0.0
  0
LINE
  5
95
330
7F
100
AcDbEntity
  8
0
  6
Continuous
 62
     7
370
    15
100
AcDbLine
 10
74.0
 20
0.0
 30
0.0
 11
-74.0
 21
0.0
 31
0.0
  0
LINE
  5
96
330
7F
100
AcDbEntity
  8
0
  6
Continuous
 62
     7
370
    15
100
AcDbLine
 10
-55.0
 20
20.0
 30
0.0
 11
55.0
 21
20.0
 31
0.0
  0
VIEWPORT
  5
16A
330
7F
100
AcDbEntity
  8
0
100
AcDbViewport
 10
0.0
 20
0.0
 30
0.0
 40
243.84
 41
204.216
 68
     1
 69
     1
 12
0.0
 22
0.0
 13
0.0
 23
0.0
 14
10.0
 24
10.0
 15
10.0
 25
10.0
 16
0.0
 26
0.0
 36
1.0
 17
0.0
 27
0.0
 37
0.0
 42
50.0
 43
0.0
 44
0.0
 45
453.6031772252
 50
0.0
 51
0.0
 72
   100
 90
   557152
  1

281
     0
 71
     1
 74
     0
110
0.0
120
0.0
130
0.0
111
1.0
121
0.0
131
0.0
112
0.0
122
1.0
132
0.0
 79
     0
146
0.0
  0
ENDBLK
  5
82
330
7F
100
AcDbEntity
  8
0
100
AcDbBlockEnd
  0
BLOCK
  5
99
330
97
100
AcDbEntity
  8
0
100
AcDbBlockBegin
  2
*Paper_Space2
 70
     0
 10
0.0
 20
0.0
 30
0.0
  3
*Paper_Space2
  1

  0
LINE
  5
A9
330
97
100
AcDbEntity
  8
0
  6
Continuous
 62
     7
370
    15
100
AcDbLine
 10
75.0
 20
1.0
 30
0.0
 11
75.0
 21
19.0
 31
0.0
  0
LINE
  5
AA
330
97
100
AcDbEntity
  8
0
  6
Continuous
 62
     7
370
    15
100
AcDbLine
 10
-75.0
 20
19.0
 30
0.0
 11
-75.0
 21
1.0
 31
0.0
  0
LINE
  5
AB
330
97
100
AcDbEntity
  8
0
  6
Continuous
 62
     7
370
    15
100
AcDbLine
 10
-75.0
 20
1.0
 30
0.0
 11
-74.0
 21
0.0
 31
0.0
  0
LINE
  5
AC
330
97
100
AcDbEntity
  8
0
  6
Continuous
 62
     7
370
    15
100
AcDbLine
 10
74.0
 20
0.0
 30
0.0
 11
75.0
 21
1.0
 31
0.0
  0
LINE
  5
AD
330
97
100
AcDbEntity
  8
0
  6
Continuous
 62
     7
370
    15
100
AcDbLine
 10
-55.0
 20
20.0
 30
0.0
 11
-55.0
 21
19.0
 31
0.0
  0
LINE
  5
AE
330
97
100
AcDbEntity
  8
0
  6
Continuous
 62
     7
370
    15
100
AcDbLine
 10
55.0
 20
19.0
 30
0.0
 11
55.0
 21
20.0
 31
0.0
  0
LINE
  5
AF
330
97
100
AcDbEntity
  8
0
  6
Continuous
 62
     7
370
    15
100
AcDbLine
 10
-75.0
 20
19.0
 30
0.0
 11
75.0
 21
19.0
 31
0.0
  0
LINE
  5
B0
330
97
100
AcDbEntity
  8
0
  6
Continuous
 62
     7
370
    15
100
AcDbLine
 10
-75.0
 20
1.0
 30
0.0
 11
75.0
 21
1.0
 31
0.0
  0
LINE
  5
B1
330
97
100
AcDbEntity
  8
0
  6
Continuous
 62
     7
370
    15
100
AcDbLine
 10
74.0
 20
0.0
 30
0.0
 11
-74.0
 21
0.0
 31
0.0
  0
LINE
  5
B2
330
97
100
AcDbEntity
  8
0
  6
Continuous
 62
     7
370
    15
100
AcDbLine
 10
-55.0
 20
20.0
 30
0.0
 11
55.0
 21
20.0
 31
0.0
  0
VIEWPORT
  5
16B
330
97
100
AcDbEntity
  8
0
100
AcDbViewport
 10
0.0
 20
0.0
 30
0.0
 40
243.84
 41
204.216
 68
     1
 69
     1
 12
0.0
 22
0.0
 13
0.0
 23
0.0
 14
10.0
 24
10.0
 15
10.0
 25
10.0
 16
0.0
 26
0.0
 36
1.0
 17
0.0
 27
0.0
 37
0.0
 42
50.0
 43
0.0
 44
0.0
 45
453.6031772252
 50
0.0
 51
0.0
 72
   100
 90
   557152
  1

281
     0
 71
     1
 74
     0
110
0.0
120
0.0
130
0.0
111
1.0
121
0.0
131
0.0
112
0.0
122
1.0
132
0.0
 79
     0
146
0.0
  0
ENDBLK
  5
9A
330
97
100
AcDbEntity
  8
0
100
AcDbBlockEnd
  0
BLOCK
  5
B5
330
B3
100
AcDbEntity
  8
0
100
AcDbBlockBegin
  2
*Paper_Space3
 70
     0
 10
0.0
 20
0.0
 30
0.0
  3
*Paper_Space3
  1

  0
LINE
  5
C1
330
B3
100
AcDbEntity
  8
0
  6
Continuous
 62
     7
370
    15
100
AcDbLine
 10
75.0
 20
1.0
 30
0.0
 11
75.0
 21
19.0
 31
0.0
  0
LINE
  5
C2
330
B3
100
AcDbEntity
  8
0
  6
Continuous
 62
     7
370
    15
100
AcDbLine
 10
-75.0
 20
19.0
 30
0.0
 11
-75.0
 21
1.0
 31
0.0
  0
LINE
  5
C3
330
B3
100
AcDbEntity
  8
0
  6
Continuous
 62
     7
370
    15
100
AcDbLine
 10
-75.0
 20
1.0
 30
0.0
 11
-74.0
 21
0.0
 31
0.0
  0
LINE
  5
C4
330
B3
100
AcDbEntity
  8
0
  6
Continuous
 62
     7
370
    15
100
AcDbLine
 10
74.0
 20
0.0
 30
0.0
 11
75.0
 21
1.0
 31
0.0
  0
LINE
  5
C5
330
B3
100
AcDbEntity
  8
0
  6
Continuous
 62
     7
370
    15
100
AcDbLine
 10
-55.0
 20
20.0
 30
0.0
 11
-55.0
 21
19.0
 31
0.0
  0
LINE
  5
C6
330
B3
100
AcDbEntity
  8
0
  6
Continuous
 62
     7
370
    15
100
AcDbLine
 10
55.0
 20
19.0
 30
0.0
 11
55.0
 21
20.0
 31
0.0
  0
LINE
  5
C7
330
B3
100
AcDbEntity
  8
0
  6
Continuous
 62
     7
370
    15
100
AcDbLine
 10
-75.0
 20
19.0
 30
0.0
 11
75.0
 21
19.0
 31
0.0
  0
LINE
  5
C8
330
B3
100
AcDbEntity
  8
0
  6
Continuous
 62
     7
370
    15
100
AcDbLine
 10
-75.0
 20
1.0
 30
0.0
 11
75.0
 21
1.0
 31
0.0
  0
LINE
  5
C9
330
B3
100
AcDbEntity
  8
0
  6
Continuous
 62
     7
370
    15
100
AcDbLine
 10
74.0
 20
0.0
 30
0.0
 11
-74.0
 21
0.0
 31
0.0
  0
LINE
  5
CA
330
B3
100
AcDbEntity
  8
0
  6
Continuous
 62
     7
370
    15
100
AcDbLine
 10
-55.0
 20
20.0
 30
0.0
 11
55.0
 21
20.0
 31
0.0
  0
VIEWPORT
  5
16C
330
B3
100
AcDbEntity
  8
0
100
AcDbViewport
 10
0.0
 20
0.0
 30
0.0
 40
243.84
 41
204.216
 68
     1
 69
     1
 12
0.0
 22
0.0
 13
0.0
 23
0.0
 14
10.0
 24
10.0
 15
10.0
 25
10.0
 16
0.0
 26
0.0
 36
1.0
 17
0.0
 27
0.0
 37
0.0
 42
50.0
 43
0.0
 44
0.0
 45
453.6031772252
 50
0.0
 51
0.0
 72
   100
 90
   557152
  1

281
     0
 71
     1
 74
     0
110
0.0
120
0.0
130
0.0
111
1.0
121
0.0
131
0.0
112
0.0
122
1.0
132
0.0
 79
     0
146
0.0
  0
ENDBLK
  5
B6
330
B3
100
AcDbEntity
  8
0
100
AcDbBlockEnd
  0
BLOCK
  5
CD
330
CB
100
AcDbEntity
  8
0
100
AcDbBlockBegin
  2
*Paper_Space4
 70
     0
 10
0.0
 20
0.0
 30
0.0
  3
*Paper_Space4
  1

  0
LINE
  5
D9
330
CB
100
AcDbEntity
  8
0
  6
Continuous
 62
     7
370
    15
100
AcDbLine
 10
75.0
 20
1.0
 30
0.0
 11
75.0
 21
19.0
 31
0.0
  0
LINE
  5
DA
330
CB
100
AcDbEntity
  8
0
  6
Continuous
 62
     7
370
    15
100
AcDbLine
 10
-75.0
 20
19.0
 30
0.0
 11
-75.0
 21
1.0
 31
0.0
  0
LINE
  5
DB
330
CB
100
AcDbEntity
  8
0
  6
Continuous
 62
     7
370
    15
100
AcDbLine
 10
-75.0
 20
1.0
 30
0.0
 11
-74.0
 21
0.0
 31
0.0
  0
LINE
  5
DC
330
CB
100
AcDbEntity
  8
0
  6
Continuous
 62
     7
370
    15
100
AcDbLine
 10
74.0
 20
0.0
 30
0.0
 11
75.0
 21
1.0
 31
0.0
  0
LINE
  5
DD
330
CB
100
AcDbEntity
  8
0
  6
Continuous
 62
     7
370
    15
100
AcDbLine
 10
-55.0
 20
20.0
 30
0.0
 11
-55.0
 21
19.0
 31
0.0
  0
LINE
  5
DE
330
CB
100
AcDbEntity
  8
0
  6
Continuous
 62
     7
370
    15
100
AcDbLine
 10
55.0
 20
19.0
 30
0.0
 11
55.0
 21
20.0
 31
0.0
  0
LINE
  5
DF
330
CB
100
AcDbEntity
  8
0
  6
Continuous
 62
     7
370
    15
100
AcDbLine
 10
-75.0
 20
19.0
 30
0.0
 11
75.0
 21
19.0
 31
0.0
  0
LINE
  5
E0
330
CB
100
AcDbEntity
  8
0
  6
Continuous
 62
     7
370
    15
100
AcDbLine
 10
-75.0
 20
1.0
 30
0.0
 11
75.0
 21
1.0
 31
0.0
  0
LINE
  5
E1
330
CB
100
AcDbEntity
  8
0
  6
Continuous
 62
     7
370
    15
100
AcDbLine
 10
74.0
 20
0.0
 30
0.0
 11
-74.0
 21
0.0
 31
0.0
  0
LINE
  5
E2
330
CB
100
AcDbEntity
  8
0
  6
Continuous
 62
     7
370
    15
100
AcDbLine
 10
-55.0
 20
20.0
 30
0.0
 11
55.0
 21
20.0
 31
0.0
  0
VIEWPORT
  5
16D
330
CB
100
AcDbEntity
  8
0
100
AcDbViewport
 10
0.0
 20
0.0
 30
0.0
 40
243.84
 41
204.216
 68
     1
 69
     1
 12
0.0
 22
0.0
 13
0.0
 23
0.0
 14
10.0
 24
10.0
 15
10.0
 25
10.0
 16
0.0
 26
0.0
 36
1.0
 17
0.0
 27
0.0
 37
0.0
 42
50.0
 43
0.0
 44
0.0
 45
453.6031772252
 50
0.0
 51
0.0
 72
   100
 90
   557152
  1

281
     0
 71
     1
 74
     0
110
0.0
120
0.0
130
0.0
111
1.0
121
0.0
131
0.0
112
0.0
122
1.0
132
0.0
 79
     0
146
0.0
  0
ENDBLK
  5
CE
330
CB
100
AcDbEntity
  8
0
100
AcDbBlockEnd
  0
BLOCK
  5
E5
330
E3
100
AcDbEntity
  8
0
100
AcDbBlockBegin
  2
*Paper_Space5
 70
     0
 10
0.0
 20
0.0
 30
0.0
  3
*Paper_Space5
  1

  0
CIRCLE
  5
E7
330
E3
100
AcDbEntity
  8
0
  6
Continuous
 62
     7
100
AcDbCircle
 10
0.0
 20
60.0
 30
0.0
 40
2.5
  0
CIRCLE
  5
E8
330
E3
100
AcDbEntity
  8
0
  6
Continuous
 62
     7
100
AcDbCircle
 10
0.0
 20
0.0
 30
0.0
 40
234.7471719577011
  0
CIRCLE
  5
E9
330
E3
100
AcDbEntity
  8
0
  6
Continuous
 62
     7
370
    15
100
AcDbCircle
 10
0.0
 20
0.0
 30
0.0
 40
4.500000000000001
  0
CIRCLE
  5
EA
330
E3
100
AcDbEntity
  8
0
  6
Continuous
 62
     7
370
    15
100
AcDbCircle
 10
0.0
 20
0.0
 30
0.0
 40
6.720000000000002
  0
CIRCLE
  5
EB
330
E3
100
AcDbEntity
  8
0
  6
Continuous
 62
     7
370
    15
100
AcDbCircle
 10
0.0
 20
0.0
 30
0.0
 40
74.99999999999999
  0
CIRCLE
  5
EC
330
E3
100
AcDbEntity
  8
0
  6
Continuous
 62
     7
370
    15
100
AcDbCircle
 10
0.0
 20
0.0
 30
0.0
 40
74.00000000000007
  0
CIRCLE
  5
ED
330
E3
100
AcDbEntity
  8
0
  6
Continuous
 62
     7
370
    15
100
AcDbCircle
 10
0.0
 20
60.0
 30
0.0
 40
2.75
  0
CIRCLE
  5
EE
330
E3
100
AcDbEntity
  8
0
  6
Continuous
 62
     7
370
    15
100
AcDbCircle
 10
-60.0
 20
0.0
 30
0.0
 40
2.750000000000021
  0
CIRCLE
  5
EF
330
E3
100
AcDbEntity
  8
0
  6
Continuous
 62
     7
370
    15
100
AcDbCircle
 10
0.0
 20
-60.0
 30
0.0
 40
2.75
  0
CIRCLE
  5
F0
330
E3
100
AcDbEntity
  8
0
  6
Continuous
 62
     7
370
    15
100
AcDbCircle
 10
60.0
 20
0.0
 30
0.0
 40
2.75
  0
VIEWPORT
  5
16E
330
E3
100
AcDbEntity
  8
0
100
AcDbViewport
 10
0.0
 20
0.0
 30
0.0
 40
243.84
 41
204.216
 68
     1
 69
     1
 12
0.0
 22
0.0
 13
0.0
 23
0.0
 14
10.0
 24
10.0
 15
10.0
 25
10.0
 16
0.0
 26
0.0
 36
1.0
 17
0.0
 27
0.0
 37
0.0
 42
50.0
 43
0.0
 44
0.0
 45
453.6031772252
 50
0.0
 51
0.0
 72
   100
 90
   557152
  1

281
     0
 71
     1
 74
     0
110
0.0
120
0.0
130
0.0
111
1.0
121
0.0
131
0.0
112
0.0
122
1.0
132
0.0
 79
     0
146
0.0
  0
ENDBLK
  5
E6
330
E3
100
AcDbEntity
  8
0
100
AcDbBlockEnd
  0
BLOCK
  5
F3
330
F1
100
AcDbEntity
  8
0
100
AcDbBlockBegin
  2
*Paper_Space6
 70
     0
 10
0.0
 20
0.0
 30
0.0
  3
*Paper_Space6
  1

  0
LWPOLYLINE
  5
F5
330
F1
100
AcDbEntity
  8
0
  6
Continuous
 62
     7
100
AcDbPolyline
 90
       17
 70
   128
 43
0.0
 10
-41.2527279642
 20
-25.7665303441
 10
-42.1867924899
 20
-25.9288183396
 10
-43.157336133
 20
-25.8724008162
 10
-44.0166024219
 20
-25.6058668305
 10
-44.6337758533
 20
-25.1697937656
 10
-44.9148973671
 20
-24.6305697926
 10
-44.8171687611
 20
-24.0702868734
 10
-44.3554683297
 20
-23.5742430035
 10
-43.6000857782
 20
-23.2179563652
 10
-42.6660212525
 20
-23.0556683697
 10
-41.6954776094
 20
-23.1120858931
 10
-40.8362113205
 20
-23.3786198788
 10
-40.219037889
 20
-23.8146929438
 10
-39.9379163753
 20
-24.3539169167
 10
-40.0356449813
 20
-24.9141998359
 10
-40.4973454127
 20
-25.4102437059
 10
-41.2527279642
 20
-25.7665303441
  0
LWPOLYLINE
  5
F6
330
F1
100
AcDbEntity
  8
0
  6
Continuous
 62
     7
100
AcDbPolyline
 90
       69
 70
   128
 43
0.0
 10
110.2071216785
 20
-119.6541068127
 10
90.6125853702
 20
-125.013908819
 10
70.2449744326
 20
-129.307136234
 10
49.2780581408
 20
-132.497160755
 10
27.8907188319
 20
-134.5567662177
 10
6.2654257439
 20
-135.4683807943
 10
-15.4133217475
 20
-135.2242269109
 10
-36.9605682122
 20
-133.8263876021
 10
-58.1924801409
 20
-131.2867887402
 10
-78.9279143471
 20
-127.6270972872
 10
-98.9899634173
 20
-122.8785364401
 10
-118.2074650225
 20
-117.0816192459
 10
-136.416462215
 20
-110.2858029581
 10
-153.4616022508
 20
-102.5490670852
 10
-169.1974620054
 20
-93.9374187296
 10
-183.4897886714
 20
-84.5243294389
 10
-196.2166451572
 20
-74.3901083718
 10
-207.2694504105
 20
-63.6212171293
 10
-216.5539057941
 20
-52.3095320945
 10
-223.9907996082
 20
-40.5515605757
 10
-229.5166828969
 20
-28.4476174401
 10
-233.0844107725
 20
-16.1009692629
 10
-234.6635446387
 20
-3.6169532929
 10
-234.240611882
 20
8.8979212472
 10
-231.8192208156
 20
21.3368818606
 10
-227.4200298944
 20
33.5938037211
 10
-221.0805714642
 20
45.5641150931
 10
-212.8549315491
 20
57.1456895006
 10
-202.8132884085
 20
68.2397170343
 10
-191.0413138012
 20
78.7515473629
 10
-177.6394420638
 20
88.5914972564
 10
-162.7220132406
 20
97.6756157318
 10
-146.4162975746
 20
105.9264002932
 10
-128.8614096827
 20
113.2734581559
 10
-110.2071216785
 20
119.6541068127
 10
-90.6125853702
 20
125.013908819
 10
-70.2449744326
 20
129.307136234
 10
-49.2780581408
 20
132.497160755
 10
-27.8907188319
 20
134.5567662177
 10
-6.2654257439
 20
135.4683807943
 10
15.4133217475
 20
135.2242269109
 10
36.9605682122
 20
133.8263876021
 10
58.1924801409
 20
131.2867887402
 10
78.9279143471
 20
127.6270972872
 10
98.9899634173
 20
122.8785364401
 10
118.2074650225
 20
117.0816192459
 10
136.416462215
 20
110.2858029581
 10
153.4616022508
 20
102.5490670852
 10
169.1974620054
 20
93.9374187296
 10
183.4897886714
 20
84.5243294389
 10
196.2166451572
 20
74.3901083718
 10
207.2694504105
 20
63.6212171293
 10
216.5539057941
 20
52.3095320945
 10
223.9907996082
 20
40.5515605757
 10
229.5166828969
 20
28.4476174401
 10
233.0844107725
 20
16.1009692629
 10
234.6635446387
 20
3.6169532929
 10
234.240611882
 20
-8.8979212472
 10
231.8192208156
 20
-21.3368818606
 10
227.4200298944
 20
-33.5938037211
 10
221.0805714642
 20
-45.5641150931
 10
212.8549315491
 20
-57.1456895006
 10
202.8132884085
 20
-68.2397170343
 10
191.0413138012
 20
-78.7515473629
 10
177.6394420638
 20
-88.5914972564
 10
162.7220132406
 20
-97.6756157318
 10
146.4162975746
 20
-105.9264002932
 10
128.8614096827
 20
-113.2734581559
 10
110.2071216785
 20
-119.6541068127
  0
LWPOLYLINE
  5
FF
330
F1
100
AcDbEntity
  8
0
  6
Continuous
 62
     7
370
    15
100
AcDbPolyline
 90
      143
 70
   128
 43
0.0
 10
-53.033008589
 20
-15.1010287675
 10
-50.6352738298
 20
-16.4252806852
 10
-48.1384181443
 20
-17.6870094219
 10
-45.5473292446
 20
-18.8837450843
 10
-42.8670793091
 20
-20.0131450063
 10
-40.1029150528
 20
-21.0729983344
 10
-37.260247457
 20
-22.061230356
 10
-34.3446411771
 20
-22.9759065605
 10
-31.3618036492
 20
-23.8152364263
 10
-28.317573918
 20
-24.5775769256
 10
-25.217911206
 20
-25.2614357413
 10
-22.0688832486
 20
-25.8654741875
 10
-18.8766544159
 20
-26.3885098307
 10
-15.6474736457
 20
-26.829518804
 10
-12.3876622111
 20
-27.1876378116
 10
-9.1036013459
 20
-27.4621658188
 10
-5.8017197536
 20
-27.652565424
 10
-2.4884810224
 20
-27.7584639112
 10
0.8296290272
 20
-27.779653979
 10
4.146115039
 20
-27.7160941469
 10
7.454484836
 20
-27.5679088363
 10
10.7482621288
 20
-27.3353881269
 10
14.0209991938
 20
-27.0189871888
 10
17.2662894944
 20
-26.6193253918
 10
20.4777802225
 20
-26.1371850926
 10
23.6491847342
 20
-25.5735101035
 10
26.7742948562
 20
-24.9294038447
 10
29.8469930387
 20
-24.2061271845
 10
32.8612643307
 20
-23.405095971
 10
35.8112081546
 20
-22.5278782602
 10
38.6910498569
 20
-21.5761912472
 10
41.4951520121
 20
-20.5518979039
 10
44.2180254586
 20
-19.4570033326
 10
46.8543400439
 20
-18.2936508409
 10
49.3989350582
 20
-17.0641177459
 10
51.8468293373
 20
-15.7708109164
 10
54.1932310133
 20
-14.4162620612
 10
56.4335468947
 20
-13.0031227734
 10
58.5633914579
 20
-11.5341593394
 10
60.5785954322
 20
-10.0122473241
 10
62.4752139612
 20
-8.4403659419
 10
64.249534325
 20
-6.8215922242
 10
65.8980832081
 20
-5.1590949968
 10
67.4176334989
 20
-3.4561286759
 10
68.8052106061
 20
-1.7160268981
 10
70.0580982825
 20
0.0578040056
 10
71.1738439415
 20
1.8618916779
 10
72.1502634587
 20
3.6927045326
 10
72.985445447
 20
5.5466586674
 10
73.6777549984
 20
7.4201248801
 10
74.2258368845
 20
9.3094357726
 10
74.6286182093
 20
11.2108929301
 10
74.8853105094
 20
13.1207741609
 10
74.9954112975
 20
15.0353407828
 10
74.9587050462
 20
16.9508449418
 10
74.7752636097
 20
18.8635369485
 10
74.4454460833
 20
20.7696726185
 10
73.9698981001
 20
22.6655206017
 10
73.3495505679
 20
24.5473696867
 10
72.5856178458
 20
26.4115360654
 10
71.6795953683
 20
28.2543705447
 10
70.6332567167
 20
30.0722656895
 10
69.4486501481
 20
31.8616628848
 10
68.1280945856
 20
33.6190593014
 10
66.6741750786
 20
35.3410147533
 10
65.0897377429
 20
37.024158432
 10
63.377884189
 20
38.6651955046
 10
61.5419654505
 20
40.260913564
 10
59.5855754246
 20
41.8081889171
 10
57.5125438367
 20
43.3039926998
 10
55.3269287434
 20
44.7453968059
 10
53.033008589
 20
46.1295796192
 10
50.6352738298
 20
47.4538315368
 10
48.1384181443
 20
48.7155602735
 10
45.5473292446
 20
49.912295936
 10
42.8670793091
 20
51.041695858
 10
40.1029150528
 20
52.1015491861
 10
37.260247457
 20
53.0897812077
 10
34.3446411771
 20
54.0044574122
 10
31.3618036492
 20
54.8437872779
 10
28.317573918
 20
55.6061277773
 10
25.217911206
 20
56.289986593
 10
22.0688832486
 20
56.8940250392
 10
18.8766544159
 20
57.4170606824
 10
15.6474736457
 20
57.8580696557
 10
12.387662211
 20
58.2161886633
 10
9.1036013459
 20
58.4907166704
 10
5.8017197536
 20
58.6811162757
 10
2.4884810224
 20
58.7870147628
 10
-0.8296290272
 20
58.8082048307
 10
-4.146115039
 20
58.7446449986
 10
-7.454484836
 20
58.596459688
 10
-10.7482621288
 20
58.3639389785
 10
-14.0209991938
 20
58.0475380405
 10
-17.2662894944
 20
57.6478762435
 10
-20.4777802225
 20
57.1657359443
 10
-23.6491847342
 20
56.6020609551
 10
-26.7742948562
 20
55.9579546964
 10
-29.8469930387
 20
55.2346780362
 10
-32.8612643307
 20
54.4336468226
 10
-35.8112081546
 20
53.5564291119
 10
-38.6910498569
 20
52.6047420988
 10
-41.4951520121
 20
51.5804487555
 10
-44.2180254586
 20
50.4855541842
 10
-46.8543400439
 20
49.3222016925
 10
-49.3989350582
 20
48.0926685976
 10
-51.8468293373
 20
46.799361768
 10
-54.1932310133
 20
45.4448129129
 10
-56.4335468947
 20
44.031673625
 10
-58.5633914579
 20
42.562710191
 10
-60.5785954322
 20
41.0407981758
 10
-62.4752139612
 20
39.4689167935
 10
-64.249534325
 20
37.8501430759
 10
-65.8980832081
 20
36.1876458484
 10
-67.4176334989
 20
34.4846795275
 10
-68.8052106061
 20
32.7445777498
 10
-70.0580982825
 20
30.9707468461
 10
-71.1738439415
 20
29.1666591737
 10
-72.1502634587
 20
27.3358463191
 10
-72.985445447
 20
25.4818921843
 10
-73.6777549984
 20
23.6084259716
 10
-74.2258368845
 20
21.7191150791
 10
-74.6286182093
 20
19.8176579216
 10
-74.8853105094
 20
17.9077766908
 10
-74.9954112975
 20
15.9932100688
 10
-74.9587050462
 20
14.0777059098
 10
-74.7752636097
 20
12.1650139031
 10
-74.4454460833
 20
10.2588782331
 10
-73.9698981001
 20
8.3630302499
 10
-73.3495505679
 20
6.481181165
 10
-72.5856178458
 20
4.6170147863
 10
-71.6795953683
 20
2.774180307
 10
-70.6332567167
 20
0.9562851621
 10
-69.4486501481
 20
-0.8331120331
 10
-68.1280945856
 20
-2.5905084497
 10
-66.6741750786
 20
-4.3124639017
 10
-65.0897377429
 20
-5.9956075804
 10
-63.377884189
 20
-7.6366446529
 10
-61.5419654505
 20
-9.2323627123
 10
-59.5855754246
 20
-10.7796380654
 10
-57.5125438367
 20
-12.2754418481
 10
-55.3269287434
 20
-13.7168459542
 10
-53.033008589
 20
-15.1010287675
  0
LWPOLYLINE
  5
100
330
F1
100
AcDbEntity
  8
0
  6
Continuous
 62
     7
370
    15
100
AcDbPolyline
 90
       55
 70
   128
 43
0.0
 10
-53.033008589
 20
-29.7987633815
 10
-50.6352738298
 20
-31.1230152991
 10
-48.1384181443
 20
-32.3847440358
 10
-45.5473292446
 20
-33.5814796983
 10
-42.8670793091
 20
-34.7108796203
 10
-40.1029150528
 20
-35.7707329484
 10
-37.260247457
 20
-36.75896497
 10
-34.3446411771
 20
-37.6736411745
 10
-31.3618036492
 20
-38.5129710402
 10
-28.317573918
 20
-39.2753115396
 10
-25.217911206
 20
-39.9591703552
 10
-22.0688832486
 20
-40.5632088015
 10
-18.8766544159
 20
-41.0862444447
 10
-15.6474736457
 20
-41.5272534179
 10
-12.3876622111
 20
-41.8853724255
 10
-9.1036013459
 20
-42.1599004327
 10
-5.8017197536
 20
-42.350300038
 10
-2.4884810224
 20
-42.4561985251
 10
0.8296290272
 20
-42.4773885929
 10
4.146115039
 20
-42.4138287609
 10
7.454484836
 20
-42.2656434503
 10
10.7482621288
 20
-42.0331227408
 10
14.0209991938
 20
-41.7167218028
 10
17.2662894944
 20
-41.3170600058
 10
20.4777802225
 20
-40.8349197066
 10
23.6491847342
 20
-40.2712447174
 10
26.7742948562
 20
-39.6271384587
 10
29.8469930387
 20
-38.9038617985
 10
32.8612643307
 20
-38.1028305849
 10
35.8112081546
 20
-37.2256128742
 10
38.6910498569
 20
-36.2739258611
 10
41.4951520121
 20
-35.2496325178
 10
44.2180254586
 20
-34.1547379465
 10
46.8543400439
 20
-32.9913854548
 10
49.3989350582
 20
-31.7618523598
 10
51.8468293373
 20
-30.4685455303
 10
54.1932310133
 20
-29.1139966752
 10
56.4335468947
 20
-27.7008573873
 10
58.5633914579
 20
-26.2318939533
 10
60.5785954322
 20
-24.7099819381
 10
62.4752139612
 20
-23.1381005558
 10
64.249534325
 20
-21.5193268382
 10
65.8980832081
 20
-19.8568296107
 10
67.4176334989
 20
-18.1538632898
 10
68.8052106061
 20
-16.413761512
 10
70.0580982825
 20
-14.6399306083
 10
71.1738439415
 20
-12.835842936
 10
72.1502634587
 20
-11.0050300814
 10
72.985445447
 20
-9.1510759465
 10
73.6777549984
 20
-7.2776097338
 10
74.2258368845
 20
-5.3882988413
 10
74.6286182093
 20
-3.4868416839
 10
74.8853105094
 20
-1.576960453
 10
74.9954112975
 20
0.3376061689
 10
75.0
 20
0.8165408119
  0
LWPOLYLINE
  5
101
330
F1
100
AcDbEntity
  8
0
  6
Continuous
 62
     7
370
    15
100
AcDbPolyline
 90
       19
 70
   128
 43
0.0
 10
-75.0
 20
0.8165408119
 10
-74.9587050462
 20
-0.6200287041
 10
-74.7752636097
 20
-2.5327207108
 10
-74.4454460833
 20
-4.4388563808
 10
-73.9698981001
 20
-6.334704364
 10
-73.3495505679
 20
-8.216553449
 10
-72.5856178458
 20
-10.0807198277
 10
-71.6795953683
 20
-11.923554307
 10
-70.6332567167
 20
-13.7414494518
 10
-69.4486501481
 20
-15.530846647
 10
-68.1280945856
 20
-17.2882430637
 10
-66.6741750786
 20
-19.0101985156
 10
-65.0897377429
 20
-20.6933421943
 10
-63.377884189
 20
-22.3343792669
 10
-61.5419654505
 20
-23.9300973263
 10
-59.5855754246
 20
-25.4773726794
 10
-57.5125438367
 20
-26.973176462
 10
-55.3269287434
 20
-28.4145805682
 10
-53.033008589
 20
-29.7987633815
  0
LWPOLYLINE
  5
102
330
F1
100
AcDbEntity
  8
0
  6
Continuous
 62
     7
370
    15
100
AcDbPolyline
 90
      141
 70
   128
 43
0.0
 10
-51.6187950266
 20
-14.2846206557
 10
-49.250949853
 20
-15.5915375675
 10
-46.7839198209
 20
-16.8358115116
 10
-44.2226732004
 20
-18.0149366859
 10
-41.5723680013
 20
-19.1265384891
 10
-38.8383415856
 20
-20.1683783032
 10
-36.0260999187
 20
-21.1383580014
 10
-33.141306481
 20
-22.0345241737
 10
-30.1897708626
 20
-22.8550720607
 10
-27.1774370633
 20
-23.5983491882
 10
-24.1103715227
 20
-24.2628586949
 10
-20.9947509025
 20
-24.8472623472
 10
-17.8368496481
 20
-25.3503832337
 10
-14.6430273522
 20
-25.7712081362
 10
-11.4197159479
 20
-26.1088895691
 10
-8.1734067555
 20
-26.362747487
 10
-4.9106374097
 20
-26.5322706539
 10
-1.6379786936
 20
-26.6171176726
 10
1.6379786936
 20
-26.6171176726
 10
4.9106374097
 20
-26.5322706539
 10
8.1734067555
 20
-26.362747487
 10
11.4197159479
 20
-26.1088895691
 10
14.6430273522
 20
-25.7712081362
 10
17.8368496481
 20
-25.3503832337
 10
20.9947509025
 20
-24.8472623472
 10
24.1103715227
 20
-24.2628586949
 10
27.1774370633
 20
-23.5983491882
 10
30.1897708626
 20
-22.8550720607
 10
33.141306481
 20
-22.0345241737
 10
36.0260999187
 20
-21.1383580014
 10
38.8383415856
 20
-20.1683783032
 10
41.5723680013
 20
-19.1265384891
 10
44.2226732004
 20
-18.0149366859
 10
46.7839198209
 20
-16.8358115116
 10
49.250949853
 20
-15.5915375675
 10
51.6187950266
 20
-14.2846206557
 10
53.8826868166
 20
-12.9176927329
 10
56.0380660461
 20
-11.49350661
 10
58.0805920684
 20
-10.0149304083
 10
60.0061515077
 20
-8.4849417836
 10
61.8108665437
 20
-6.9066219293
 10
63.4911027204
 20
-5.2831493716
 10
65.0434762658
 20
-3.6177935681
 10
66.4648609061
 20
-1.9139083238
 10
67.7523941619
 20
-0.1749250368
 10
68.9034831125
 20
1.5956542119
 10
69.915809618
 20
3.3942637115
 10
70.7873349875
 20
5.2172813017
 10
71.5163040849
 20
7.0610356677
 10
72.1012488634
 20
8.9218137336
 10
72.5409913222
 20
10.79586814
 10
72.8346458784
 20
12.6794247907
 10
72.9816211508
 20
14.5686904534
 10
72.9816211508
 20
16.4598603983
 10
72.8346458784
 20
18.3491260609
 10
72.5409913222
 20
20.2326827117
 10
72.1012488634
 20
22.1067371181
 10
71.5163040849
 20
23.967515184
 10
70.7873349875
 20
25.81126955
 10
69.915809618
 20
27.6342871402
 10
68.9034831125
 20
29.4328966397
 10
67.7523941619
 20
31.2034758885
 10
66.4648609061
 20
32.9424591755
 10
65.0434762658
 20
34.6463444198
 10
63.4911027204
 20
36.3117002233
 10
61.8108665437
 20
37.935172781
 10
60.0061515077
 20
39.5134926353
 10
58.0805920684
 20
41.04348126
 10
56.0380660461
 20
42.5220574616
 10
53.8826868166
 20
43.9462435845
 10
51.6187950266
 20
45.3131715074
 10
49.250949853
 20
46.6200884192
 10
46.7839198209
 20
47.8643623633
 10
44.2226732004
 20
49.0434875376
 10
41.5723680013
 20
50.1550893408
 10
38.8383415856
 20
51.1969291548
 10
36.0260999187
 20
52.1669088531
 10
33.141306481
 20
53.0630750254
 10
30.1897708626
 20
53.8836229124
 10
27.1774370633
 20
54.6269000399
 10
24.1103715227
 20
55.2914095466
 10
20.9947509025
 20
55.8758131988
 10
17.8368496481
 20
56.3789340854
 10
14.6430273522
 20
56.7997589878
 10
11.4197159479
 20
57.1374404207
 10
8.1734067555
 20
57.3912983386
 10
4.9106374097
 20
57.5608215055
 10
1.6379786936
 20
57.6456685243
 10
-1.6379786936
 20
57.6456685243
 10
-4.9106374097
 20
57.5608215055
 10
-8.1734067555
 20
57.3912983386
 10
-11.4197159479
 20
57.1374404207
 10
-14.6430273522
 20
56.7997589878
 10
-17.8368496481
 20
56.3789340854
 10
-20.9947509025
 20
55.8758131988
 10
-24.1103715227
 20
55.2914095466
 10
-27.1774370633
 20
54.6269000399
 10
-30.1897708626
 20
53.8836229124
 10
-33.141306481
 20
53.0630750254
 10
-36.0260999187
 20
52.1669088531
 10
-38.8383415856
 20
51.1969291548
 10
-41.5723680013
 20
50.1550893408
 10
-44.2226732004
 20
49.0434875376
 10
-46.7839198209
 20
47.8643623633
 10
-49.250949853
 20
46.6200884192
 10
-51.6187950266
 20
45.3131715074
 10
-53.8826868166
 20
43.9462435845
 10
-56.0380660461
 20
42.5220574616
 10
-58.0805920684
 20
41.04348126
 10
-60.0061515077
 20
39.5134926353
 10
-61.8108665437
 20
37.935172781
 10
-63.4911027204
 20
36.3117002233
 10
-65.0434762658
 20
34.6463444198
 10
-66.4648609061
 20
32.9424591755
 10
-67.7523941619
 20
31.2034758885
 10
-68.9034831125
 20
29.4328966397
 10
-69.915809618
 20
27.6342871402
 10
-70.7873349875
 20
25.81126955
 10
-71.5163040849
 20
23.967515184
 10
-72.1012488634
 20
22.1067371181
 10
-72.5409913222
 20
20.2326827117
 10
-72.8346458784
 20
18.3491260609
 10
-72.9816211508
 20
16.4598603983
 10
-72.9816211508
 20
14.5686904534
 10
-72.8346458784
 20
12.6794247907
 10
-72.5409913222
 20
10.79586814
 10
-72.1012488634
 20
8.9218137336
 10
-71.5163040849
 20
7.0610356677
 10
-70.7873349875
 20
5.2172813017
 10
-69.915809618
 20
3.3942637115
 10
-68.9034831125
 20
1.5956542119
 10
-67.7523941619
 20
-0.1749250368
 10
-66.4648609061
 20
-1.9139083238
 10
-65.0434762657
 20
-3.6177935681
 10
-63.4911027204
 20
-5.2831493716
 10
-61.8108665437
 20
-6.9066219293
 10
-60.0061515077
 20
-8.4849417836
 10
-58.0805920684
 20
-10.0149304083
 10
-56.0380660461
 20
-11.49350661
 10
-53.8826868166
 20
-12.9176927329
 10
-51.6187950266
 20
-14.2846206557
  0
LWPOLYLINE
  5
103
330
F1
100
AcDbEntity
  8
0
  6
Continuous
 62
     7
370
    15
100
AcDbPolyline
 90
       26
 70
   128
 43
0.0
 10
72.9451670718
 20
13.8811938021
 10
72.8346458784
 20
15.0829628134
 10
72.5409913222
 20
16.9665194641
 10
72.1012488634
 20
18.8405738705
 10
71.5163040849
 20
20.7013519364
 10
70.7873349875
 20
22.5451063024
 10
69.915809618
 20
24.3681238926
 10
68.9034831125
 20
26.1667333922
 10
67.7523941619
 20
27.9373126409
 10
66.4648609061
 20
29.6762959279
 10
65.0434762658
 20
31.3801811722
 10
63.4911027204
 20
33.0455369757
 10
61.8108665437
 20
34.6690095334
 10
60.0061515077
 20
36.2473293877
 10
58.0805920684
 20
37.7773180124
 10
56.0380660461
 20
39.2558942141
 10
53.8826868166
 20
40.680080337
 10
51.6187950266
 20
42.0470082598
 10
49.250949853
 20
43.3539251716
 10
46.7839198209
 20
44.5981991158
 10
44.2226732004
 20
45.77732429
 10
41.5723680013
 20
46.8889260932
 10
38.8383415856
 20
47.9307659073
 10
36.0260999187
 20
48.9007456055
 10
33.141306481
 20
49.7969117778
 10
32.9659153895
 20
49.848330083
  0
LWPOLYLINE
  5
104
330
F1
100
AcDbEntity
  8
0
  6
Continuous
 62
     7
370
    15
100
AcDbPolyline
 90
       26
 70
   128
 43
0.0
 10
-32.9659153895
 20
49.848330083
 10
-33.141306481
 20
49.7969117778
 10
-36.0260999187
 20
48.9007456055
 10
-38.8383415856
 20
47.9307659073
 10
-41.5723680013
 20
46.8889260932
 10
-44.2226732004
 20
45.77732429
 10
-46.7839198209
 20
44.5981991158
 10
-49.250949853
 20
43.3539251716
 10
-51.6187950266
 20
42.0470082598
 10
-53.8826868166
 20
40.680080337
 10
-56.0380660461
 20
39.2558942141
 10
-58.0805920684
 20
37.7773180124
 10
-60.0061515077
 20
36.2473293877
 10
-61.8108665437
 20
34.6690095334
 10
-63.4911027204
 20
33.0455369757
 10
-65.0434762658
 20
31.3801811722
 10
-66.4648609061
 20
29.6762959279
 10
-67.7523941619
 20
27.9373126409
 10
-68.9034831125
 20
26.1667333922
 10
-69.915809618
 20
24.3681238926
 10
-70.7873349875
 20
22.5451063024
 10
-71.5163040849
 20
20.7013519364
 10
-72.1012488634
 20
18.8405738705
 10
-72.5409913222
 20
16.9665194641
 10
-72.8346458784
 20
15.0829628134
 10
-72.9451670718
 20
13.8811938021
  0
LWPOLYLINE
  5
106
330
F1
100
AcDbEntity
  8
0
  6
Continuous
 62
     7
370
    15
100
AcDbPolyline
 90
       25
 70
   128
 43
0.0
 10
32.9659153895
 20
-22.0859424788
 10
33.6568199992
 20
-21.8618176904
 10
36.3693928387
 20
-20.920909036
 10
39.0031976719
 20
-19.9081636676
 10
41.552530264
 20
-18.8257749661
 10
44.0118693284
 20
-17.6760871446
 10
46.3758884843
 20
-16.4615901708
 10
48.6394677925
 20
-15.1849143746
 10
50.7977048444
 20
-13.8488247517
 10
52.8459253791
 20
-12.4562149745
 10
54.779693407
 20
-11.0101011259
 10
56.5948208171
 20
-9.5136151662
 10
58.2873764477
 20
-7.969998151
 10
59.8536946002
 20
-6.382593211
 10
61.2903829783
 20
-4.7548383116
 10
62.5943300348
 20
-3.0902588077
 10
63.7627117107
 20
-1.3924598078
 10
64.7929975516
 20
0.3348816337
 10
65.6829561877
 20
2.0880244797
 10
66.4306601667
 20
3.8631718132
 10
67.0344901285
 20
5.6564790604
 10
67.4931383116
 20
7.4640623172
 10
67.8056113864
 20
9.2820067607
 10
67.9712326056
 20
11.106375128
 10
68.0
 20
12.2481121783
  0
LWPOLYLINE
  5
107
330
F1
100
AcDbEntity
  8
0
  6
Continuous
 62
     7
370
    15
100
AcDbPolyline
 90
       18
 70
   128
 43
0.0
 10
-68.0
 20
12.2481121783
 10
-67.9436197237
 20
10.6498967158
 10
-67.7412394702
 20
8.8267643041
 10
-67.3921467765
 20
7.0110417701
 10
-66.8970976995
 20
5.2066615644
 10
-66.2571644054
 20
3.4175315727
 10
-65.4737328471
 20
1.6475266523
 10
-64.548499763
 20
-0.0995197604
 10
-63.4834690018
 20
-1.8198239518
 10
-62.2809471831
 20
-3.5096601262
 10
-60.9435387013
 20
-5.1653684747
 10
-59.4741400855
 20
-6.7833631016
 10
-57.8759337257
 20
-8.360139791
 10
-56.1523809811
 20
-9.8922835956
 10
-54.3072146832
 20
-11.3764762331
 10
-52.3444310513
 20
-12.8095032727
 10
-50.2682810375
 20
-14.1882610971
 10
-48.0832611207
 20
-15.5097636237
  0
LWPOLYLINE
  5
108
330
F1
100
AcDbEntity
  8
0
  6
Continuous
 62
     7
370
    15
100
AcDbPolyline
 90
      136
 70
   128
 43
0.0
 10
-48.0832611207
 20
-12.2436003761
 10
-45.7941035673
 20
-13.5049855248
 10
-43.4057661829
 20
-14.7035214162
 10
-40.9234215743
 20
-15.8366122884
 10
-38.3524459474
 20
-16.9018041189
 10
-35.6984074628
 20
-17.8967899395
 10
-32.9670541768
 20
-18.8194148324
 10
-30.1643015924
 20
-19.6676805975
 10
-27.2962198477
 20
-20.43975008
 10
-24.3690205691
 20
-21.1339511495
 10
-21.3890434183
 20
-21.7487803209
 10
-18.3627423623
 20
-22.2829060112
 10
-15.2966716954
 20
-22.735171423
 10
-12.1974718437
 20
-23.1045970503
 10
-9.0718549842
 20
-23.3903827993
 10
-5.9265905068
 20
-23.5919097218
 10
-2.7684903542
 20
-23.7087413553
 10
0.3956057321
 20
-23.7406246685
 10
3.5588450245
 20
-23.6874906093
 10
6.7143766511
 20
-23.5494542541
 10
9.8553664329
 20
-23.3268145591
 10
12.9750116856
 20
-23.0200537122
 10
16.0665559522
 20
-22.6298360891
 10
19.1233036363
 20
-22.1570068143
 10
22.1386345031
 20
-21.6025899306
 10
25.1060180173
 20
-20.9677861817
 10
28.0190274869
 20
-20.2539704111
 10
30.8713539823
 20
-19.4626885847
 10
33.6568199992
 20
-18.5956544429
 10
36.3693928387
 20
-17.6547457884
 10
39.0031976719
 20
-16.64200042
 10
41.552530264
 20
-15.5596117186
 10
44.0118693284
 20
-14.4099238971
 10
46.3758884843
 20
-13.1954269232
 10
48.6394677925
 20
-11.9187511271
 10
50.7977048444
 20
-10.5826615041
 10
52.8459253791
 20
-9.190051727
 10
54.779693407
 20
-7.7439378783
 10
56.5948208171
 20
-6.2474519187
 10
58.2873764477
 20
-4.7038349035
 10
59.8536946002
 20
-3.1164299634
 10
61.2903829783
 20
-1.4886750641
 10
62.5943300348
 20
0.1759044398
 10
63.7627117107
 20
1.8737034398
 10
64.7929975516
 20
3.6010448812
 10
65.6829561877
 20
5.3541877272
 10
66.4306601667
 20
7.1293350608
 10
67.0344901285
 20
8.922642308
 10
67.4931383116
 20
10.7302255647
 10
67.8056113864
 20
12.5481700082
 10
67.9712326056
 20
14.3725383755
 10
67.9896432706
 20
16.199379491
 10
67.8608035081
 20
18.0247368237
 10
67.5849923562
 20
19.844657056
 10
67.1628071605
 20
21.655198646
 10
66.5951622801
 20
23.4524403637
 10
65.8832871074
 20
25.2324897838
 10
65.0287234055
 20
26.9914917157
 10
64.0333219691
 20
28.7256365528
 10
62.8992386161
 20
30.4311685235
 10
61.6289295185
 20
32.1043938254
 10
60.2251458829
 20
33.7416886251
 10
58.690927992
 20
35.3395069067
 10
57.0295986203
 20
36.8943881515
 10
55.2447558371
 20
38.402964833
 10
53.3402652145
 20
39.86196971
 10
51.3202514551
 20
41.2682429029
 10
49.189089459
 20
42.618738737
 10
46.9513948483
 20
43.9105323392
 10
44.6120139714
 20
45.140825972
 10
42.1760134062
 20
46.3069550936
 10
39.6486689877
 20
47.4063941278
 10
37.035454381
 20
48.4367619345
 10
34.3420292271
 20
49.3958269665
 10
31.574226885
 20
50.2815121026
 10
28.7380417984
 20
51.0918991458
 10
25.8396165125
 20
51.8252329785
 10
22.8852283711
 20
52.4799253626
 10
19.8812759211
 20
53.0545583804
 10
16.8342650546
 20
53.5478875047
 10
13.7507949186
 20
53.9588442944
 10
10.6375436227
 20
54.2865387087
 10
7.5012537761
 20
54.5302610345
 10
4.3487178842
 20
54.6894834233
 10
1.1867636377
 20
54.763861035
 10
-1.9777608745
 20
54.7532327843
 10
-5.1380019971
 20
54.6576216896
 10
-8.2871153516
 20
54.4772348232
 10
-11.4182806595
 20
54.2124628629
 10
-14.524716514
 20
53.8638792458
 10
-17.599695067
 20
53.4322389264
 10
-20.6365565994
 20
52.9184767415
 10
-23.6287239456
 20
52.3237053857
 10
-26.5697167373
 20
51.6492130011
 10
-29.453165439
 20
50.8964603882
 10
-32.2728251428
 20
50.0670778415
 10
-35.0225890939
 20
49.1628616188
 10
-37.6965019157
 20
48.1857700512
 10
-40.2887725085
 20
47.1379193015
 10
-42.7937865914
 20
46.021578781
 10
-45.2061188617
 20
44.8391662346
 10
-47.520544745
 20
43.5932425048
 10
-49.7320517101
 20
42.2865059848
 10
-51.8358501254
 20
40.921786775
 10
-53.8273836319
 20
39.5020405533
 10
-55.7023390117
 20
38.0303421738
 10
-57.4566555287
 20
36.5098790076
 10
-59.0865337242
 20
34.9439440393
 10
-60.5884436448
 20
33.3359287352
 10
-61.9591324882
 20
31.6893156986
 10
-63.1956316474
 20
30.0076711266
 10
-64.2952631408
 20
28.2946370868
 10
-65.2556454112
 20
26.5539236296
 10
-66.0746984846
 20
24.7893007526
 10
-66.7506484744
 20
23.0045902361
 10
-67.2820314235
 20
21.2036573656
 10
-67.6676964747
 20
19.3904025608
 10
-67.9068083633
 20
17.5687529277
 10
-67.9988492263
 20
15.7426537538
 10
-67.9436197237
 20
13.9160599633
 10
-67.7412394702
 20
12.0929275517
 10
-67.3921467765
 20
10.2772050176
 10
-66.8970976995
 20
8.4728248119
 10
-66.2571644054
 20
6.6836948203
 10
-65.4737328471
 20
4.9136898999
 10
-64.548499763
 20
3.1666434872
 10
-63.4834690018
 20
1.4463392957
 10
-62.2809471831
 20
-0.2434968786
 10
-60.9435387013
 20
-1.8992052271
 10
-59.4741400855
 20
-3.5171998541
 10
-57.8759337257
 20
-5.0939765434
 10
-56.1523809811
 20
-6.626120348
 10
-54.3072146832
 20
-8.1103129855
 10
-52.3444310513
 20
-9.5433400252
 10
-50.2682810375
 20
-10.9220978495
 10
-48.0832611207
 20
-12.2436003761
  0
LWPOLYLINE
  5
109
330
F1
100
AcDbEntity
  8
0
  6
Continuous
 62
     7
370
    15
100
AcDbPolyline
 90
       47
 70
   128
 43
0.0
 10
-38.8908729653
 20
-6.9369476493
 10
-36.8372534512
 20
-8.0629403525
 10
-34.6859481633
 20
-9.1264105179
 10
-32.4426619762
 20
-10.1245380139
 10
-30.1133436819
 20
-11.0546759857
 10
-27.7041702135
 20
-11.9143578746
 10
-25.2215302661
 20
-12.7013039589
 10
-22.6720073545
 20
-13.4134273989
 10
-20.0623623552
 20
-14.0488397714
 10
-17.3995155775
 20
-14.6058560769
 10
-14.6905284124
 20
-15.0829992084
 10
-11.9425846068
 20
-15.479003868
 10
-9.1629712138
 20
-15.7928199225
 10
-6.3590592683
 20
-16.0236151883
 10
-3.5382842409
 20
-16.1707776377
 10
-0.7081263197
 20
-16.2339170224
 10
2.1239094252
 20
-16.2128659081
 10
4.9503129442
 20
-16.1076801185
 10
7.7635891231
 20
-15.9186385875
 10
10.5562776593
 20
-15.6462426193
 10
13.3209728448
 20
-15.2912145588
 10
16.0503432051
 20
-14.8544958769
 10
18.7371509406
 20
-14.3372446728
 10
21.3742711201
 20
-13.7408326038
 10
23.9547105751
 20
-13.0668412476
 10
26.4716264439
 20
-12.3170579079
 10
28.9183443183
 20
-11.4934708754
 10
31.2883759421
 20
-10.5982641549
 10
33.5754364176
 20
-9.6338116737
 10
35.7734608716
 20
-8.6026709864
 10
37.8766205384
 20
-7.5075764927
 10
39.8793382166
 20
-6.3514321863
 10
41.7763030589
 20
-5.1373039541
 10
43.5624846555
 20
-3.868411446
 10
45.2331463742
 20
-2.5481195367
 10
46.7838579201
 20
-1.179929403
 10
48.2105070852
 20
0.2325307608
 10
49.5093106523
 20
1.6855153643
 10
50.6768244278
 20
3.1751713534
 10
51.7099523751
 20
4.6975484283
 10
52.6059548245
 20
6.2486095188
 10
53.3624557387
 20
7.8242414895
 10
53.9774490133
 20
9.4202660478
 10
54.4493037965
 20
11.0324508234
 10
54.7767688145
 20
12.6565205922
 10
54.9589756887
 20
14.2881686131
 10
55.0
 20
15.5142754258
  0
LWPOLYLINE
  5
10A
330
F1
100
AcDbEntity
  8
0
  6
Continuous
 62
     7
370
    15
100
AcDbPolyline
 90
       17
 70
   128
 43
0.0
 10
-55.0
 20
15.5142754258
 10
-54.9954412394
 20
15.1054828029
 10
-54.8860687664
 20
13.4716674117
 10
-54.6311483059
 20
11.8432686498
 10
-54.2313558611
 20
10.2246047379
 10
-53.6877516097
 20
8.6199680818
 10
-53.0017770925
 20
7.0336138893
 10
-52.1752513906
 20
5.4697488867
 10
-51.2103663015
 20
3.9325201628
 10
-50.109680527
 20
2.4260041717
 10
-48.8761128879
 20
0.9541959232
 10
-47.512934584
 20
-0.479001612
 10
-46.0237605189
 20
-1.8697878515
 10
-44.4125397145
 20
-3.2144746804
 10
-42.6835448389
 20
-4.5094962309
 10
-40.8413608756
 20
-5.7514183385
 10
-38.8908729653
 20
-6.9369476493
  0
LWPOLYLINE
  5
10B
330
F1
100
AcDbEntity
  8
0
  6
Continuous
 62
     7
370
    15
100
AcDbPolyline
 90
       37
 70
   128
 43
0.0
 10
52.3344041657
 20
-30.202191033
 10
51.7397354052
 20
-30.5417378798
 10
49.3315964227
 20
-31.8419761255
 10
46.825514122
 20
-33.0789950751
 10
44.2264640973
 20
-34.2503387419
 10
41.5396065219
 20
-35.3536815315
 10
38.7702759029
 20
-36.3868328589
 10
35.9239704898
 20
-37.3477414978
 10
33.0063413586
 20
-38.234499653
 10
30.0231811919
 20
-39.0453467483
 10
26.9804127779
 20
-39.7786729219
 10
23.8840772518
 20
-40.4330222224
 10
20.7403221012
 20
-41.0070955
 10
17.5553889608
 20
-41.4997529853
 10
14.3356012207
 20
-41.9100165524
 10
11.0873514713
 20
-42.237071661
 10
7.8170888118
 20
-42.4802689735
 10
4.5313060461
 20
-42.6391256441
 10
1.2365267917
 20
-42.7133262776
 10
-2.0607074722
 20
-42.7027235555
 10
-5.3538503922
 20
-42.6073385286
 10
-8.6363637378
 20
-42.4273605749
 10
-11.9017303826
 20
-42.1631470241
 10
-15.1434672434
 20
-41.8152224476
 10
-18.3551381518
 20
-41.3842776176
 10
-21.5303666323
 20
-40.8711681351
 10
-24.6628485629
 20
-40.2769127315
 10
-27.7463646906
 20
-39.6026912458
 10
-30.7747929795
 20
-38.8498422825
 10
-33.7421207655
 20
-38.0198605534
 10
-36.6424566942
 20
-37.1143939105
 10
-39.4700424168
 20
-36.135240074
 10
-42.2192640237
 20
-35.0843430631
 10
-44.88466319
 20
-33.9637893366
 10
-47.4609480121
 20
-32.7758036503
 10
-49.9430035152
 20
-31.5227446397
 10
-52.3259018078
 20
-30.2071001374
  0
LWPOLYLINE
  5
10C
330
F1
100
AcDbEntity
  8
0
  6
Continuous
 62
     7
370
    15
100
AcDbPolyline
 90
      123
 70
   128
 43
0.0
 10
-38.8908729653
 20
-6.1204068374
 10
-36.8372534512
 20
-7.2463995406
 10
-34.6859481633
 20
-8.309869706
 10
-32.4426619762
 20
-9.307997202
 10
-30.1133436819
 20
-10.2381351738
 10
-27.7041702135
 20
-11.0978170627
 10
-25.2215302661
 20
-11.884763147
 10
-22.6720073545
 20
-12.596886587
 10
-20.0623623552
 20
-13.2322989595
 10
-17.3995155775
 20
-13.789315265
 10
-14.6905284124
 20
-14.2664583965
 10
-11.9425846068
 20
-14.6624630561
 10
-9.1629712138
 20
-14.9762791106
 10
-6.3590592683
 20
-15.2070743764
 10
-3.5382842409
 20
-15.3542368258
 10
-0.7081263197
 20
-15.4173762105
 10
2.1239094252
 20
-15.3963250962
 10
4.9503129442
 20
-15.2911393066
 10
7.7635891231
 20
-15.1020977756
 10
10.5562776593
 20
-14.8297018074
 10
13.3209728448
 20
-14.474673747
 10
16.0503432051
 20
-14.037955065
 10
18.7371509406
 20
-13.5207038609
 10
21.3742711201
 20
-12.924291792
 10
23.9547105751
 20
-12.2503004357
 10
26.4716264439
 20
-11.500517096
 10
28.9183443183
 20
-10.6769300635
 10
31.2883759421
 20
-9.781723343
 10
33.5754364176
 20
-8.8172708618
 10
35.7734608716
 20
-7.7861301745
 10
37.8766205384
 20
-6.6910356808
 10
39.8793382166
 20
-5.5348913744
 10
41.7763030589
 20
-4.3207631423
 10
43.5624846555
 20
-3.0518706341
 10
45.2331463742
 20
-1.7315787248
 10
46.7838579201
 20
-0.3633885911
 10
48.2105070852
 20
1.0490715727
 10
49.5093106523
 20
2.5020561762
 10
50.6768244278
 20
3.9917121653
 10
51.7099523751
 20
5.5140892402
 10
52.6059548245
 20
7.0651503307
 10
53.3624557387
 20
8.6407823014
 10
53.9774490133
 20
10.2368068597
 10
54.4493037965
 20
11.8489916353
 10
54.7767688145
 20
13.4730614041
 10
54.9589756887
 20
15.1047094249
 10
54.9954412394
 20
16.7396088607
 10
54.8860687664
 20
18.3734242518
 10
54.6311483059
 20
20.0018230137
 10
54.2313558611
 20
21.6204869256
 10
53.6877516097
 20
23.2251235818
 10
53.0017770925
 20
24.8114777742
 10
52.1752513906
 20
26.3753427768
 10
51.2103663015
 20
27.9125715008
 10
50.109680527
 20
29.4190874918
 10
48.8761128879
 20
30.8908957403
 10
47.512934584
 20
32.3240932755
 10
46.0237605189
 20
33.7148795151
 10
44.4125397145
 20
35.0595663439
 10
42.6835448389
 20
36.3545878944
 10
40.8413608756
 20
37.5965100021
 10
38.8908729653
 20
38.7820393128
 10
36.8372534512
 20
39.908032016
 10
34.6859481633
 20
40.9715021815
 10
32.4426619762
 20
41.9696296774
 10
30.1133436819
 20
42.8997676492
 10
27.7041702135
 20
43.7594495382
 10
25.2215302661
 20
44.5463956224
 10
22.6720073545
 20
45.2585190625
 10
20.0623623552
 20
45.8939314349
 10
17.3995155775
 20
46.4509477405
 10
14.6905284124
 20
46.9280908719
 10
11.9425846068
 20
47.3240955315
 10
9.1629712138
 20
47.6379115861
 10
6.3590592683
 20
47.8687068518
 10
3.5382842409
 20
48.0158693012
 10
0.7081263197
 20
48.0790086859
 10
-2.1239094252
 20
48.0579575716
 10
-4.9503129442
 20
47.9527717821
 10
-7.7635891231
 20
47.7637302511
 10
-10.5562776593
 20
47.4913342828
 10
-13.3209728448
 20
47.1363062224
 10
-16.0503432051
 20
46.6995875404
 10
-18.7371509406
 20
46.1823363364
 10
-21.3742711201
 20
45.5859242674
 10
-23.9547105751
 20
44.9119329111
 10
-26.4716264439
 20
44.1621495714
 10
-28.9183443183
 20
43.338562539
 10
-31.2883759421
 20
42.4433558185
 10
-33.5754364176
 20
41.4789033373
 10
-35.7734608716
 20
40.44776265
 10
-37.8766205384
 20
39.3526681562
 10
-39.8793382166
 20
38.1965238499
 10
-41.7763030589
 20
36.9823956177
 10
-43.5624846555
 20
35.7135031095
 10
-45.2331463742
 20
34.3932112002
 10
-46.7838579201
 20
33.0250210665
 10
-48.2105070852
 20
31.6125609027
 10
-49.5093106523
 20
30.1595762993
 10
-50.6768244278
 20
28.6699203101
 10
-51.7099523751
 20
27.1475432352
 10
-52.6059548245
 20
25.5964821448
 10
-53.3624557387
 20
24.0208501741
 10
-53.9774490133
 20
22.4248256158
 10
-54.4493037965
 20
20.8126408401
 10
-54.7767688145
 20
19.1885710714
 10
-54.9589756887
 20
17.5569230505
 10
-54.9954412394
 20
15.9220236148
 10
-54.8860687664
 20
14.2882082236
 10
-54.6311483059
 20
12.6598094617
 10
-54.2313558611
 20
11.0411455498
 10
-53.6877516097
 20
9.4365088937
 10
-53.0017770925
 20
7.8501547012
 10
-52.1752513906
 20
6.2862896986
 10
-51.2103663015
 20
4.7490609747
 10
-50.109680527
 20
3.2425449836
 10
-48.8761128879
 20
1.7707367351
 10
-47.512934584
 20
0.3375391999
 10
-46.0237605189
 20
-1.0532470396
 10
-44.4125397145
 20
-2.3979338685
 10
-42.6835448389
 20
-3.692955419
 10
-40.8413608756
 20
-4.9348775267
 10
-38.8908729653
 20
-6.1204068374
  0
LWPOLYLINE
  5
10D
330
F1
100
AcDbEntity
  8
0
  6
Continuous
 62
     7
370
    15
100
AcDbPolyline
 90
       91
 70
   128
 43
0.0
 10
-21.2132034356
 20
4.0846945604
 10
-19.6817708697
 20
3.260279232
 10
-18.0544506946
 20
2.4995422462
 10
-16.3391710505
 20
1.8061898368
 10
-14.5442886074
 20
1.1835999473
 10
-12.6785478522
 20
0.634805773
 10
-10.7510384864
 20
0.1624809839
 10
-8.7711511417
 20
-0.2310733011
 10
-6.7485316303
 20
-0.543939725
 10
-4.6930339512
 20
-0.7745940342
 10
-2.6146722824
 20
-0.9219125039
 10
-0.5235721931
 20
-0.9851774134
 10
1.5700786873
 20
-0.9640805425
 10
3.6560803022
 20
-0.8587246729
 10
5.7242698613
 20
-0.6696230879
 10
7.7645713531
 20
-0.3976970714
 10
9.7670446337
 20
-0.0442714195
 10
11.7219338547
 20
0.3889320133
 10
13.6197149922
 20
0.8998027037
 10
15.4511422473
 20
1.4858517408
 10
17.2072930905
 20
2.1442239528
 10
18.8796117315
 20
2.8717118163
 10
20.4599508019
 20
3.6647710837
 10
21.9406110486
 20
4.5195380499
 10
23.3143788437
 20
5.4318483762
 10
24.5745613287
 20
6.3972573783
 10
25.7150190211
 20
7.4110616807
 10
26.7301957257
 20
8.4683221306
 10
27.6151456036
 20
9.5638878615
 10
28.365557268
 20
10.6924213873
 10
28.9777747887
 20
11.848424606
 10
29.4488155034
 20
13.0262655861
 10
29.7763845492
 20
14.2202060049
 10
29.9588860426
 20
15.4244291045
 10
29.9954308547
 20
16.6330680312
 10
29.8858409428
 20
17.8402344175
 10
29.6306502179
 20
19.0400470701
 10
29.2311019436
 20
20.2266606225
 10
28.6891426789
 20
21.3942940127
 10
28.0074127949
 20
22.537258648
 10
27.1892336111
 20
23.6499861199
 10
26.2385912142
 20
24.7270553318
 10
25.1601170384
 20
25.7632189108
 10
23.9590653014
 20
26.7534287721
 10
22.6412874067
 20
27.6928607129
 10
21.2132034356
 20
28.5769379151
 10
19.6817708697
 20
29.4013532434
 10
18.0544506946
 20
30.1620902293
 10
16.3391710505
 20
30.8554426386
 10
14.5442886074
 20
31.4780325281
 10
12.6785478522
 20
32.0268267024
 10
10.7510384864
 20
32.4991514915
 10
8.7711511417
 20
32.8927057765
 10
6.7485316303
 20
33.2055722005
 10
4.6930339512
 20
33.4362265096
 10
2.6146722824
 20
33.5835449793
 10
0.5235721931
 20
33.6468098888
 10
-1.5700786873
 20
33.6257130179
 10
-3.6560803022
 20
33.5203571483
 10
-5.7242698613
 20
33.3312555633
 10
-7.7645713531
 20
33.0593295468
 10
-9.7670446337
 20
32.705903895
 10
-11.7219338547
 20
32.2727004621
 10
-13.6197149922
 20
31.7618297718
 10
-15.4511422473
 20
31.1757807346
 10
-17.2072930905
 20
30.5174085226
 10
-18.8796117315
 20
29.7899206591
 10
-20.4599508019
 20
28.9968613917
 10
-21.9406110486
 20
28.1420944255
 10
-23.3143788437
 20
27.2297840993
 10
-24.5745613287
 20
26.2643750971
 10
-25.7150190211
 20
25.2505707948
 10
-26.7301957257
 20
24.1933103448
 10
-27.6151456036
 20
23.0977446139
 10
-28.365557268
 20
21.9692110881
 10
-28.9777747887
 20
20.8132078695
 10
-29.4488155034
 20
19.6353668893
 10
-29.7763845492
 20
18.4414264705
 10
-29.9588860426
 20
17.2372033709
 10
-29.9954308547
 20
16.0285644442
 10
-29.8858409428
 20
14.8213980579
 10
-29.6306502179
 20
13.6215854053
 10
-29.2311019436
 20
12.4349718529
 10
-28.6891426789
 20
11.2673384628
 10
-28.0074127949
 20
10.1243738274
 10
-27.1892336111
 20
9.0116463555
 10
-26.2385912142
 20
7.9345771436
 10
-25.1601170384
 20
6.8984135646
 10
-23.9590653014
 20
5.9082037033
 10
-22.6412874067
 20
4.9687717625
 10
-21.2132034356
 20
4.0846945604
  0
LWPOLYLINE
  5
10E
330
F1
100
AcDbEntity
  8
0
  6
Continuous
 62
     7
370
    15
100
AcDbPolyline
 90
       43
 70
   128
 43
0.0
 10
29.6983862867
 20
13.8811938021
 10
29.6306502179
 20
14.1408021988
 10
29.2311019436
 20
15.3274157512
 10
28.6891426789
 20
16.4950491413
 10
28.0074127949
 20
17.6380137767
 10
27.1892336111
 20
18.7507412486
 10
26.2385912142
 20
19.8278104605
 10
25.1601170384
 20
20.8639740395
 10
23.9590653014
 20
21.8541839008
 10
22.6412874067
 20
22.7936158416
 10
21.2132034356
 20
23.6776930437
 10
19.6817708697
 20
24.5021083721
 10
18.0544506946
 20
25.262845358
 10
16.3391710505
 20
25.9561977673
 10
14.5442886074
 20
26.5787876568
 10
12.6785478522
 20
27.1275818311
 10
10.7510384864
 20
27.5999066202
 10
8.7711511417
 20
27.9934609052
 10
6.7485316303
 20
28.3063273291
 10
4.6930339512
 20
28.5369816383
 10
2.6146722824
 20
28.684300108
 10
0.5235721931
 20
28.7475650175
 10
-1.5700786873
 20
28.7264681466
 10
-3.6560803022
 20
28.621112277
 10
-5.7242698613
 20
28.432010692
 10
-7.7645713531
 20
28.1600846755
 10
-9.7670446337
 20
27.8066590237
 10
-11.7219338547
 20
27.3734555908
 10
-13.6197149922
 20
26.8625849005
 10
-15.4511422473
 20
26.2765358633
 10
-17.2072930905
 20
25.6181636513
 10
-18.8796117315
 20
24.8906757878
 10
-20.4599508019
 20
24.0976165204
 10
-21.9406110486
 20
23.2428495542
 10
-23.3143788437
 20
22.3305392279
 10
-24.5745613287
 20
21.3651302258
 10
-25.7150190211
 20
20.3513259235
 10
-26.7301957257
 20
19.2940654735
 10
-27.6151456036
 20
18.1984997426
 10
-28.365557268
 20
17.0699662168
 10
-28.9777747887
 20
15.9139629981
 10
-29.4488155034
 20
14.736122018
 10
-29.6983862867
 20
13.8811938021
  0
LWPOLYLINE
  5
10F
330
F1
100
AcDbEntity
  8
0
  6
Continuous
 62
     7
370
    15
100
AcDbPolyline
 90
       35
 70
   128
 43
0.0
 10
-3.1819805153
 20
9.5946531148
 10
-2.5431138649
 20
9.2883972958
 10
-1.8176445219
 20
9.0551246992
 10
-1.0302774748
 20
8.9027791437
 10
-0.2078255639
 20
8.8365485744
 10
0.6217035973
 20
8.8586883939
 10
1.4300613881
 20
8.9684446572
 10
2.1897201536
 20
9.1620797463
 10
2.8748106254
 20
9.4329996507
 10
3.4620028694
 20
9.7719785178
 10
3.9313007579
 20
10.1674728288
 10
4.2667229142
 20
10.6060144995
 10
4.4568469389
 20
11.0726695191
 10
4.4951983866
 20
11.5515465107
 10
4.3804712446
 20
12.0263378926
 10
4.1165724082
 20
12.4808752138
 10
3.7124886357
 20
12.899679751
 10
3.1819805153
 20
13.268489618
 10
2.5431138649
 20
13.574745437
 10
1.8176445219
 20
13.8080180336
 10
1.0302774748
 20
13.9603635891
 10
0.2078255639
 20
14.0265941584
 10
-0.6217035973
 20
14.0044543389
 10
-1.4300613881
 20
13.8946980756
 10
-2.1897201536
 20
13.7010629865
 10
-2.8748106254
 20
13.4301430821
 10
-3.4620028694
 20
13.091164215
 10
-3.9313007579
 20
12.695669904
 10
-4.2667229142
 20
12.2571282333
 10
-4.4568469389
 20
11.7904732137
 10
-4.4951983866
 20
11.3115962221
 10
-4.3804712446
 20
10.8368048402
 10
-4.1165724082
 20
10.382267519
 10
-3.7124886357
 20
9.9634629818
 10
-3.1819805153
 20
9.5946531148
  0
LINE
  5
110
330
F1
100
AcDbEntity
  8
0
  6
Continuous
 62
     7
370
    15
100
AcDbLine
 10
75.0
 20
0.8165408119
 30
0.0
 11
75.0
 21
15.5142754258
 31
0.0
  0
LINE
  5
111
330
F1
100
AcDbEntity
  8
0
  6
Continuous
 62
     7
370
    15
100
AcDbLine
 10
-75.0
 20
15.5142754258
 30
0.0
 11
-75.0
 21
0.8165408119
 31
0.0
  0
LINE
  5
112
330
F1
100
AcDbEntity
  8
0
  6
Continuous
 62
     7
370
    15
100
AcDbLine
 10
-68.0
 20
15.5142754258
 30
0.0
 11
-68.0
 21
12.2481121783
 31
0.0
  0
LINE
  5
113
330
F1
100
AcDbEntity
  8
0
  6
Continuous
 62
     7
370
    15
100
AcDbLine
 10
68.0
 20
12.2481121783
 30
0.0
 11
68.0
 21
15.5142754258
 31
0.0
  0
LINE
  5
114
330
F1
100
AcDbEntity
  8
0
  6
Continuous
 62
     7
370
    15
100
AcDbLine
 10
-53.0416258436
 20
-29.7937879378
 30
0.0
 11
-52.3344041657
 21
-30.202191033
 31
0.0
  0
LINE
  5
115
330
F1
100
AcDbEntity
  8
0
  6
Continuous
 62
     7
370
    15
100
AcDbLine
 10
52.3344041657
 20
-30.202191033
 30
0.0
 11
53.0416258436
 21
-29.7937879378
 31
0.0
  0
LINE
  5
116
330
F1
100
AcDbEntity
  8
0
  6
Continuous
 62
     7
370
    15
100
AcDbLine
 10
-55.0
 20
16.3308162377
 30
0.0
 11
-55.0
 21
15.5142754258
 31
0.0
  0
LINE
  5
117
330
F1
100
AcDbEntity
  8
0
  6
Continuous
 62
     7
370
    15
100
AcDbLine
 10
55.0
 20
15.5142754258
 30
0.0
 11
55.0
 21
16.3308162377
 31
0.0
  0
ARC
  5
118
330
F1
100
AcDbEntity
  8
0
  6
Continuous
 62
     7
370
    15
100
AcDbCircle
 10
-9.1557118481
 20
53.3130430009
 30
0.0
 40
79.06916468545998
100
AcDbArc
 50
240.5066355808
 51
252.4744332844
  0
VIEWPORT
  5
16F
330
F1
100
AcDbEntity
  8
0
100
AcDbViewport
 10
0.0
 20
0.0
 30
0.0
 40
243.84
 41
204.216
 68
     1
 69
     1
 12
0.0
 22
0.0
 13
0.0
 23
0.0
 14
10.0
 24
10.0
 15
10.0
 25
10.0
 16
0.0
 26
0.0
 36
1.0
 17
0.0
 27
0.0
 37
0.0
 42
50.0
 43
0.0
 44
0.0
 45
453.6031772252
 50
0.0
 51
0.0
 72
   100
 90
   557152
  1

281
     0
 71
     1
 74
     0
110
0.0
120
0.0
130
0.0
111
1.0
121
0.0
131
0.0
112
0.0
122
1.0
132
0.0
 79
     0
146
0.0
  0
ENDBLK
  5
F4
330
F1
100
AcDbEntity
  8
0
100
AcDbBlockEnd
  0
BLOCK
  5
11B
330
119
100
AcDbEntity
  8
0
100
AcDbBlockBegin
  2
*Paper_Space7
 70
     0
 10
0.0
 20
0.0
 30
0.0
  3
*Paper_Space7
  1

  0
LWPOLYLINE
  5
11D
330
119
100
AcDbEntity
  8
0
  6
Continuous
 62
     7
100
AcDbPolyline
 90
       17
 70
   128
 43
0.0
 10
-26.2284115119
 20
-28.238142891
 10
-27.0377633551
 20
-28.5185693875
 10
-27.9938693671
 20
-28.6181292415
 10
-28.9511710746
 20
-28.5216653676
 10
-29.7639279707
 20
-28.2438635163
 10
-30.3084051855
 20
-27.827016501
 10
-30.5017109988
 20
-27.3345855012
 10
-30.3144163529
 20
-26.8415386726
 10
-29.7750351597
 20
-26.4229379255
 10
-28.9656833165
 20
-26.142511429
 10
-28.0095773045
 20
-26.042951575
 10
-27.052275597
 20
-26.1394154489
 10
-26.2395187009
 20
-26.4172173002
 10
-25.6950414861
 20
-26.8340643155
 10
-25.5017356728
 20
-27.3264953153
 10
-25.6890303187
 20
-27.8195421439
 10
-26.2284115119
 20
-28.238142891
  0
LWPOLYLINE
  5
11E
330
119
100
AcDbEntity
  8
0
  6
Continuous
 62
     7
100
AcDbPolyline
 90
       69
 70
   128
 43
0.0
 10
166.5119742668
 20
-85.2228464334
 10
150.5341083584
 20
-92.7722359184
 10
133.2719385143
 20
-99.5301253972
 10
114.8727394812
 20
-105.4388589393
 10
95.4934867379
 20
-110.4480253137
 10
75.2995172357
 20
-114.514888079
 10
54.4631188024
 20
-117.6047501961
 10
33.1620602425
 20
-119.6912500507
 10
11.5780746773
 20
-120.7565863618
 10
-10.1046909387
 20
-120.7916700557
 10
-31.7012468944
 20
-119.7962018106
 10
-53.0273389892
 20
-117.7786746106
 10
-73.9010205247
 20
-114.7563012864
 10
-94.1442046098
 20
-110.7548676615
 10
-113.5841835355
 20
-105.8085125569
 10
-132.0551022559
 20
-99.9594365301
 10
-149.3993734051
 20
-93.2575418356
 10
-165.4690217773
 20
-85.7600066758
 10
-180.1269467983
 20
-77.5307973772
 10
-193.2480922203
 20
-68.6401226519
 10
-204.7205130567
 20
-59.1638346021
 10
-214.4463306582
 20
-49.1827815759
 10
-222.3425677782
 20
-38.7821183987
 10
-228.3418565057
 20
-28.0505798616
 10
-232.3930130245
 20
-17.0797236674
 10
-234.4614742957
 20
-5.963149293
 10
-234.529592937
 20
5.2043005686
 10
-232.5967877841
 20
16.3273491728
 10
-228.6795488492
 20
27.3110985906
 10
-222.8112966336
 20
38.0618393449
 10
-215.0420969962
 20
48.4878499062
 10
-205.438234009
 20
58.5001792283
 10
-194.0816444446
 20
68.0134056479
 10
-181.0692187212
 20
76.9463656713
 10
-166.5119742668
 20
85.2228464334
 10
-150.5341083584
 20
92.7722359184
 10
-133.2719385143
 20
99.5301253972
 10
-114.8727394812
 20
105.4388589393
 10
-95.4934867379
 20
110.4480253137
 10
-75.2995172357
 20
114.514888079
 10
-54.4631188024
 20
117.6047501961
 10
-33.1620602425
 20
119.6912500507
 10
-11.5780746773
 20
120.7565863618
 10
10.1046909387
 20
120.7916700557
 10
31.7012468944
 20
119.7962018106
 10
53.0273389892
 20
117.7786746106
 10
73.9010205247
 20
114.7563012864
 10
94.1442046098
 20
110.7548676615
 10
113.5841835355
 20
105.8085125569
 10
132.0551022559
 20
99.9594365301
 10
149.3993734051
 20
93.2575418356
 10
165.4690217773
 20
85.7600066758
 10
180.1269467983
 20
77.5307973772
 10
193.2480922203
 20
68.6401226519
 10
204.7205130567
 20
59.1638346021
 10
214.4463306582
 20
49.1827815759
 10
222.3425677782
 20
38.7821183987
 10
228.3418565057
 20
28.0505798616
 10
232.3930130245
 20
17.0797236674
 10
234.4614742957
 20
5.963149293
 10
234.529592937
 20
-5.2043005686
 10
232.5967877841
 20
-16.3273491728
 10
228.6795488492
 20
-27.3110985906
 10
222.8112966336
 20
-38.0618393449
 10
215.0420969962
 20
-48.4878499062
 10
205.438234009
 20
-58.5001792283
 10
194.0816444446
 20
-68.0134056479
 10
181.0692187212
 20
-76.9463656713
 10
166.5119742668
 20
-85.2228464334
  0
LWPOLYLINE
  5
127
330
119
100
AcDbEntity
  8
0
  6
Continuous
 62
     7
370
    15
100
AcDbPolyline
 90
      143
 70
   128
 43
0.0
 10
-35.0021541698
 20
-17.876996797
 10
-32.0338369825
 20
-18.6409728838
 10
-29.0028120551
 20
-19.3365774313
 10
-25.9150127611
 20
-19.9624487607
 10
-22.7764836127
 20
-20.5173616996
 10
-19.593368428
 20
-21.0002299798
 10
-16.3718983044
 20
-21.4101083641
 10
-13.1183794212
 20
-21.7461944962
 10
-9.8391806942
 20
-22.0078304717
 10
-6.5407213089
 20
-22.194504126
 10
-3.2294581545
 20
-22.3058500365
 10
0.0881268159
 20
-22.3416502385
 10
3.4055392739
 20
-22.3018346514
 10
6.7162852289
 20
-22.1864812159
 10
10.0138837401
 20
-21.9958157421
 10
13.2918796036
 20
-21.7302114663
 10
16.5438559887
 20
-21.3901883215
 10
19.7634469987
 20
-20.9764119189
 10
22.9443501331
 20
-20.4896922454
 10
26.0803386247
 20
-19.9309820774
 10
29.1652736287
 20
-19.3013751164
 10
32.19311624
 20
-18.6021038476
 10
35.1579393144
 20
-17.8345371274
 10
38.0539390716
 20
-17.0001775035
 10
40.8754464561
 20
-16.1006582743
 10
43.6169382346
 20
-15.1377402908
 10
46.2730478083
 20
-14.1133085101
 10
48.8385757179
 20
-13.0293683056
 10
51.308499822
 20
-11.8880415412
 10
53.6779851284
 20
-10.6915624176
 10
55.9423932581
 20
-9.4422730988
 10
58.0972915259
 20
-8.1426191274
 10
60.1384616173
 20
-6.7951446371
 10
62.061907846
 20
-5.4024873724
 10
63.8638649757
 20
-3.9673735253
 10
65.5408055906
 20
-2.4926123986
 10
67.0894470008
 20
-0.9810909065
 10
68.506757668
 20
0.5642320768
 10
69.7899631399
 20
2.1403315089
 10
70.9365514817
 20
3.7441221013
 10
71.9442781927
 20
5.3724643584
 10
72.8111706007
 20
7.0221707239
 10
73.535531723
 20
8.69001182
 10
74.1159435887
 20
10.3727227696
 10
74.5512700144
 20
12.0670095869
 10
74.8406588281
 20
13.7695556258
 10
74.9835435376
 20
15.4770280727
 10
74.9796444394
 20
17.1860844699
 10
74.8289691661
 20
18.8933792593
 10
74.5318126718
 20
20.5955703313
 10
74.0887566541
 20
22.2893255668
 10
73.5006684161
 20
23.9713293604
 10
72.768699168
 20
25.6382891107
 10
71.8942817741
 20
27.2869416657
 10
70.8791279474
 20
28.9140597107
 10
69.7252248994
 20
30.5164580856
 10
68.4348314492
 20
32.0910000204
 10
67.0104736029
 20
33.6346032753
 10
65.4549396076
 20
35.1442461744
 10
63.7712744942
 20
36.6169735209
 10
61.9627741164
 20
38.0499023818
 10
60.0329786984
 20
39.4402277316
 10
57.9856659055
 20
40.7852279431
 10
55.8248434486
 20
42.0822701153
 10
53.5547412391
 20
43.3288152272
 10
51.1798031086
 20
44.5224231082
 10
48.7046781102
 20
45.6607572148
 10
46.1342114172
 20
46.7415892046
 10
43.4734348389
 20
47.7628032981
 10
40.7275569704
 20
48.7224004209
 10
37.9019529965
 20
49.6185021164
 10
35.0021541698
 20
50.4493542237
 10
32.0338369825
 20
51.2133303105
 10
29.0028120551
 20
51.9089348579
 10
25.9150127611
 20
52.5348061874
 10
22.7764836127
 20
53.0897191263
 10
19.593368428
 20
53.5725874065
 10
16.3718983044
 20
53.9824657908
 10
13.1183794212
 20
54.3185519229
 10
9.8391806942
 20
54.5801878984
 10
6.5407213089
 20
54.7668615527
 10
3.2294581545
 20
54.8782074632
 10
-0.0881268159
 20
54.9140076652
 10
-3.4055392739
 20
54.874192078
 10
-6.7162852289
 20
54.7588386426
 10
-10.0138837401
 20
54.5681731687
 10
-13.2918796036
 20
54.302568893
 10
-16.5438559887
 20
53.9625457482
 10
-19.7634469987
 20
53.5487693456
 10
-22.9443501331
 20
53.062049672
 10
-26.0803386247
 20
52.5033395041
 10
-29.1652736287
 20
51.8737325431
 10
-32.19311624
 20
51.1744612743
 10
-35.1579393144
 20
50.4068945541
 10
-38.0539390716
 20
49.5725349302
 10
-40.8754464561
 20
48.673015701
 10
-43.6169382346
 20
47.7100977174
 10
-46.2730478083
 20
46.6856659368
 10
-48.8385757179
 20
45.6017257323
 10
-51.308499822
 20
44.4603989679
 10
-53.6779851284
 20
43.2639198443
 10
-55.9423932581
 20
42.0146305255
 10
-58.0972915259
 20
40.7149765541
 10
-60.1384616173
 20
39.3675020638
 10
-62.061907846
 20
37.9748447991
 10
-63.8638649757
 20
36.539730952
 10
-65.5408055906
 20
35.0649698253
 10
-67.0894470008
 20
33.5534483332
 10
-68.506757668
 20
32.0081253499
 10
-69.7899631399
 20
30.4320259178
 10
-70.9365514817
 20
28.8282353254
 10
-71.9442781927
 20
27.1998930683
 10
-72.8111706007
 20
25.5501867028
 10
-73.535531723
 20
23.8823456067
 10
-74.1159435887
 20
22.1996346571
 10
-74.5512700144
 20
20.5053478398
 10
-74.8406588281
 20
18.8028018009
 10
-74.9835435376
 20
17.095329354
 10
-74.9796444394
 20
15.3862729568
 10
-74.8289691661
 20
13.6789781673
 10
-74.5318126718
 20
11.9767870954
 10
-74.0887566541
 20
10.2830318599
 10
-73.5006684161
 20
8.6010280663
 10
-72.768699168
 20
6.934068316
 10
-71.8942817741
 20
5.285415761
 10
-70.8791279474
 20
3.658297716
 10
-69.7252248994
 20
2.0558993411
 10
-68.4348314492
 20
0.4813574063
 10
-67.0104736029
 20
-1.0622458486
 10
-65.4549396076
 20
-2.5718887477
 10
-63.7712744942
 20
-4.0446160942
 10
-61.9627741164
 20
-5.4775449551
 10
-60.0329786984
 20
-6.8678703049
 10
-57.9856659055
 20
-8.2128705164
 10
-55.8248434486
 20
-9.5099126886
 10
-53.5547412391
 20
-10.7564578005
 10
-51.1798031086
 20
-11.9500656815
 10
-48.7046781102
 20
-13.0883997881
 10
-46.1342114172
 20
-14.1692317779
 10
-43.4734348389
 20
-15.1904458714
 10
-40.7275569704
 20
-16.1500429942
 10
-37.9019529965
 20
-17.0461446898
 10
-35.0021541698
 20
-17.876996797
  0
LWPOLYLINE
  5
128
330
119
100
AcDbEntity
  8
0
  6
Continuous
 62
     7
370
    15
100
AcDbPolyline
 90
       48
 70
   128
 43
0.0
 10
-35.0021541698
 20
-33.3060082096
 10
-32.0338369825
 20
-34.0699842965
 10
-29.0028120551
 20
-34.7655888439
 10
-25.9150127611
 20
-35.3914601733
 10
-22.7764836127
 20
-35.9463731122
 10
-19.593368428
 20
-36.4292413925
 10
-16.3718983044
 20
-36.8391197767
 10
-13.1183794212
 20
-37.1752059088
 10
-9.8391806942
 20
-37.4368418844
 10
-6.5407213089
 20
-37.6235155386
 10
-3.2294581545
 20
-37.7348614492
 10
0.0881268159
 20
-37.7706616511
 10
3.4055392739
 20
-37.730846064
 10
6.7162852289
 20
-37.6154926286
 10
10.0138837401
 20
-37.4248271547
 10
13.2918796036
 20
-37.1592228789
 10
16.5438559887
 20
-36.8191997341
 10
19.7634469987
 20
-36.4054233316
 10
22.9443501331
 20
-35.918703658
 10
26.0803386247
 20
-35.35999349
 10
29.1652736287
 20
-34.7303865291
 10
32.19311624
 20
-34.0311152603
 10
35.1579393144
 20
-33.26354854
 10
38.0539390716
 20
-32.4291889162
 10
40.8754464561
 20
-31.5296696869
 10
43.6169382346
 20
-30.5667517034
 10
46.2730478083
 20
-29.5423199227
 10
48.8385757179
 20
-28.4583797183
 10
51.308499822
 20
-27.3170529539
 10
53.6779851284
 20
-26.1205738302
 10
55.9423932581
 20
-24.8712845115
 10
58.0972915259
 20
-23.5716305401
 10
60.1384616173
 20
-22.2241560497
 10
62.061907846
 20
-20.831498785
 10
63.8638649757
 20
-19.396384938
 10
65.5408055906
 20
-17.9216238113
 10
67.0894470008
 20
-16.4101023191
 10
68.506757668
 20
-14.8647793358
 10
69.7899631399
 20
-13.2886799037
 10
70.9365514817
 20
-11.6848893114
 10
71.9442781927
 20
-10.0565470543
 10
72.8111706007
 20
-8.4068406888
 10
73.535531723
 20
-6.7389995926
 10
74.1159435887
 20
-5.0562886431
 10
74.5512700144
 20
-3.3620018258
 10
74.8406588281
 20
-1.6594557868
 10
74.9835435376
 20
0.04801666
 10
75.0
 20
0.8571673007
  0
LWPOLYLINE
  5
129
330
119
100
AcDbEntity
  8
0
  6
Continuous
 62
     7
370
    15
100
AcDbPolyline
 90
       26
 70
   128
 43
0.0
 10
-75.0
 20
0.8571673007
 10
-74.9796444394
 20
-0.0427384559
 10
-74.8289691661
 20
-1.7500332453
 10
-74.5318126718
 20
-3.4522243172
 10
-74.0887566541
 20
-5.1459795527
 10
-73.5006684161
 20
-6.8279833463
 10
-72.768699168
 20
-8.4949430966
 10
-71.8942817741
 20
-10.1435956517
 10
-70.8791279474
 20
-11.7707136967
 10
-69.7252248994
 20
-13.3731120716
 10
-68.4348314492
 20
-14.9476540063
 10
-67.0104736029
 20
-16.4912572612
 10
-65.4549396076
 20
-18.0009001603
 10
-63.7712744942
 20
-19.4736275068
 10
-61.9627741164
 20
-20.9065563677
 10
-60.0329786984
 20
-22.2968817175
 10
-57.9856659055
 20
-23.6418819291
 10
-55.8248434486
 20
-24.9389241013
 10
-53.5547412391
 20
-26.1854692132
 10
-51.1798031086
 20
-27.3790770941
 10
-48.7046781102
 20
-28.5174112008
 10
-46.1342114172
 20
-29.5982431905
 10
-43.4734348389
 20
-30.6194572841
 10
-40.7275569704
 20
-31.5790544068
 10
-37.9019529965
 20
-32.4751561024
 10
-35.0021541698
 20
-33.3060082096
  0
LWPOLYLINE
  5
12A
330
119
100
AcDbEntity
  8
0
  6
Continuous
 62
     7
370
    15
100
AcDbPolyline
 90
      141
 70
   128
 43
0.0
 10
-34.0687633919
 20
-16.9659787834
 10
-31.137871778
 20
-17.7197262548
 10
-28.1442726343
 20
-18.4049903592
 10
-25.093994671
 20
-19.0203910658
 10
-21.993180742
 20
-19.5646890396
 10
-18.8480754739
 20
-20.0367881369
 10
-15.6650126901
 20
-20.435737613
 10
-12.4504026556
 20
-20.7607340365
 10
-9.210719167
 20
-21.0111229081
 10
-5.9524865158
 20
-21.1863999779
 10
-2.6822663489
 20
-21.2862122611
 10
0.5933555454
 20
-21.3103587492
 10
3.8677825006
 20
-21.2587908142
 10
7.1344202566
 20
-21.1316123072
 10
10.3866902397
 20
-20.9290793487
 10
13.6180428109
 20
-20.6515998132
 10
16.8219704563
 20
-20.2997325076
 10
19.9920208918
 20
-19.8741860456
 10
23.1218100579
 20
-19.3758174214
 10
26.2050349756
 20
-18.8056302829
 10
29.2354864403
 20
-18.1647729113
 10
32.207061526
 20
-17.4545359079
 10
35.1137758761
 20
-16.6763495955
 10
37.9497757545
 20
-15.8317811379
 10
40.7093498351
 20
-14.9225313834
 10
43.3869407027
 20
-13.9504314402
 10
45.9771560459
 20
-12.9174389881
 10
48.4747795155
 20
-11.8256343364
 10
50.8747812304
 20
-10.6772162345
 10
53.1723279064
 20
-9.4744974435
 10
55.3627925903
 20
-8.219900079
 10
57.4417639777
 20
-6.9159507331
 10
59.405055297
 20
-5.5652753863
 10
61.2487127408
 20
-4.1705941191
 10
62.9690234282
 20
-2.7347156338
 10
64.5625228825
 20
-1.2605315986
 10
66.0260020078
 20
0.248989176
 10
67.356513552
 20
1.790806716
 10
68.551378042
 20
3.3618160062
 10
69.6081891795
 20
4.9588532428
 10
70.5248186877
 20
6.5787022055
 10
71.2994205966
 20
8.218100734
 10
71.9304349612
 20
9.8737472978
 10
72.4165910025
 20
11.542307645
 10
72.7569096669
 20
13.2204215173
 10
72.9507055979
 20
14.9047094166
 10
72.9975885163
 20
16.5917794112
 10
72.8974640061
 20
18.2782339666
 10
72.6505337049
 20
19.9606767879
 10
72.2572948972
 20
21.6357196591
 10
71.7185395138
 20
23.2999892667
 10
71.0353525364
 20
24.9501339933
 10
70.2091098125
 20
26.582830667
 10
69.241475285
 20
28.194791254
 10
68.1343976412
 20
29.7827694801
 10
66.890106388
 20
31.3435673686
 10
65.5111073625
 20
32.8740416802
 10
64.0001776851
 20
34.3711102434
 10
62.3603601672
 20
35.8317581612
 10
60.594957183
 20
37.2530438832
 10
58.7075240191
 20
38.6321051291
 10
56.7018617149
 20
39.9661646531
 10
54.5820094071
 20
41.2525358367
 10
52.3522361964
 20
42.4886280997
 10
50.0170325491
 20
43.6719521167
 10
47.5811012547
 20
44.8001248307
 10
45.0493479545
 20
45.8708742519
 10
42.4268712629
 20
46.8820440335
 10
39.7189524988
 20
47.8315978141
 10
36.9310450503
 20
48.7176233187
 10
34.0687633919
 20
49.5383362101
 10
31.137871778
 20
50.2920836814
 10
28.1442726343
 20
50.9773477858
 10
25.093994671
 20
51.5927484925
 10
21.993180742
 20
52.1370464663
 10
18.8480754739
 20
52.6091455636
 10
15.6650126901
 20
53.0080950396
 10
12.4504026556
 20
53.3330914632
 10
9.210719167
 20
53.5834803348
 10
5.9524865158
 20
53.7587574046
 10
2.6822663489
 20
53.8585696878
 10
-0.5933555454
 20
53.8827161759
 10
-3.8677825006
 20
53.8311482409
 10
-7.1344202566
 20
53.7039697339
 10
-10.3866902397
 20
53.5014367754
 10
-13.6180428109
 20
53.2239572399
 10
-16.8219704563
 20
52.8720899342
 10
-19.9920208918
 20
52.4465434723
 10
-23.1218100579
 20
51.9481748481
 10
-26.2050349756
 20
51.3779877096
 10
-29.2354864403
 20
50.737130338
 10
-32.207061526
 20
50.0268933345
 10
-35.1137758761
 20
49.2487070222
 10
-37.9497757545
 20
48.4041385645
 10
-40.7093498351
 20
47.4948888101
 10
-43.3869407027
 20
46.5227888669
 10
-45.9771560459
 20
45.4897964148
 10
-48.4747795155
 20
44.3979917631
 10
-50.8747812304
 20
43.2495736612
 10
-53.1723279064
 20
42.0468548701
 10
-55.3627925903
 20
40.7922575056
 10
-57.4417639777
 20
39.4883081598
 10
-59.405055297
 20
38.137632813
 10
-61.2487127408
 20
36.7429515458
 10
-62.9690234282
 20
35.3070730604
 10
-64.5625228825
 20
33.8328890253
 10
-66.0260020078
 20
32.3233682507
 10
-67.356513552
 20
30.7815507106
 10
-68.551378042
 20
29.2105414205
 10
-69.6081891795
 20
27.6135041838
 10
-70.5248186877
 20
25.9936552212
 10
-71.2994205966
 20
24.3542566927
 10
-71.9304349612
 20
22.6986101289
 10
-72.4165910025
 20
21.0300497816
 10
-72.7569096669
 20
19.3519359094
 10
-72.9507055979
 20
17.6676480101
 10
-72.9975885163
 20
15.9805780155
 10
-72.8974640061
 20
14.29412346
 10
-72.6505337049
 20
12.6116806388
 10
-72.2572948972
 20
10.9366377676
 10
-71.7185395138
 20
9.27236816
 10
-71.0353525364
 20
7.6222234333
 10
-70.2091098125
 20
5.9895267597
 10
-69.241475285
 20
4.3775661727
 10
-68.1343976412
 20
2.7895879466
 10
-66.890106388
 20
1.2287900581
 10
-65.5111073625
 20
-0.3016842535
 10
-64.0001776851
 20
-1.7987528167
 10
-62.3603601672
 20
-3.2594007345
 10
-60.594957183
 20
-4.6806864565
 10
-58.7075240191
 20
-6.0597477024
 10
-56.7018617149
 20
-7.3938072264
 10
-54.5820094071
 20
-8.68017841
 10
-52.3522361964
 20
-9.916270673
 10
-50.0170325491
 20
-11.09959469
 10
-47.5811012547
 20
-12.227767404
 10
-45.0493479545
 20
-13.2985168252
 10
-42.4268712629
 20
-14.3096866068
 10
-39.7189524988
 20
-15.2592403874
 10
-36.9310450503
 20
-16.1452658921
 10
-34.0687633919
 20
-16.9659787834
  0
LWPOLYLINE
  5
12B
330
119
100
AcDbEntity
  8
0
  6
Continuous
 62
     7
370
    15
100
AcDbPolyline
 90
       21
 70
   128
 43
0.0
 10
72.9240748671
 20
14.5718441119
 10
72.8974640061
 20
14.8495647638
 10
72.6505337049
 20
16.5320075851
 10
72.2572948972
 20
18.2070504563
 10
71.7185395138
 20
19.8713200639
 10
71.0353525364
 20
21.5214647905
 10
70.2091098125
 20
23.1541614642
 10
69.241475285
 20
24.7661220512
 10
68.1343976412
 20
26.3541002773
 10
66.890106388
 20
27.9148981658
 10
65.5111073625
 20
29.4453724774
 10
64.0001776851
 20
30.9424410406
 10
62.3603601672
 20
32.4030889584
 10
60.594957183
 20
33.8243746804
 10
58.7075240191
 20
35.2034359263
 10
56.7018617149
 20
36.5374954502
 10
54.5820094071
 20
37.8238666339
 10
52.3522361964
 20
39.0599588969
 10
50.0170325491
 20
40.2432829139
 10
47.5811012547
 20
41.3714556279
 10
46.4933223294
 20
41.8435438672
  0
LWPOLYLINE
  5
12C
330
119
100
AcDbEntity
  8
0
  6
Continuous
 62
     7
370
    15
100
AcDbPolyline
 90
       20
 70
   128
 43
0.0
 10
-46.4933223294
 20
41.8435438672
 10
-48.4747795155
 20
40.9693225603
 10
-50.8747812304
 20
39.8209044583
 10
-53.1723279064
 20
38.6181856673
 10
-55.3627925903
 20
37.3635883028
 10
-57.4417639777
 20
36.059638957
 10
-59.405055297
 20
34.7089636102
 10
-61.2487127408
 20
33.3142823429
 10
-62.9690234282
 20
31.8784038576
 10
-64.5625228825
 20
30.4042198225
 10
-66.0260020078
 20
28.8946990479
 10
-67.356513552
 20
27.3528815078
 10
-68.551378042
 20
25.7818722177
 10
-69.6081891795
 20
24.184834981
 10
-70.5248186877
 20
22.5649860184
 10
-71.2994205966
 20
20.9255874899
 10
-71.9304349612
 20
19.2699409261
 10
-72.4165910025
 20
17.6013805788
 10
-72.7569096669
 20
15.9232667066
 10
-72.9240748671
 20
14.5718441119
  0
LWPOLYLINE
  5
12D
330
119
100
AcDbEntity
  8
0
  6
Continuous
 62
     7
370
    15
100
AcDbPolyline
 90
       20
 70
   128
 43
0.0
 10
46.4933223294
 20
-12.6998556433
 10
47.3902071735
 20
-12.2590775641
 10
49.6077639385
 20
-11.0963003929
 10
51.7178813334
 20
-9.8816446033
 10
53.7159893137
 20
-8.6177408694
 10
55.5977604225
 20
-7.3073265252
 10
57.3591191625
 20
-5.9532396364
 10
58.9962508229
 20
-4.5584128537
 10
60.5056097412
 20
-3.1258670613
 10
61.8839269821
 20
-1.6587048343
 10
63.1282174172
 20
-0.1601037195
 10
64.2357861905
 20
1.3666906468
 10
65.2042345549
 20
2.9183715681
 10
66.0314650666
 20
4.4915784489
 10
66.7156861288
 20
6.0829040735
 10
67.2554158708
 20
7.6889019849
 10
67.6494853583
 20
9.3060939493
 10
67.8970411244
 20
10.930977489
 10
67.9975470187
 20
12.560033468
 10
68.0
 20
12.8575095105
  0
LWPOLYLINE
  5
12E
330
119
100
AcDbEntity
  8
0
  6
Continuous
 62
     7
370
    15
100
AcDbPolyline
 90
       20
 70
   128
 43
0.0
 10
-68.0
 20
12.8575095105
 10
-67.9925757827
 20
12.3399953086
 10
-67.8721984034
 20
10.7112967287
 10
-67.6048249558
 20
9.0872463677
 10
-67.1910345115
 20
7.4713615572
 10
-66.6317232483
 20
5.8671419437
 10
-65.9281025099
 20
4.2780619098
 10
-65.0816961821
 20
2.707563049
 10
-64.0943373926
 20
1.159046712
 10
-62.9681645407
 20
-0.3641333595
 10
-61.7056166659
 20
-1.8586782967
 10
-60.3094281658
 20
-3.3213512481
 10
-58.7826228739
 20
-4.7489843897
 10
-57.1285075104
 20
-6.1384857861
 10
-55.3506645208
 20
-7.4868460867
 10
-53.4529443171
 20
-8.7911450433
 10
-51.4394569389
 20
-10.0485578347
 10
-49.3145631513
 20
-11.256361185
 10
-47.0828650011
 20
-12.4119392609
 10
-46.4933223294
 20
-12.6998556433
  0
LWPOLYLINE
  5
12F
330
119
100
AcDbEntity
  8
0
  6
Continuous
 62
     7
370
    15
100
AcDbPolyline
 90
      136
 70
   128
 43
0.0
 10
-31.7352864472
 20
-14.6884337494
 10
-28.9028682781
 20
-15.4153423766
 10
-26.0078529323
 20
-16.0735925683
 10
-23.0565103684
 20
-16.6617587012
 10
-20.0552325372
 20
-17.1785669385
 10
-17.0105195382
 20
-17.6228979884
 10
-13.9289655417
 20
-17.993789529
 10
-10.8172445074
 20
-18.2904382918
 10
-7.6820957304
 20
-18.5122018016
 10
-4.5303092446
 20
-18.6585997679
 10
-1.3687111178
 20
-18.7293151255
 10
1.7958513325
 20
-18.7241947205
 10
4.9565243688
 20
-18.6432496427
 10
8.1064626769
 20
-18.4866552011
 10
11.238844192
 20
-18.2547505443
 10
14.3468848733
 20
-17.9480379263
 10
17.4238533966
 20
-17.5671816181
 10
20.4630857333
 20
-17.1130064699
 10
23.457999583
 20
-16.5864961237
 10
26.4021086292
 20
-15.9887908839
 10
29.2890365872
 20
-15.3211852468
 10
32.112531014
 20
-14.5851250976
 10
34.8664768493
 20
-13.7822045787
 10
37.5449096597
 20
-12.9141626371
 10
40.1420285562
 20
-11.9828792584
 10
42.6522087576
 20
-10.990371395
 10
45.0700137724
 20
-9.9387885979
 10
47.3902071735
 20
-8.8304083613
 10
49.6077639385
 20
-7.66763119
 10
51.7178813334
 20
-6.4529754005
 10
53.7159893137
 20
-5.1890716666
 10
55.5977604225
 20
-3.8786573224
 10
57.3591191625
 20
-2.5245704336
 10
58.9962508229
 20
-1.1297436509
 10
60.5056097412
 20
0.3028021415
 10
61.8839269821
 20
1.7699643685
 10
63.1282174172
 20
3.2685654833
 10
64.2357861905
 20
4.7953598496
 10
65.2042345549
 20
6.3470407709
 10
66.0314650666
 20
7.9202476517
 10
66.7156861288
 20
9.5115732763
 10
67.2554158708
 20
11.1175711877
 10
67.6494853583
 20
12.7347631521
 10
67.8970411244
 20
14.3596466918
 10
67.9975470187
 20
15.9887026708
 10
67.9507853675
 20
17.6184029167
 10
67.7568574464
 20
19.2452178616
 10
67.4161832599
 20
20.8656241867
 10
66.9295006325
 20
22.4761124526
 10
66.2978636104
 20
24.0731947004
 10
65.5226401788
 20
25.6534120055
 10
64.6055092989
 20
27.2133419692
 10
63.548457272
 20
28.7496061305
 10
62.3537734374
 20
30.2588772833
 10
61.0240452144
 20
31.7378866825
 10
59.562152498
 20
33.1834311229
 10
57.9712614225
 20
34.5923798772
 10
56.2548175036
 20
35.9616814762
 10
54.4165381767
 20
37.2883703175
 10
52.4604047453
 20
38.5695730885
 10
50.390653759
 20
39.8025149892
 10
48.2117678376
 20
40.9845257421
 10
45.9284659626
 20
42.1130453752
 10
43.5456932576
 20
43.185629766
 10
41.0686102776
 20
44.1999559358
 10
38.5025818328
 20
45.1538270799
 10
35.8531653694
 20
46.0451773258
 10
33.1260989334
 20
46.8720762073
 10
30.3272887436
 20
47.6327328457
 10
27.4627963996
 20
48.3254998279
 10
24.5388257539
 20
48.948876775
 10
21.5617094758
 20
49.5015135914
 10
18.5378953364
 20
49.9822133887
 10
15.4739322435
 20
50.3899350783
 10
12.3764560592
 20
50.7237956256
 10
9.252175227
 20
50.9830719633
 10
6.1078562434
 20
51.1672025563
 10
2.9503090034
 20
51.2757886189
 10
-0.213627949
 20
51.3085949778
 10
-3.3771022309
 20
51.2655505818
 10
-6.5332624613
 20
51.1467486554
 10
-9.6752731
 20
50.9524464972
 10
-12.7963292517
 20
50.6830649223
 10
-15.8896714036
 20
50.3391873513
 10
-18.9486000656
 20
49.9215585464
 10
-21.9664902792
 20
49.4310829987
 10
-24.9368059663
 20
48.8688229688
 10
-27.8531140845
 20
48.2359961869
 10
-30.7090985599
 20
47.5339732149
 10
-33.498573966
 20
46.7642744781
 10
-36.2154989203
 20
45.9285669727
 10
-38.8539891683
 20
45.0286606549
 10
-41.4083303276
 20
44.0665045216
 10
-43.8729902641
 20
43.0441823886
 10
-46.2426310732
 20
41.9639083781
 10
-48.5121206406
 20
40.8280221229
 10
-50.6765437572
 20
39.6389836999
 10
-52.7312127645
 20
38.3993683013
 10
-54.6716777071
 20
37.1118606582
 10
-56.4937359698
 20
35.7792492255
 10
-58.1934413803
 20
34.4044201426
 10
-59.7671127551
 20
32.9903509833
 10
-61.2113418724
 20
31.5401043066
 10
-62.5230008536
 20
30.0568210237
 10
-63.6992489374
 20
28.5437135959
 10
-64.7375386323
 20
27.0040590771
 10
-65.6356212341
 20
25.441192016
 10
-66.3915516959
 20
23.8584972347
 10
-67.0036928406
 20
22.2594024977
 10
-67.4707189068
 20
20.6473710881
 10
-67.79161842
 20
19.0258943069
 10
-67.9656963833
 20
17.3984839118
 10
-67.9925757827
 20
15.7686645114
 10
-67.8721984034
 20
14.1399659315
 10
-67.6048249558
 20
12.5159155705
 10
-67.1910345115
 20
10.90003076
 10
-66.6317232483
 20
9.2958111465
 10
-65.9281025099
 20
7.7067311126
 10
-65.0816961821
 20
6.1362322518
 10
-64.0943373926
 20
4.5877159148
 10
-62.9681645407
 20
3.0645358433
 10
-61.7056166659
 20
1.5699909061
 10
-60.3094281658
 20
0.1073179547
 10
-58.7826228739
 20
-1.3203151869
 10
-57.1285075104
 20
-2.7098165833
 10
-55.3506645208
 20
-4.0581768839
 10
-53.4529443171
 20
-5.3624758405
 10
-51.4394569389
 20
-6.6198886319
 10
-49.3145631513
 20
-7.8276919822
 10
-47.0828650011
 20
-8.9832700581
 10
-44.7491958496
 20
-10.0841201349
 10
-42.3186099045
 20
-11.1278580165
 10
-39.7963712737
 20
-12.112223199
 10
-37.1879425645
 20
-13.0350837666
 10
-34.4989730526
 20
-13.8944410089
 10
-31.7352864472
 20
-14.6884337494
  0
LWPOLYLINE
  5
130
330
119
100
AcDbEntity
  8
0
  6
Continuous
 62
     7
370
    15
100
AcDbPolyline
 90
       41
 70
   128
 43
0.0
 10
-25.6682463912
 20
-8.7668166609
 10
-23.1301317056
 20
-9.414154173
 10
-20.5306800689
 20
-9.9933390225
 10
-17.8767847594
 20
-10.5028353152
 10
-15.1754834304
 20
-10.9412919585
 10
-12.4339394475
 20
-11.3075462443
 10
-9.6594228924
 20
-11.600626932
 10
-6.8592912843
 20
-11.8197568243
 10
-4.0409700688
 20
-11.9643548282
 10
-1.211932927
 20
-12.0340374958
 10
1.6203180429
 20
-12.028620041
 10
4.4482722207
 20
-11.9481168301
 10
7.2644303802
 20
-11.7927413431
 10
10.0613245763
 20
-11.5629056079
 10
12.8315379484
 20
-11.2592191074
 10
15.5677243885
 20
-10.8824871637
 10
18.2626280221
 20
-10.4337088023
 10
20.9091024493
 20
-9.9140741026
 10
23.5001296956
 20
-9.3249610424
 10
26.0288388226
 20
-8.6679318437
 10
28.4885241482
 20
-7.9447288297
 10
30.8726630291
 20
-7.157269805
 10
33.1749331577
 20
-6.3076429692
 10
35.3892293274
 20
-5.39810138
 10
37.5096796228
 20
-4.4310569782
 10
39.5306609909
 20
-3.4090741916
 10
41.4468141525
 20
-2.334863135
 10
43.2530578139
 20
-1.2112724228
 10
44.9446021415
 20
-0.0412816158
 10
46.5169614639
 20
1.1720066809
 10
47.9659661669
 20
2.4253750447
 10
49.2877737504
 20
3.7154997681
 10
50.4788790184
 20
5.0389596722
 10
51.5361233738
 20
6.3922451793
 10
52.4567031946
 20
7.7717676195
 10
53.2381772687
 20
9.1738687473
 10
53.8784732672
 20
10.5948304426
 10
54.3758932404
 20
12.0308845703
 10
54.7291181199
 20
13.4782229732
 10
54.9372112167
 20
14.9330075698
 10
55.0
 20
16.2861787133
  0
LWPOLYLINE
  5
131
330
119
100
AcDbEntity
  8
0
  6
Continuous
 62
     7
370
    15
100
AcDbPolyline
 90
       23
 70
   128
 43
0.0
 10
-55.0
 20
16.2861787133
 10
-54.9996207054
 20
16.1809768936
 10
-54.9161810873
 20
14.7228829066
 10
-54.6871136292
 20
13.2689344991
 10
-54.3130257768
 20
11.8229872808
 10
-53.7949095439
 20
10.3888756439
 10
-53.1341388816
 20
8.9704025945
 10
-52.3324660349
 20
7.5713296682
 10
-51.392016896
 20
6.195366955
 10
-50.3152853671
 20
4.8461632605
 10
-49.1051267465
 20
3.5272964304
 10
-47.7647501575
 20
2.2422638625
 10
-46.2977100376
 20
0.9944732321
 10
-44.7078967137
 20
-0.2127665443
 10
-42.9995260847
 20
-1.376254084
 10
-41.1771284427
 20
-2.492904027
 10
-39.2455364584
 20
-3.5597552185
 10
-37.2098723665
 20
-4.5739785609
 10
-35.0755343824
 20
-5.5328845163
 10
-32.8481823866
 20
-6.4339302384
 10
-30.5337229162
 20
-7.2747263159
 10
-28.1382935016
 20
-8.0530431088
 10
-25.6682463912
 20
-8.7668166609
  0
LWPOLYLINE
  5
133
330
119
100
AcDbEntity
  8
0
  6
Continuous
 62
     7
370
    15
100
AcDbPolyline
 90
       33
 70
   128
 43
0.0
 10
59.1521820761
 20
-22.900491142
 10
57.7752095499
 20
-23.8147343848
 10
55.6580636346
 20
-25.116648797
 10
53.4304137858
 20
-26.368696428
 10
51.0966827962
 20
-27.5683914531
 10
48.6615040727
 20
-28.7133519887
 10
46.1297124372
 20
-29.8013048218
 10
43.5063345275
 20
-30.8300899227
 10
40.7965788179
 20
-31.7976647339
 10
38.0058252772
 20
-32.7021082251
 10
35.1396146885
 20
-33.5416247074
 10
32.2036376475
 20
-34.3145473986
 10
29.2037232649
 20
-35.0193417323
 10
26.1458275929
 20
-35.6546084045
 10
23.0360218004
 20
-36.2190861521
 10
19.880480119
 20
-36.7116542567
 10
16.6854675845
 20
-37.13133477
 10
13.4573275986
 20
-37.4772944551
 10
10.2024693344
 20
-37.7488464412
 10
6.9273550117
 20
-37.9454515868
 10
3.6384870669
 20
-38.0667195507
 10
0.3423952429
 20
-38.1124095666
 10
-2.9543763753
 20
-38.0824309211
 10
-6.2452823526
 20
-37.9768431342
 10
-9.5237888999
 20
-37.7958558404
 10
-12.7833868459
 20
-37.5398283735
 10
-16.0176045606
 20
-37.2092690522
 10
-19.2200208041
 20
-36.8048341714
 10
-22.3842774754
 20
-36.3273266992
 10
-25.5040922358
 20
-35.7776946824
 10
-28.5732709818
 20
-35.1570293646
 10
-31.5857201431
 20
-34.4665630193
 10
-34.5354587808
 20
-33.7076665035
  0
LWPOLYLINE
  5
134
330
119
100
AcDbEntity
  8
0
  6
Continuous
 62
     7
370
    15
100
AcDbPolyline
 90
      123
 70
   128
 43
0.0
 10
-25.6682463912
 20
-7.9096493602
 10
-23.1301317056
 20
-8.5569868723
 10
-20.5306800689
 20
-9.1361717218
 10
-17.8767847594
 20
-9.6456680145
 10
-15.1754834304
 20
-10.0841246578
 10
-12.4339394475
 20
-10.4503789436
 10
-9.6594228924
 20
-10.7434596313
 10
-6.8592912843
 20
-10.9625895236
 10
-4.0409700688
 20
-11.1071875275
 10
-1.211932927
 20
-11.1768701951
 10
1.6203180429
 20
-11.1714527403
 10
4.4482722207
 20
-11.0909495294
 10
7.2644303802
 20
-10.9355740424
 10
10.0613245763
 20
-10.7057383072
 10
12.8315379484
 20
-10.4020518067
 10
15.5677243885
 20
-10.025319863
 10
18.2626280221
 20
-9.5765415016
 10
20.9091024493
 20
-9.0569068019
 10
23.5001296956
 20
-8.4677937417
 10
26.0288388226
 20
-7.810764543
 10
28.4885241482
 20
-7.087561529
 10
30.8726630291
 20
-6.3001025043
 10
33.1749331577
 20
-5.4504756685
 10
35.3892293274
 20
-4.5409340793
 10
37.5096796228
 20
-3.5738896775
 10
39.5306609909
 20
-2.5519068909
 10
41.4468141525
 20
-1.4776958343
 10
43.2530578139
 20
-0.3541051221
 10
44.9446021415
 20
0.8158856849
 10
46.5169614639
 20
2.0291739816
 10
47.9659661669
 20
3.2825423454
 10
49.2877737504
 20
4.5726670688
 10
50.4788790184
 20
5.8961269729
 10
51.5361233738
 20
7.24941248
 10
52.4567031946
 20
8.6289349202
 10
53.2381772687
 20
10.031036048
 10
53.8784732672
 20
11.4519977433
 10
54.3758932404
 20
12.888051871
 10
54.7291181199
 20
14.3353902739
 10
54.9372112167
 20
15.7901748705
 10
54.9996207054
 20
17.2485478338
 10
54.9161810873
 20
18.7066418208
 10
54.6871136292
 20
20.1605902283
 10
54.3130257768
 20
21.6065374466
 10
53.7949095439
 20
23.0406490835
 10
53.1341388816
 20
24.4591221329
 10
52.3324660349
 20
25.8581950591
 10
51.392016896
 20
27.2341577724
 10
50.3152853671
 20
28.5833614669
 10
49.1051267465
 20
29.9022282969
 10
47.7647501575
 20
31.1872608649
 10
46.2977100376
 20
32.4350514953
 10
44.7078967137
 20
33.6422912717
 10
42.9995260847
 20
34.8057788114
 10
41.1771284427
 20
35.9224287544
 10
39.2455364584
 20
36.9892799459
 10
37.2098723665
 20
38.0035032883
 10
35.0755343824
 20
38.9624092437
 10
32.8481823866
 20
39.8634549657
 10
30.5337229162
 20
40.7042510433
 10
28.1382935016
 20
41.4825678362
 10
25.6682463912
 20
42.1963413883
 10
23.1301317056
 20
42.8436789004
 10
20.5306800689
 20
43.4228637499
 10
17.8767847594
 20
43.9323600426
 10
15.1754834304
 20
44.3708166859
 10
12.4339394475
 20
44.7370709717
 10
9.6594228924
 20
45.0301516594
 10
6.8592912843
 20
45.2492815517
 10
4.0409700688
 20
45.3938795556
 10
1.211932927
 20
45.4635622232
 10
-1.6203180429
 20
45.4581447684
 10
-4.4482722207
 20
45.3776415575
 10
-7.2644303802
 20
45.2222660705
 10
-10.0613245763
 20
44.9924303352
 10
-12.8315379484
 20
44.6887438348
 10
-15.5677243885
 20
44.3120118911
 10
-18.2626280221
 20
43.8632335297
 10
-20.9091024493
 20
43.3435988299
 10
-23.5001296956
 20
42.7544857698
 10
-26.0288388226
 20
42.097456571
 10
-28.4885241482
 20
41.3742535571
 10
-30.8726630291
 20
40.5867945324
 10
-33.1749331577
 20
39.7371676966
 10
-35.3892293274
 20
38.8276261074
 10
-37.5096796228
 20
37.8605817056
 10
-39.5306609909
 20
36.838598919
 10
-41.4468141525
 20
35.7643878624
 10
-43.2530578139
 20
34.6407971502
 10
-44.9446021415
 20
33.4708063432
 10
-46.5169614639
 20
32.2575180465
 10
-47.9659661669
 20
31.0041496827
 10
-49.2877737504
 20
29.7140249593
 10
-50.4788790184
 20
28.3905650552
 10
-51.5361233738
 20
27.0372795481
 10
-52.4567031946
 20
25.6577571079
 10
-53.2381772687
 20
24.2556559801
 10
-53.8784732672
 20
22.8346942848
 10
-54.3758932404
 20
21.3986401571
 10
-54.7291181199
 20
19.9513017542
 10
-54.9372112167
 20
18.4965171576
 10
-54.9996207054
 20
17.0381441943
 10
-54.9161810873
 20
15.5800502073
 10
-54.6871136292
 20
14.1261017998
 10
-54.3130257768
 20
12.6801545815
 10
-53.7949095439
 20
11.2460429446
 10
-53.1341388816
 20
9.8275698952
 10
-52.3324660349
 20
8.4284969689
 10
-51.392016896
 20
7.0525342557
 10
-50.3152853671
 20
5.7033305612
 10
-49.1051267465
 20
4.3844637311
 10
-47.7647501575
 20
3.0994311632
 10
-46.2977100376
 20
1.8516405328
 10
-44.7078967137
 20
0.6444007564
 10
-42.9995260847
 20
-0.5190867833
 10
-41.1771284427
 20
-1.6357367263
 10
-39.2455364584
 20
-2.7025879178
 10
-37.2098723665
 20
-3.7168112602
 10
-35.0755343824
 20
-4.6757172156
 10
-32.8481823866
 20
-5.5767629377
 10
-30.5337229162
 20
-6.4175590152
 10
-28.1382935016
 20
-7.1958758081
 10
-25.6682463912
 20
-7.9096493602
  0
LWPOLYLINE
  5
135
330
119
100
AcDbEntity
  8
0
  6
Continuous
 62
     7
370
    15
100
AcDbPolyline
 90
       91
 70
   128
 43
0.0
 10
-14.0008616679
 20
3.4780758099
 10
-12.1159395881
 20
3.0083514047
 10
-10.1719898684
 20
2.6074912723
 10
-8.1784832366
 20
2.2774483631
 10
-6.1451318566
 20
2.019830613
 10
-4.0818420119
 20
1.8358931097
 10
-1.9986658432
 20
1.7265319782
 10
0.0942476246
 20
1.692280015
 10
2.1867019274
 20
1.7333040922
 10
4.2685028382
 20
1.8494043447
 10
6.3295080323
 20
2.0400151436
 10
8.3596764995
 20
2.3042078524
 10
10.3491174631
 20
2.6406953506
 10
12.2881385667
 20
3.0478383051
 10
14.1672930944
 20
3.5236531563
 10
15.9774259942
 20
4.065821782
 10
17.7097184807
 20
4.6717027912
 10
19.3557309989
 20
5.3383443926
 10
20.9074443413
 20
6.0624987752
 10
22.3572987164
 20
6.8406379317
 10
23.6982305796
 20
7.6689708464
 10
24.9237070455
 20
8.5434619646
 10
26.027757716
 20
9.4598508534
 10
27.0050037672
 20
10.4136729582
 10
27.8506841546
 20
11.4002813537
 10
28.5606788084
 20
12.414869383
 10
29.1315287059
 20
13.4524940751
 10
29.5604527238
 20
14.5081002268
 10
29.8453611875
 20
15.5765450311
 10
29.9848660515
 20
16.6526231324
 10
29.9782876621
 20
17.7310919861
 10
29.8256580687
 20
18.8066974006
 10
29.5277208673
 20
19.8741991343
 10
29.0859275779
 20
20.9283964261
 10
28.502430573
 20
21.9641533328
 10
27.7800725915
 20
22.9764237508
 10
26.9223728887
 20
23.9602760004
 10
25.9335100914
 20
24.9109168524
 10
24.8183018398
 20
25.82371488
 10
23.5821813164
 20
26.6942230231
 10
22.231170776
 20
27.5182002534
 10
20.7718522064
 20
28.2916322367
 10
19.2113352607
 20
29.0107508902
 10
17.5572226208
 20
29.6720527401
 10
15.8175729571
 20
30.2723159901
 10
14.0008616679
 20
30.8086162182
 10
12.1159395881
 20
31.2783406234
 10
10.1719898684
 20
31.6792007558
 10
8.1784832366
 20
32.0092436649
 10
6.1451318566
 20
32.2668614151
 10
4.0818420119
 20
32.4507989184
 10
1.9986658432
 20
32.5601600499
 10
-0.0942476246
 20
32.5944120131
 10
-2.1867019274
 20
32.5533879358
 10
-4.2685028382
 20
32.4372876834
 10
-6.3295080323
 20
32.2466768845
 10
-8.3596764995
 20
31.9824841757
 10
-10.3491174631
 20
31.6459966775
 10
-12.2881385667
 20
31.238853723
 10
-14.1672930944
 20
30.7630388718
 10
-15.9774259942
 20
30.2208702461
 10
-17.7097184807
 20
29.6149892369
 10
-19.3557309989
 20
28.9483476355
 10
-20.9074443413
 20
28.2241932529
 10
-22.3572987164
 20
27.4460540963
 10
-23.6982305796
 20
26.6177211816
 10
-24.9237070455
 20
25.7432300635
 10
-26.027757716
 20
24.8268411747
 10
-27.0050037672
 20
23.8730190699
 10
-27.8506841546
 20
22.8864106744
 10
-28.5606788084
 20
21.8718226451
 10
-29.1315287059
 20
20.834197953
 10
-29.5604527238
 20
19.7785918013
 10
-29.8453611875
 20
18.7101469969
 10
-29.9848660515
 20
17.6340688957
 10
-29.9782876621
 20
16.555600042
 10
-29.8256580687
 20
15.4799946275
 10
-29.5277208673
 20
14.4124928938
 10
-29.0859275779
 20
13.358295602
 10
-28.502430573
 20
12.3225386953
 10
-27.7800725915
 20
11.3102682773
 10
-26.9223728887
 20
10.3264160277
 10
-25.9335100914
 20
9.3757751757
 10
-24.8183018398
 20
8.4629771481
 10
-23.5821813164
 20
7.592469005
 10
-22.231170776
 20
6.7684917747
 10
-20.7718522064
 20
5.9950597913
 10
-19.2113352607
 20
5.2759411379
 10
-17.5572226208
 20
4.614639288
 10
-15.8175729571
 20
4.014376038
 10
-14.0008616679
 20
3.4780758099
  0
LWPOLYLINE
  5
136
330
119
100
AcDbEntity
  8
0
  6
Continuous
 62
     7
370
    15
100
AcDbPolyline
 90
       43
 70
   128
 43
0.0
 10
29.5816085472
 20
14.5718441119
 10
29.5277208673
 20
14.7311953301
 10
29.0859275779
 20
15.7853926219
 10
28.502430573
 20
16.8211495286
 10
27.7800725915
 20
17.8334199466
 10
26.9223728887
 20
18.8172721962
 10
25.9335100914
 20
19.7679130482
 10
24.8183018398
 20
20.6807110758
 10
23.5821813164
 20
21.5512192189
 10
22.231170776
 20
22.3751964492
 10
20.7718522064
 20
23.1486284325
 10
19.2113352607
 20
23.867747086
 10
17.5572226208
 20
24.5290489359
 10
15.8175729571
 20
25.1293121859
 10
14.0008616679
 20
25.665612414
 10
12.1159395881
 20
26.1353368192
 10
10.1719898684
 20
26.5361969515
 10
8.1784832366
 20
26.8662398607
 10
6.1451318566
 20
27.1238576109
 10
4.0818420119
 20
27.3077951142
 10
1.9986658432
 20
27.4171562457
 10
-0.0942476246
 20
27.4514082089
 10
-2.1867019274
 20
27.4103841316
 10
-4.2685028382
 20
27.2942838792
 10
-6.3295080323
 20
27.1036730802
 10
-8.3596764995
 20
26.8394803715
 10
-10.3491174631
 20
26.5029928732
 10
-12.2881385667
 20
26.0958499188
 10
-14.1672930944
 20
25.6200350676
 10
-15.9774259942
 20
25.0778664419
 10
-17.7097184807
 20
24.4719854327
 10
-19.3557309989
 20
23.8053438313
 10
-20.9074443413
 20
23.0811894487
 10
-22.3572987164
 20
22.3030502921
 10
-23.6982305796
 20
21.4747173774
 10
-24.9237070455
 20
20.6002262593
 10
-26.027757716
 20
19.6838373705
 10
-27.0050037672
 20
18.7300152657
 10
-27.8506841546
 20
17.7434068701
 10
-28.5606788084
 20
16.7288188409
 10
-29.1315287059
 20
15.6911941488
 10
-29.5604527238
 20
14.6355879971
 10
-29.5816085472
 20
14.5718441119
  0
LWPOLYLINE
  5
137
330
119
100
AcDbEntity
  8
0
  6
Continuous
 62
     7
370
    15
100
AcDbPolyline
 90
       35
 70
   128
 43
0.0
 10
-2.1001292502
 20
9.9505516792
 10
-1.3330692435
 20
9.7867012306
 10
-0.5206131625
 20
9.6982336706
 10
0.3095717753
 20
9.6881616558
 10
1.1292146176
 20
9.7568281767
 10
1.9104034104
 20
9.9018948771
 10
2.6265357064
 20
10.1184216847
 10
3.2532244791
 20
10.3990350386
 10
3.7691285939
 20
10.7341789876
 10
4.1566795551
 20
11.1124406066
 10
4.4026797794
 20
11.5209386498
 10
4.4987520242
 20
11.9457622063
 10
4.4416246645
 20
12.3724444193
 10
4.233243104
 20
12.7864551378
 10
3.8807035268
 20
13.1736957234
 10
3.3960112454
 20
13.5209791624
 10
2.7956718741
 20
13.8164791338
 10
2.1001292502
 20
14.0501327404
 10
1.3330692435
 20
14.213983189
 10
0.5206131625
 20
14.302450749
 10
-0.3095717753
 20
14.3125227638
 10
-1.1292146176
 20
14.243856243
 10
-1.9104034104
 20
14.0987895425
 10
-2.6265357064
 20
13.882262735
 10
-3.2532244791
 20
13.6016493811
 10
-3.7691285939
 20
13.266505432
 10
-4.1566795551
 20
12.888243813
 10
-4.4026797794
 20
12.4797457698
 10
-4.4987520242
 20
12.0549222134
 10
-4.4416246645
 20
11.6282400004
 10
-4.233243104
 20
11.2142292819
 10
-3.8807035268
 20
10.8269886962
 10
-3.3960112454
 20
10.4797052572
 10
-2.7956718741
 20
10.1842052859
 10
-2.1001292502
 20
9.9505516792
  0
LINE
  5
138
330
119
100
AcDbEntity
  8
0
  6
Continuous
 62
     7
370
    15
100
AcDbLine
 10
75.0
 20
0.8571673007
 30
0.0
 11
75.0
 21
16.2861787133
 31
0.0
  0
LINE
  5
139
330
119
100
AcDbEntity
  8
0
  6
Continuous
 62
     7
370
    15
100
AcDbLine
 10
-75.0
 20
16.2861787133
 30
0.0
 11
-75.0
 21
0.8571673007
 31
0.0
  0
LINE
  5
13A
330
119
100
AcDbEntity
  8
0
  6
Continuous
 62
     7
370
    15
100
AcDbLine
 10
-68.0
 20
16.2861787133
 30
0.0
 11
-68.0
 21
12.8575095105
 31
0.0
  0
LINE
  5
13B
330
119
100
AcDbEntity
  8
0
  6
Continuous
 62
     7
370
    15
100
AcDbLine
 10
68.0
 20
12.8575095105
 30
0.0
 11
68.0
 21
16.2861787133
 31
0.0
  0
LINE
  5
13C
330
119
100
AcDbEntity
  8
0
  6
Continuous
 62
     7
370
    15
100
AcDbLine
 10
-59.9515358879
 20
-22.3527899378
 30
0.0
 11
-59.1521820761
 21
-22.900491142
 31
0.0
  0
LINE
  5
13D
330
119
100
AcDbEntity
  8
0
  6
Continuous
 62
     7
370
    15
100
AcDbLine
 10
59.1521820761
 20
-22.900491142
 30
0.0
 11
59.9515358879
 21
-22.3527899378
 31
0.0
  0
LINE
  5
13E
330
119
100
AcDbEntity
  8
0
  6
Continuous
 62
     7
370
    15
100
AcDbLine
 10
-55.0
 20
17.143346014
 30
0.0
 11
-55.0
 21
16.2861787133
 31
0.0
  0
LINE
  5
13F
330
119
100
AcDbEntity
  8
0
  6
Continuous
 62
     7
370
    15
100
AcDbLine
 10
55.0
 20
16.2861787133
 30
0.0
 11
55.0
 21
17.143346014
 31
0.0
  0
ARC
  5
140
330
119
100
AcDbEntity
  8
0
  6
Continuous
 62
     7
370
    15
100
AcDbCircle
 10
-14.4756834053
 20
45.424480771
 30
0.0
 40
81.63511083100398
100
AcDbArc
 50
236.8200323546
 51
255.7753258452
  0
VIEWPORT
  5
170
330
119
100
AcDbEntity
  8
0
100
AcDbViewport
 10
0.0
 20
0.0
 30
0.0
 40
243.84
 41
204.216
 68
     1
 69
     1
 12
0.0
 22
0.0
 13
0.0
 23
0.0
 14
10.0
 24
10.0
 15
10.0
 25
10.0
 16
0.0
 26
0.0
 36
1.0
 17
0.0
 27
0.0
 37
0.0
 42
50.0
 43
0.0
 44
0.0
 45
453.6031772252
 50
0.0
 51
0.0
 72
   100
 90
   557152
  1

281
     0
 71
     1
 74
     0
110
0.0
120
0.0
130
0.0
111
1.0
121
0.0
131
0.0
112
0.0
122
1.0
132
0.0
 79
     0
146
0.0
  0
ENDBLK
  5
11C
330
119
100
AcDbEntity
  8
0
100
AcDbBlockEnd
  0
BLOCK
  5
143
330
141
100
AcDbEntity
  8
0
100
AcDbBlockBegin
  2
*Paper_Space8
 70
     0
 10
0.0
 20
0.0
 30
0.0
  3
*Paper_Space8
  1

  0
LWPOLYLINE
  5
145
330
141
100
AcDbEntity
  8
0
  6
Continuous
 62
     7
100
AcDbPolyline
 90
       17
 70
   128
 43
0.0
 10
-19.235272978
 20
-19.2179481599
 10
-19.9709506953
 20
-19.4314595803
 10
-20.8957501305
 20
-19.5348745203
 10
-21.8688789529
 20
-19.5124489927
 10
-22.7421871207
 20
-19.3675970808
 10
-23.3827213821
 20
-19.1223711751
 10
-23.6929662021
 20
-18.8141046968
 10
-23.6256896192
 20
-18.4897284227
 10
-23.1911338834
 20
-18.1986257001
 10
-22.4554561662
 20
-17.9851142797
 10
-21.530656731
 20
-17.8816993398
 10
-20.5575279086
 20
-17.9041248674
 10
-19.6842197407
 20
-18.0489767793
 10
-19.0436854794
 20
-18.294202685
 10
-18.7334406594
 20
-18.6024691633
 10
-18.8007172422
 20
-18.9268454374
 10
-19.235272978
 20
-19.2179481599
  0
LWPOLYLINE
  5
146
330
141
100
AcDbEntity
  8
0
  6
Continuous
 62
     7
100
AcDbPolyline
 90
       69
 70
   128
 43
0.0
 10
185.7254320387
 20
-47.8566129488
 10
171.6862065862
 20
-53.3646587151
 10
156.1822149539
 20
-58.4174160291
 10
139.3457317319
 20
-62.9717765469
 10
121.3203998588
 20
-66.9888840704
 10
102.2600051104
 20
-70.4344660547
 10
82.3271640542
 20
-73.2791260091
 10
61.6919366621
 20
-75.4985942979
 10
40.5303754184
 20
-77.0739352002
 10
19.0230233022
 20
-77.9917084628
 10
-2.6466265415
 20
-78.244083968
 10
-24.2936963007
 20
-77.8289085368
 10
-45.7335008088
 20
-76.7497242997
 10
-66.7831232132
 20
-75.015738476
 10
-87.2629755574
 20
-72.6417448215
 10
-106.9983309621
 20
-69.6479974129
 10
-125.8208143337
 20
-66.0600378476
 10
-143.5698388805
 20
-61.9084773315
 10
-160.0939761833
 20
-57.2287355151
 10
-175.2522481289
 20
-52.0607383056
 10
-188.9153296856
 20
-46.4485772329
 10
-200.9666522591
 20
-40.4401332766
 10
-211.3033982144
 20
-34.086668362
 10
-219.8373780796
 20
-27.4423880115
 10
-226.4957829475
 20
-20.5639788825
 10
-231.2218056555
 20
-13.5101251362
 10
-233.9751254441
 20
-6.3410077659
 10
-234.7322519597
 20
0.882208847
 10
-233.4867256659
 20
8.097898765
 10
-230.2491729538
 20
15.244500266
 10
-225.0472154816
 20
22.2610410658
 10
-217.9252345164
 20
29.0876585122
 10
-208.9439922885
 20
35.6661103122
 10
-198.18011359
 20
41.9402714346
 10
-185.7254320387
 20
47.8566129488
 10
-171.6862065862
 20
53.3646587151
 10
-156.1822149539
 20
58.4174160291
 10
-139.3457317319
 20
62.9717765469
 10
-121.3203998588
 20
66.9888840704
 10
-102.2600051104
 20
70.4344660547
 10
-82.3271640542
 20
73.2791260091
 10
-61.6919366621
 20
75.4985942979
 10
-40.5303754184
 20
77.0739352002
 10
-19.0230233022
 20
77.9917084628
 10
2.6466265415
 20
78.244083968
 10
24.2936963007
 20
77.8289085368
 10
45.7335008088
 20
76.7497242997
 10
66.7831232132
 20
75.015738476
 10
87.2629755574
 20
72.6417448215
 10
106.9983309621
 20
69.6479974129
 10
125.8208143337
 20
66.0600378476
 10
143.5698388805
 20
61.9084773315
 10
160.0939761833
 20
57.2287355151
 10
175.2522481289
 20
52.0607383056
 10
188.9153296856
 20
46.4485772329
 10
200.9666522591
 20
40.4401332766
 10
211.3033982144
 20
34.086668362
 10
219.8373780796
 20
27.4423880115
 10
226.4957829475
 20
20.5639788825
 10
231.2218056555
 20
13.5101251362
 10
233.9751254441
 20
6.3410077659
 10
234.7322519597
 20
-0.882208847
 10
233.4867256659
 20
-8.097898765
 10
230.2491729538
 20
-15.244500266
 10
225.0472154816
 20
-22.2610410658
 10
217.9252345164
 20
-29.0876585122
 10
208.9439922885
 20
-35.6661103122
 10
198.18011359
 20
-41.9402714346
 10
185.7254320387
 20
-47.8566129488
  0
LWPOLYLINE
  5
14F
330
141
100
AcDbEntity
  8
0
  6
Continuous
 62
     7
370
    15
100
AcDbPolyline
 90
      143
 70
   128
 43
0.0
 10
-26.5165042884
 20
-5.4719868719
 10
-23.3873126024
 20
-5.8400691457
 10
-20.2123391538
 20
-6.1616529433
 10
-16.9977991021
 20
-6.4361087495
 10
-13.7499850604
 20
-6.662899304
 10
-10.4752547772
 20
-6.8415806538
 10
-7.1800186909
 20
-6.9718030217
 10
-3.8707273809
 20
-7.0533114913
 10
-0.5538589402
 20
-7.0859465059
 10
2.7640937053
 20
-7.069644181
 10
6.0766355076
 20
-7.0044364291
 10
9.3772820106
 20
-6.8904508975
 10
12.6595720437
 20
-6.7279107181
 10
15.91708037
 20
-6.5171340711
 10
19.143430264
 20
-6.2585335617
 10
22.3323059942
 20
-5.9526154124
 10
25.4774651868
 20
-5.5999784723
 10
28.5727510449
 20
-5.201313045
 10
31.612104401
 20
-4.7573995366
 10
34.5895755782
 20
-4.2691069288
 10
37.4993360369
 20
-3.7373910771
 10
40.3356897843
 20
-3.1632928404
 10
43.0930845248
 20
-2.547936043
 10
45.7661225288
 20
-1.8925252746
 10
48.3495711986
 20
-1.1983435326
 10
50.8383733124
 20
-0.4667497103
 10
53.227656923
 20
0.3008240629
 10
55.5127448957
 20
1.1028752253
 10
57.6891640633
 20
1.9378337242
 10
59.7526539832
 20
2.8040650891
 10
61.6991752769
 20
3.6998736314
 10
63.5249175376
 20
4.6235057638
 10
65.2263067891
 20
5.5731534331
 10
66.800012482
 20
6.5469576592
 10
68.2429540136
 20
7.5430121748
 10
69.552306758
 20
8.5593671564
 10
70.7255075957
 20
9.5940330413
 10
71.760259931
 20
10.6449844224
 10
72.6545381877
 20
11.7101640132
 10
73.406591774
 20
12.7874866745
 10
74.0149485097
 20
13.8748434966
 10
74.478417508
 20
14.9701059275
 10
74.7960915065
 20
16.0711299395
 10
74.9673486434
 20
17.1757602265
 10
74.9918536749
 20
18.2818344228
 10
74.8695586312
 20
19.3871873361
 10
74.6007029106
 20
20.4896551863
 10
74.1858128108
 20
21.5870798408
 10
73.6257004987
 20
22.6773130392
 10
72.9214624203
 20
23.758220599
 10
72.0744771549
 20
24.8276865927
 10
71.0864027158
 20
25.8836174905
 10
69.9591733052
 20
26.923946258
 10
68.6949955276
 20
27.9466364029
 10
67.2963440703
 20
28.9496859612
 10
65.7659568592
 20
29.9311314162
 10
64.1068296992
 20
30.8890515424
 10
62.3222104096
 20
31.8215711661
 10
60.4155924665
 20
32.7268648365
 10
58.390708164
 20
33.6031603985
 10
56.2515213083
 20
34.4487424626
 10
54.002219458
 20
35.261955762
 10
51.6472057272
 20
36.0412083937
 10
49.1910901658
 20
36.7849749339
 10
46.6386807354
 20
37.4917994247
 10
43.9949738973
 20
38.1602982241
 10
41.2651448318
 20
38.7891627141
 10
38.4545373074
 20
39.3771618631
 10
35.5686532205
 20
39.9231446351
 10
32.6131418246
 20
40.4260422432
 10
29.593788672
 20
40.8848702416
 10
26.5165042884
 20
41.2987304531
 10
23.3873126024
 20
41.6668127269
 10
20.2123391538
 20
41.9883965245
 10
16.9977991021
 20
42.2628523307
 10
13.7499850604
 20
42.4896428852
 10
10.4752547772
 20
42.668324235
 10
7.1800186909
 20
42.7985466029
 10
3.8707273809
 20
42.8800550725
 10
0.5538589402
 20
42.9126900871
 10
-2.7640937053
 20
42.8963877621
 10
-6.0766355076
 20
42.8311800103
 10
-9.3772820106
 20
42.7171944786
 10
-12.6595720437
 20
42.5546542993
 10
-15.91708037
 20
42.3438776523
 10
-19.143430264
 20
42.0852771429
 10
-22.3323059942
 20
41.7793589935
 10
-25.4774651868
 20
41.4267220535
 10
-28.5727510449
 20
41.0280566262
 10
-31.612104401
 20
40.5841431178
 10
-34.5895755782
 20
40.09585051
 10
-37.4993360369
 20
39.5641346583
 10
-40.3356897843
 20
38.9900364216
 10
-43.0930845248
 20
38.3746796242
 10
-45.7661225288
 20
37.7192688558
 10
-48.3495711986
 20
37.0250871138
 10
-50.8383733124
 20
36.2934932915
 10
-53.227656923
 20
35.5259195183
 10
-55.5127448957
 20
34.7238683559
 10
-57.6891640633
 20
33.8889098569
 10
-59.7526539832
 20
33.0226784921
 10
-61.6991752769
 20
32.1268699498
 10
-63.5249175376
 20
31.2032378174
 10
-65.2263067891
 20
30.2535901481
 10
-66.800012482
 20
29.2797859219
 10
-68.2429540136
 20
28.2837314063
 10
-69.552306758
 20
27.2673764248
 10
-70.7255075957
 20
26.2327105399
 10
-71.760259931
 20
25.1817591587
 10
-72.6545381877
 20
24.116579568
 10
-73.406591774
 20
23.0392569067
 10
-74.0149485097
 20
21.9519000846
 10
-74.478417508
 20
20.8566376537
 10
-74.7960915065
 20
19.7556136417
 10
-74.9673486434
 20
18.6509833547
 10
-74.9918536749
 20
17.5449091584
 10
-74.8695586312
 20
16.4395562451
 10
-74.6007029106
 20
15.3370883949
 10
-74.1858128108
 20
14.2396637404
 10
-73.6257004987
 20
13.149430542
 10
-72.9214624203
 20
12.0685229822
 10
-72.0744771549
 20
10.9990569885
 10
-71.0864027158
 20
9.9431260907
 10
-69.9591733052
 20
8.9027973231
 10
-68.6949955276
 20
7.8801071782
 10
-67.2963440703
 20
6.87705762
 10
-65.7659568592
 20
5.895612165
 10
-64.1068296992
 20
4.9376920388
 10
-62.3222104096
 20
4.0051724151
 10
-60.4155924665
 20
3.0998787447
 10
-58.390708164
 20
2.2235831827
 10
-56.2515213083
 20
1.3780011186
 10
-54.002219458
 20
0.5647878192
 10
-51.6472057272
 20
-0.2144648125
 10
-49.1910901658
 20
-0.9582313527
 10
-46.6386807354
 20
-1.6650558435
 10
-43.9949738973
 20
-2.3335546429
 10
-41.2651448318
 20
-2.9624191329
 10
-38.4545373074
 20
-3.5504182819
 10
-35.5686532205
 20
-4.0964010539
 10
-32.6131418246
 20
-4.599298662
 10
-29.593788672
 20
-5.0581266604
 10
-26.5165042884
 20
-5.4719868719
  0
LWPOLYLINE
  5
150
330
141
100
AcDbEntity
  8
0
  6
Continuous
 62
     7
370
    15
100
AcDbPolyline
 90
       45
 70
   128
 43
0.0
 10
-26.5165042884
 20
-22.4425496209
 10
-23.3873126024
 20
-22.8106318947
 10
-20.2123391538
 20
-23.1322156923
 10
-16.9977991021
 20
-23.4066714985
 10
-13.7499850604
 20
-23.633462053
 10
-10.4752547772
 20
-23.8121434028
 10
-7.1800186909
 20
-23.9423657707
 10
-3.8707273809
 20
-24.0238742403
 10
-0.5538589402
 20
-24.0565092549
 10
2.7640937053
 20
-24.0402069299
 10
6.0766355076
 20
-23.9749991781
 10
9.3772820106
 20
-23.8610136464
 10
12.6595720437
 20
-23.6984734671
 10
15.91708037
 20
-23.4876968201
 10
19.143430264
 20
-23.2290963106
 10
22.3323059942
 20
-22.9231781613
 10
25.4774651868
 20
-22.5705412213
 10
28.5727510449
 20
-22.171875794
 10
31.612104401
 20
-21.7279622856
 10
34.5895755782
 20
-21.2396696778
 10
37.4993360369
 20
-20.7079538261
 10
40.3356897843
 20
-20.1338555894
 10
43.0930845248
 20
-19.518498792
 10
45.7661225288
 20
-18.8630880236
 10
48.3495711986
 20
-18.1689062816
 10
50.8383733124
 20
-17.4373124593
 10
53.227656923
 20
-16.6697386861
 10
55.5127448957
 20
-15.8676875237
 10
57.6891640633
 20
-15.0327290247
 10
59.7526539832
 20
-14.1664976599
 10
61.6991752769
 20
-13.2706891176
 10
63.5249175376
 20
-12.3470569852
 10
65.2263067891
 20
-11.3974093159
 10
66.800012482
 20
-10.4236050897
 10
68.2429540136
 20
-9.4275505741
 10
69.552306758
 20
-8.4111955926
 10
70.7255075957
 20
-7.3765297077
 10
71.760259931
 20
-6.3255783265
 10
72.6545381877
 20
-5.2603987358
 10
73.406591774
 20
-4.1830760745
 10
74.0149485097
 20
-3.0957192524
 10
74.478417508
 20
-2.0004568215
 10
74.7960915065
 20
-0.8994328095
 10
74.9673486434
 20
0.2051974775
 10
75.0
 20
0.9428090416
  0
LWPOLYLINE
  5
151
330
141
100
AcDbEntity
  8
0
  6
Continuous
 62
     7
370
    15
100
AcDbPolyline
 90
       29
 70
   128
 43
0.0
 10
-75.0
 20
0.9428090416
 10
-74.9918536749
 20
0.5743464095
 10
-74.8695586312
 20
-0.5310065039
 10
-74.6007029106
 20
-1.6334743541
 10
-74.1858128108
 20
-2.7308990086
 10
-73.6257004987
 20
-3.821132207
 10
-72.9214624203
 20
-4.9020397668
 10
-72.0744771549
 20
-5.9715057605
 10
-71.0864027158
 20
-7.0274366583
 10
-69.9591733052
 20
-8.0677654258
 10
-68.6949955276
 20
-9.0904555707
 10
-67.2963440703
 20
-10.093505129
 10
-65.7659568592
 20
-11.074950584
 10
-64.1068296992
 20
-12.0328707102
 10
-62.3222104096
 20
-12.9653903339
 10
-60.4155924665
 20
-13.8706840043
 10
-58.390708164
 20
-14.7469795663
 10
-56.2515213083
 20
-15.5925616304
 10
-54.002219458
 20
-16.4057749298
 10
-51.6472057272
 20
-17.1850275615
 10
-49.1910901658
 20
-17.9287941017
 10
-46.6386807354
 20
-18.6356185925
 10
-43.9949738973
 20
-19.3041173919
 10
-41.2651448318
 20
-19.9329818819
 10
-38.4545373074
 20
-20.5209810309
 10
-35.5686532205
 20
-21.0669638029
 10
-32.6131418246
 20
-21.569861411
 10
-29.593788672
 20
-22.0286894094
 10
-26.5165042884
 20
-22.4425496209
  0
LWPOLYLINE
  5
152
330
141
100
AcDbEntity
  8
0
  6
Continuous
 62
     7
370
    15
100
AcDbPolyline
 90
      141
 70
   128
 43
0.0
 10
-25.8093975074
 20
-4.8483773076
 10
-22.7198031254
 20
-5.211435821
 10
-19.5844540836
 20
-5.5279240493
 10
-16.4096645576
 20
-5.7972046275
 10
-13.201828151
 20
-6.0187352602
 10
-9.9674050195
 20
-6.1920698143
 10
-6.7129088607
 20
-6.316859217
 10
-3.4448937969
 20
-6.392852159
 10
-0.1699411754
 20
-6.4198956008
 10
3.105353685
 20
-6.3979350804
 10
6.3743947763
 20
-6.3270148233
 10
9.6305986849
 20
-6.2072776536
 10
12.8674078494
 20
-6.0389647059
 10
16.0783037669
 20
-5.8224149402
 10
19.2568201204
 20
-5.5580644588
 10
22.3965558009
 20
-5.2464456285
 10
25.4911877986
 20
-4.888186008
 10
28.5344839365
 20
-4.4840070846
 10
31.5203154213
 20
-4.0347228209
 10
34.4426691855
 20
-3.5412380156
 10
37.2956599978
 20
-3.0045464813
 10
40.0735423142
 20
-2.4257290434
 10
42.7707218495
 20
-1.8059513632
 10
45.381766843
 20
-1.1464615906
 10
47.9014189976
 20
-0.44858785
 10
50.3246040692
 20
0.2862644337
 10
52.6464420856
 20
1.0566153657
 10
54.8622571739
 20
1.8609135618
 10
56.9675869775
 20
2.6975392725
 10
58.9581916423
 20
3.5648076449
 10
60.8300623554
 20
4.4609721159
 10
62.5794294184
 20
5.3842279296
 10
64.2027698388
 20
6.3327157717
 10
65.696814425
 20
7.3045255137
 10
67.05855437
 20
8.2977000604
 10
68.2852473109
 20
9.3102392902
 10
69.3744228512
 20
10.3401040839
 10
70.3238875365
 20
11.3852204309
 10
71.1317292712
 20
12.443483606
 10
71.7963211695
 20
13.512762408
 10
72.3163248318
 20
14.5909034516
 10
72.6906930399
 20
15.6757355042
 10
72.9186718662
 20
16.7650738586
 10
72.9998021915
 20
17.8567247321
 10
72.9339206302
 20
18.9484896853
 10
72.721159859
 20
20.0381700489
 10
72.3619483497
 20
21.1235713515
 10
71.8570095066
 20
22.2025077394
 10
71.2073602093
 20
23.2728063783
 10
70.414308765
 20
24.3323118292
 10
69.4794522737
 20
25.3788903891
 10
68.4046734121
 20
26.4104343881
 10
67.1921366417
 20
27.4248664338
 10
65.8442838502
 20
28.4201435952
 10
64.3638294337
 20
29.3942615164
 10
62.7537548305
 20
30.3452584536
 10
61.0173025165
 20
31.2712192255
 10
59.1579694756
 20
32.1702790704
 10
57.179500157
 20
33.0406274013
 10
55.0858789348
 20
33.8805114527
 10
52.8813220833
 20
34.6882398097
 10
50.5702692867
 20
35.4621858149
 10
48.1573746978
 20
36.2007908442
 10
45.6474975652
 20
36.9025674452
 10
43.0456924474
 20
37.5661023333
 10
40.3571990336
 20
38.1900592376
 10
37.5874315918
 20
38.7731815918
 10
34.741968065
 20
39.3142950651
 10
31.8265388381
 20
39.812309927
 10
28.8470151975
 20
40.2662232419
 10
25.8093975074
 20
40.6751208888
 10
22.7198031254
 20
41.0381794022
 10
19.5844540836
 20
41.3546676305
 10
16.4096645576
 20
41.6239482087
 10
13.201828151
 20
41.8454788414
 10
9.9674050195
 20
42.0188133955
 10
6.7129088607
 20
42.1436027981
 10
3.4448937969
 20
42.2195957402
 10
0.1699411754
 20
42.246639182
 10
-3.105353685
 20
42.2246786615
 10
-6.3743947763
 20
42.1537584045
 10
-9.6305986849
 20
42.0340212348
 10
-12.8674078494
 20
41.8657082871
 10
-16.0783037669
 20
41.6491585214
 10
-19.2568201204
 20
41.38480804
 10
-22.3965558009
 20
41.0731892097
 10
-25.4911877986
 20
40.7149295892
 10
-28.5344839365
 20
40.3107506658
 10
-31.5203154213
 20
39.8614664021
 10
-34.4426691855
 20
39.3679815967
 10
-37.2956599978
 20
38.8312900625
 10
-40.0735423142
 20
38.2524726246
 10
-42.7707218495
 20
37.6326949444
 10
-45.381766843
 20
36.9732051717
 10
-47.9014189976
 20
36.2753314311
 10
-50.3246040692
 20
35.5404791475
 10
-52.6464420856
 20
34.7701282155
 10
-54.8622571739
 20
33.9658300194
 10
-56.9675869775
 20
33.1292043087
 10
-58.9581916423
 20
32.2619359363
 10
-60.8300623554
 20
31.3657714653
 10
-62.5794294184
 20
30.4425156515
 10
-64.2027698388
 20
29.4940278095
 10
-65.6968144249
 20
28.5222180674
 10
-67.05855437
 20
27.5290435208
 10
-68.2852473109
 20
26.516504291
 10
-69.3744228512
 20
25.4866394973
 10
-70.3238875365
 20
24.4415231502
 10
-71.1317292712
 20
23.3832599752
 10
-71.7963211695
 20
22.3139811732
 10
-72.3163248318
 20
21.2358401296
 10
-72.6906930399
 20
20.151008077
 10
-72.9186718662
 20
19.0616697226
 10
-72.9998021915
 20
17.970018849
 10
-72.9339206302
 20
16.8782538958
 10
-72.721159859
 20
15.7885735323
 10
-72.3619483497
 20
14.7031722297
 10
-71.8570095066
 20
13.6242358418
 10
-71.2073602093
 20
12.5539372029
 10
-70.414308765
 20
11.494431752
 10
-69.4794522737
 20
10.4478531921
 10
-68.4046734121
 20
9.4163091931
 10
-67.1921366417
 20
8.4018771473
 10
-65.8442838502
 20
7.406599986
 10
-64.3638294337
 20
6.4324820648
 10
-62.7537548305
 20
5.4814851276
 10
-61.0173025165
 20
4.5555243557
 10
-59.1579694756
 20
3.6564645108
 10
-57.179500157
 20
2.7861161799
 10
-55.0858789348
 20
1.9462321285
 10
-52.8813220833
 20
1.1385037715
 10
-50.5702692867
 20
0.3645577662
 10
-48.1573746978
 20
-0.374047263
 10
-45.6474975652
 20
-1.075823864
 10
-43.0456924474
 20
-1.7393587522
 10
-40.3571990336
 20
-2.3633156564
 10
-37.5874315918
 20
-2.9464380106
 10
-34.741968065
 20
-3.4875514839
 10
-31.8265388381
 20
-3.9855663458
 10
-28.8470151975
 20
-4.4394796608
 10
-25.8093975074
 20
-4.8483773076
  0
LWPOLYLINE
  5
153
330
141
100
AcDbEntity
  8
0
  6
Continuous
 62
     7
370
    15
100
AcDbPolyline
 90
       12
 70
   128
 43
0.0
 10
72.7804918916
 20
16.0277537074
 10
72.721159859
 20
16.2669338824
 10
72.3619483497
 20
17.352335185
 10
71.8570095066
 20
18.4312715729
 10
71.2073602093
 20
19.5015702119
 10
70.414308765
 20
20.5610756628
 10
69.4794522737
 20
21.6076542227
 10
68.4046734121
 20
22.6391982217
 10
67.1921366417
 20
23.6536302674
 10
65.8442838502
 20
24.6489074287
 10
64.3638294337
 20
25.6230253499
 10
63.0376716526
 20
26.4133845508
  0
LWPOLYLINE
  5
154
330
141
100
AcDbEntity
  8
0
  6
Continuous
 62
     7
370
    15
100
AcDbPolyline
 90
       12
 70
   128
 43
0.0
 10
-63.0376716526
 20
26.4133845508
 10
-64.2027698388
 20
25.7227916431
 10
-65.6968144249
 20
24.750981901
 10
-67.05855437
 20
23.7578073544
 10
-68.2852473109
 20
22.7452681246
 10
-69.3744228512
 20
21.7154033308
 10
-70.3238875365
 20
20.6702869838
 10
-71.1317292712
 20
19.6120238087
 10
-71.7963211695
 20
18.5427450068
 10
-72.3163248318
 20
17.4646039632
 10
-72.6906930399
 20
16.3797719105
 10
-72.7804918916
 20
16.0277537074
  0
LWPOLYLINE
  5
155
330
141
100
AcDbEntity
  8
0
  6
Continuous
 62
     7
370
    15
100
AcDbPolyline
 90
       10
 70
   128
 43
0.0
 10
63.0376716526
 20
5.6421228639
 10
63.8836005747
 20
6.375500593
 10
64.8984571069
 20
7.3746458142
 10
65.7727580323
 20
8.3884479113
 10
66.50460981
 20
9.4147112147
 10
67.0924274119
 20
10.4512130668
 10
67.5349377559
 20
11.4957086352
 10
67.8311824633
 20
12.5459357752
 10
67.9805199339
 20
13.5996199286
 10
68.0
 20
14.1421356242
  0
LWPOLYLINE
  5
156
330
141
100
AcDbEntity
  8
0
  6
Continuous
 62
     7
370
    15
100
AcDbPolyline
 90
       10
 70
   128
 43
0.0
 10
-68.0
 20
14.1421356242
 10
-67.9284547496
 20
13.1026359945
 10
-67.7098066618
 20
12.050297469
 10
-67.3445142101
 20
11.0024893991
 10
-66.8333685367
 20
9.9614811039
 10
-66.1774766693
 20
8.9295271754
 10
-65.3782591237
 20
7.908862596
 10
-64.437446827
 20
6.9016978981
 10
-63.3570773693
 20
5.9102143759
 10
-63.0376716526
 20
5.6421228639
  0
LWPOLYLINE
  5
157
330
141
100
AcDbEntity
  8
0
  6
Continuous
 62
     7
370
    15
100
AcDbPolyline
 90
       21
 70
   128
 43
0.0
 10
-26.1629508979
 20
-23.0735538804
 10
-29.220541372
 20
-22.6621563153
 10
-32.2201171661
 20
-22.2057651365
 10
-35.1557228999
 20
-21.7052864666
 10
-38.0215302001
 20
-21.1617139595
 10
-40.8118492715
 20
-20.5761268281
 10
-43.5211401939
 20
-19.9496877016
 10
-46.144023921
 20
-19.2836403167
 10
-48.6752929598
 20
-18.579307049
 10
-51.1099217101
 20
-17.8380862869
 10
-53.4430764418
 20
-17.0614496557
 10
-55.6701248921
 20
-16.2509390955
 10
-57.7866454626
 20
-15.4081637999
 10
-59.7884359975
 20
-14.5347970214
 10
-61.6715221269
 20
-13.6325727488
 10
-63.4321651578
 20
-12.7032822648
 10
-65.0668694963
 20
-11.7487705899
 10
-66.5723895883
 20
-10.7709328184
 10
-67.945736363
 20
-9.7717103568
 10
-69.1841831675
 20
-8.7530870688
 10
-69.220661658
 20
-8.7209836302
  0
LWPOLYLINE
  5
158
330
141
100
AcDbEntity
  8
0
  6
Continuous
 62
     7
370
    15
100
AcDbPolyline
 90
       37
 70
   128
 43
0.0
 10
69.220661658
 20
-8.7209836302
 10
68.92490657
 20
-8.9774857528
 10
67.6567283858
 20
-9.992036294
 10
66.25422403
 20
-10.986748572
 10
64.7201780452
 20
-11.9596476778
 10
63.0576361376
 20
-12.9088020101
 10
61.2698991304
 20
-13.8323271109
 10
59.3605164098
 20
-14.7283894067
 10
57.3332788786
 20
-15.5952098485
 10
55.1922114293
 20
-16.4310674448
 10
52.9415649529
 20
-17.2343026777
 10
50.5858078999
 20
-18.0033207978
 10
48.1296174077
 20
-18.7365949909
 10
45.5778700152
 20
-19.4326694091
 10
42.9356319807
 20
-20.0901620609
 10
40.2081492232
 20
-20.7077675555
 10
37.4008369073
 20
-21.2842596945
 10
34.5192686917
 20
-21.818493906
 10
31.5691656633
 20
-22.3094095175
 10
28.5563849787
 20
-22.7560318615
 10
25.4869082351
 20
-23.1574742106
 10
22.3668295943
 20
-23.5129395382
 10
19.2023436837
 20
-23.8217221008
 10
15.9997332972
 20
-24.0832088392
 10
12.7653569213
 20
-24.2968805957
 10
9.5056361108
 20
-24.4623131448
 10
6.2270427396
 20
-24.5791780356
 10
2.9360861516
 20
-24.6472432434
 10
-0.3606997638
 20
-24.6663736313
 10
-3.6567695431
 20
-24.6365312176
 10
-6.9455791451
 20
-24.5577752516
 10
-10.2205989425
 20
-24.430262096
 10
-13.4753266868
 20
-24.2542449164
 10
-16.7033004173
 20
-24.0300731785
 10
-19.898111291
 20
-23.7581919548
 10
-23.0534163065
 20
-23.43914104
 10
-26.1629508979
 20
-23.0735538804
  0
LWPOLYLINE
  5
159
330
141
100
AcDbEntity
  8
0
  6
Continuous
 62
     7
370
    15
100
AcDbPolyline
 90
      136
 70
   128
 43
0.0
 10
-24.0416305548
 20
-3.2893533968
 10
-21.0562059186
 20
-3.6392413284
 10
-18.0251782292
 20
-3.9424510993
 10
-14.9551120174
 20
-4.1983260246
 10
-11.8526563632
 20
-4.4063119363
 10
-8.7245304947
 20
-4.565958383
 10
-5.5775092358
 20
-4.6769196062
 10
-2.4184083339
 20
-4.7389552886
 10
0.7459303019
 20
-4.7519310747
 10
3.9086534188
 20
-4.7158188618
 10
7.0629112627
 20
-4.630696861
 10
10.2018724136
 20
-4.4967494275
 10
13.3187385806
 20
-4.3142666617
 10
16.4067593256
 20
-4.0836437806
 10
19.4592466833
 20
-3.805380262
 10
22.4695896458
 20
-3.4800787627
 10
25.4312684806
 20
-3.1084438134
 10
28.3378688508
 20
-2.6912802925
 10
31.1830957073
 20
-2.2294916834
 10
33.9607869222
 20
-1.7240781173
 10
36.664926635
 20
-1.1761342076
 10
39.2896582811
 20
-0.5868466787
 10
41.8292972763
 20
0.0425082039
 10
44.278343328
 20
0.7105673976
 10
46.6314923478
 20
1.4158840349
 10
48.8836479389
 20
2.156930557
 10
51.0299324339
 20
2.9321020223
 10
53.0656974585
 20
3.7397195819
 10
54.9865339988
 20
4.5780341161
 10
56.7882819508
 20
5.4452300222
 10
58.4670391294
 20
6.339429147
 10
60.0191697206
 20
7.2586948543
 10
61.4413121551
 20
8.2010362193
 10
62.730386389
 20
9.1644123404
 10
63.8836005747
 20
10.1467367595
 10
64.8984571069
 20
11.1458819806
 10
65.7727580323
 20
12.1596840777
 10
66.50460981
 20
13.1859473812
 10
67.0924274119
 20
14.2224492332
 10
67.5349377559
 20
15.2669448016
 10
67.8311824633
 20
16.3171719416
 10
67.9805199339
 20
17.370856095
 10
67.982626736
 20
18.4257152166
 10
67.8374983067
 20
19.4794647165
 10
67.545448962
 20
20.5298224078
 10
67.1071112157
 20
21.5745134496
 10
66.5234344097
 20
22.6112752739
 10
65.795682658
 20
23.6378624854
 10
64.9254321088
 20
24.6520517247
 10
63.9145675311
 20
25.6516464839
 10
62.7652782324
 20
26.6344818632
 10
61.4800533175
 20
27.59842926
 10
60.0616762973
 20
28.5414009791
 10
58.5132190605
 20
29.4613547535
 10
56.8380352209
 20
30.3562981683
 10
55.0397528534
 20
31.2242929753
 10
53.1222666374
 20
32.0634592911
 10
51.089729421
 20
32.8719796682
 10
48.9465432271
 20
33.6481030316
 10
46.6973497199
 20
34.390148471
 10
44.3470201516
 20
35.096508881
 10
41.9006448128
 20
35.7656544424
 10
39.3635220076
 20
36.3961359348
 10
36.741146579
 20
36.9865878758
 10
34.0391980084
 20
37.5357314779
 10
31.2635281147
 20
38.0423774184
 10
28.4201483807
 20
38.505428415
 10
25.5152169338
 20
38.9238816023
 10
22.5550252088
 20
39.2968307039
 10
19.5459843216
 20
39.6234679951
 10
16.4946111848
 20
39.9030860523
 10
13.4075143931
 20
40.135079285
 10
10.2913799108
 20
40.3189452475
 10
7.1529565913
 20
40.4542857271
 10
3.9990415606
 20
40.5408076064
 10
0.8364654964
 20
40.5783234984
 10
-2.3279221658
 20
40.566752152
 10
-5.487268067
 20
40.5061186281
 10
-8.6347297674
 20
40.3965542454
 10
-11.7634905659
 20
40.2382962961
 10
-14.8667742633
 20
40.0316875314
 10
-17.9378598382
 20
39.7771754202
 10
-20.970096003
 20
39.4753111788
 10
-23.9569156094
 20
39.1267485781
 10
-26.8918498712
 20
38.732242527
 10
-29.7685423745
 20
38.2926474377
 10
-32.5807628437
 20
37.8089153754
 10
-35.3224206356
 20
37.282093996
 10
-37.9875779298
 20
36.7133242773
 10
-40.5704625893
 20
36.1038380478
 10
-43.0654806609
 20
35.4549553189
 10
-45.467228491
 20
34.7680814263
 10
-47.7705044288
 20
34.0447039857
 10
-49.9703200914
 20
33.2863896717
 10
-52.0619111679
 20
32.4947808242
 10
-54.0407477378
 20
31.6715918916
 10
-55.9025440817
 20
30.818605718
 10
-57.6432679633
 20
29.9376696813
 10
-59.2591493624
 20
29.030691693
 10
-60.7466886397
 20
28.0996360653
 10
-62.1026641162
 20
27.1465192575
 10
-63.3241390511
 20
26.1734055082
 10
-64.4084680016
 20
25.1824023653
 10
-65.3533025527
 20
24.1756561207
 10
-66.1565964032
 20
23.1553471628
 10
-66.8166097974
 20
22.1236852535
 10
-67.3319132933
 20
21.0829047428
 10
-67.7013908584
 20
20.0352597294
 10
-67.9242422863
 20
18.9830191793
 10
-67.9999849306
 20
17.9284620112
 10
-67.9284547496
 20
16.8738721609
 10
-67.7098066618
 20
15.8215336354
 10
-67.3445142101
 20
14.7737255656
 10
-66.8333685367
 20
13.7327172703
 10
-66.1774766693
 20
12.7007633418
 10
-65.3782591237
 20
11.6800987625
 10
-64.437446827
 20
10.6729340645
 10
-63.3570773693
 20
9.6814505424
 10
-62.1394905901
 20
8.7077955286
 10
-60.7873235114
 20
7.7540777432
 10
-59.3035046259
 20
6.8223627264
 10
-57.6912475548
 20
5.9146683655
 10
-55.9540440881
 20
5.0329605244
 10
-54.0956566216
 20
4.179148786
 10
-52.1201100087
 20
3.3550823162
 10
-50.0316828435
 20
2.5625458597
 10
-47.8348981941
 20
1.8032558739
 10
-45.534513807
 20
1.0788568118
 10
-43.1355118025
 20
0.3909175605
 10
-40.6430878847
 20
-0.2590719568
 10
-38.0626400888
 20
-0.8697040076
 10
-35.3997570902
 20
-1.4396560987
 10
-32.6602061004
 20
-1.9676938409
 10
-29.8499203769
 20
-2.452673622
 10
-26.9749863728
 20
-2.8935450837
 10
-24.0416305548
 20
-3.2893533968
  0
LWPOLYLINE
  5
15A
330
141
100
AcDbEntity
  8
0
  6
Continuous
 62
     7
370
    15
100
AcDbPolyline
 90
       39
 70
   128
 43
0.0
 10
-19.4454364782
 20
0.7641087714
 10
-16.7711854602
 20
0.4531715342
 10
-14.0524602734
 20
0.1885356092
 10
-11.2964704882
 20
-0.0290972366
 10
-8.510524494
 20
-0.1991498801
 10
-5.7020101187
 20
-0.3211713721
 10
-2.8783750377
 20
-0.3948381338
 10
-0.0471070235
 20
-0.4199548139
 10
2.7842859101
 20
-0.3964548077
 10
5.6082954179
 20
-0.3244004329
 10
8.4174327345
 20
-0.2039827647
 10
11.2042485327
 20
-0.0355211293
 10
13.9613526779
 20
0.1805377436
 10
16.6814338257
 20
0.4436209045
 10
19.3572788098
 20
0.7530307042
 10
21.9817917704
 20
1.1079466436
 10
24.5480129708
 20
1.5074275493
 10
27.0491372538
 20
1.9504140699
 10
29.4785320874
 20
2.4357314847
 10
31.8297551533
 20
2.9620928192
 10
34.0965714306
 20
3.5281022577
 10
36.2729697299
 20
4.1322588451
 10
38.3531786343
 20
4.7729604665
 10
40.3316818037
 20
5.4485080965
 10
42.2032326034
 20
6.1571103042
 10
43.962868017
 20
6.8968880039
 10
45.6059218079
 20
7.6658794382
 10
47.1280368927
 20
8.4620453801
 10
48.5251768958
 20
9.2832745405
 10
49.7936368532
 20
10.1273891674
 10
50.930053037
 20
10.9921508206
 10
51.9314118759
 20
11.8752663075
 10
52.7950579461
 20
12.7743937647
 10
53.5187010136
 20
13.6871488678
 10
54.1004221071
 20
14.6111111543
 10
54.5386786068
 20
15.5438304424
 10
54.8323083351
 20
16.4828333282
 10
54.980532639
 20
17.4256297448
 10
55.0
 20
17.9133717906
  0
LWPOLYLINE
  5
15B
330
141
100
AcDbEntity
  8
0
  6
Continuous
 62
     7
370
    15
100
AcDbPolyline
 90
       25
 70
   128
 43
0.0
 10
-55.0
 20
17.9133717906
 10
-54.9829584542
 20
17.4570240155
 10
-54.8395793478
 20
16.5141443469
 10
-54.5507755354
 20
15.574975178
 10
-54.1173128729
 20
14.6420070165
 10
-53.5403408253
 20
13.7177139263
 10
-52.8213894188
 20
12.8045469665
 10
-51.9623651833
 20
11.9049276917
 10
-50.9655460965
 20
11.0212417305
 10
-49.8335755435
 20
10.1558324593
 10
-48.5694553068
 20
9.3109947878
 10
-47.1765376059
 20
8.4889690736
 10
-45.6585162081
 20
7.6919351813
 10
-44.0194166334
 20
6.9220067013
 10
-42.2635854792
 20
6.1812253456
 10
-40.3956788939
 20
5.4715555332
 10
-38.4206502302
 20
4.7948791809
 10
-36.3437369089
 20
4.1529907127
 10
-34.1704465309
 20
3.5475923014
 10
-31.9065422714
 20
2.9802893547
 10
-29.5580275977
 20
2.4525862582
 10
-27.1311303484
 20
1.9658823855
 10
-24.6322862188
 20
1.5214683878
 10
-22.0681216943
 20
1.1205227712
 10
-19.4454364782
 20
0.7641087714
  0
LWPOLYLINE
  5
15C
330
141
100
AcDbEntity
  8
0
  6
Continuous
 62
     7
370
    15
100
AcDbPolyline
 90
      123
 70
   128
 43
0.0
 10
-19.4454364782
 20
1.706917813
 10
-16.7711854602
 20
1.3959805758
 10
-14.0524602734
 20
1.1313446508
 10
-11.2964704882
 20
0.913711805
 10
-8.510524494
 20
0.7436591615
 10
-5.7020101187
 20
0.6216376695
 10
-2.8783750377
 20
0.5479709079
 10
-0.0471070235
 20
0.5228542277
 10
2.7842859101
 20
0.5463542339
 10
5.6082954179
 20
0.6184086087
 10
8.4174327345
 20
0.7388262769
 10
11.2042485327
 20
0.9072879123
 10
13.9613526779
 20
1.1233467852
 10
16.6814338257
 20
1.3864299461
 10
19.3572788098
 20
1.6958397458
 10
21.9817917704
 20
2.0507556852
 10
24.5480129708
 20
2.4502365909
 10
27.0491372538
 20
2.8932231115
 10
29.4785320874
 20
3.3785405263
 10
31.8297551533
 20
3.9049018608
 10
34.0965714306
 20
4.4709112994
 10
36.2729697299
 20
5.0750678867
 10
38.3531786343
 20
5.7157695081
 10
40.3316818037
 20
6.3913171381
 10
42.2032326034
 20
7.0999193458
 10
43.962868017
 20
7.8396970455
 10
45.6059218079
 20
8.6086884798
 10
47.1280368927
 20
9.4048544217
 10
48.5251768958
 20
10.2260835821
 10
49.7936368532
 20
11.070198209
 10
50.930053037
 20
11.9349598622
 10
51.9314118759
 20
12.8180753491
 10
52.7950579461
 20
13.7172028063
 10
53.5187010136
 20
14.6299579094
 10
54.1004221071
 20
15.553920196
 10
54.5386786068
 20
16.4866394841
 10
54.8323083351
 20
17.4256423698
 10
54.980532639
 20
18.3684387865
 10
54.9829584542
 20
19.3125286073
 10
54.8395793478
 20
20.2554082759
 10
54.5507755354
 20
21.1945774448
 10
54.1173128729
 20
22.1275456063
 10
53.5403408253
 20
23.0518386965
 10
52.8213894188
 20
23.9650056563
 10
51.9623651833
 20
24.8646249311
 10
50.9655460965
 20
25.7483108923
 10
49.8335755435
 20
26.6137201635
 10
48.5694553068
 20
27.458557835
 10
47.1765376059
 20
28.2805835492
 10
45.6585162081
 20
29.0776174415
 10
44.0194166334
 20
29.8475459215
 10
42.2635854792
 20
30.5883272772
 10
40.395678894
 20
31.2979970895
 10
38.4206502302
 20
31.9746734419
 10
36.3437369089
 20
32.6165619101
 10
34.1704465309
 20
33.2219603214
 10
31.9065422714
 20
33.7892632681
 10
29.5580275977
 20
34.3169663646
 10
27.1311303484
 20
34.8036702373
 10
24.6322862188
 20
35.248084235
 10
22.0681216943
 20
35.6490298516
 10
19.4454364782
 20
36.0054438514
 10
16.7711854602
 20
36.3163810886
 10
14.0524602734
 20
36.5810170136
 10
11.2964704882
 20
36.7986498594
 10
8.510524494
 20
36.9687025029
 10
5.7020101187
 20
37.0907239949
 10
2.8783750377
 20
37.1643907566
 10
0.0471070235
 20
37.1895074367
 10
-2.7842859101
 20
37.1660074305
 10
-5.6082954179
 20
37.0939530557
 10
-8.4174327345
 20
36.9735353875
 10
-11.2042485327
 20
36.8050737521
 10
-13.9613526779
 20
36.5890148792
 10
-16.6814338257
 20
36.3259317183
 10
-19.3572788098
 20
36.0165219186
 10
-21.9817917704
 20
35.6616059792
 10
-24.5480129708
 20
35.2621250735
 10
-27.0491372538
 20
34.8191385529
 10
-29.4785320874
 20
34.3338211381
 10
-31.8297551533
 20
33.8074598036
 10
-34.0965714306
 20
33.241450365
 10
-36.2729697299
 20
32.6372937777
 10
-38.3531786343
 20
31.9965921563
 10
-40.3316818037
 20
31.3210445263
 10
-42.2032326034
 20
30.6124423186
 10
-43.962868017
 20
29.8726646189
 10
-45.6059218079
 20
29.1036731846
 10
-47.1280368927
 20
28.3075072427
 10
-48.5251768958
 20
27.4862780823
 10
-49.7936368532
 20
26.6421634554
 10
-50.930053037
 20
25.7774018022
 10
-51.9314118759
 20
24.8942863153
 10
-52.7950579461
 20
23.9951588581
 10
-53.5187010136
 20
23.082403755
 10
-54.1004221071
 20
22.1584414685
 10
-54.5386786068
 20
21.2257221803
 10
-54.8323083351
 20
20.2867192946
 10
-54.980532639
 20
19.3439228779
 10
-54.9829584542
 20
18.3998330571
 10
-54.8395793478
 20
17.4569533885
 10
-54.5507755354
 20
16.5177842196
 10
-54.1173128729
 20
15.5848160581
 10
-53.5403408253
 20
14.6605229679
 10
-52.8213894188
 20
13.7473560081
 10
-51.9623651833
 20
12.8477367333
 10
-50.9655460965
 20
11.9640507721
 10
-49.8335755435
 20
11.0986415009
 10
-48.5694553068
 20
10.2538038294
 10
-47.1765376059
 20
9.4317781152
 10
-45.6585162081
 20
8.6347442229
 10
-44.0194166334
 20
7.8648157429
 10
-42.2635854792
 20
7.1240343872
 10
-40.3956788939
 20
6.4143645749
 10
-38.4206502302
 20
5.7376882225
 10
-36.3437369089
 20
5.0957997543
 10
-34.1704465309
 20
4.490401343
 10
-31.9065422714
 20
3.9230983963
 10
-29.5580275977
 20
3.3953952998
 10
-27.1311303484
 20
2.9086914271
 10
-24.6322862188
 20
2.4642774295
 10
-22.0681216943
 20
2.0633318129
 10
-19.4454364782
 20
1.706917813
  0
LWPOLYLINE
  5
15D
330
141
100
AcDbEntity
  8
0
  6
Continuous
 62
     7
370
    15
100
AcDbPolyline
 90
       91
 70
   128
 43
0.0
 10
-10.6066017154
 20
9.5020373672
 10
-8.6232283772
 20
9.2781972126
 10
-6.5978435371
 20
9.1010200314
 10
-4.5403146665
 20
8.971369013
 10
-2.4606658393
 20
8.8898758042
 10
-0.3690288955
 20
8.8569374317
 10
1.72440592
 20
8.8727143679
 10
3.8094396033
 20
8.9371297492
 10
5.8759140797
 20
9.0498697503
 10
7.9137616933
 20
9.2103851133
 10
9.9130542555
 20
9.4178938234
 10
11.8640514138
 20
9.6713849191
 10
13.7572481062
 20
9.9696234172
 10
15.5834208686
 20
10.3111563298
 10
17.3336727711
 20
10.6943197428
 10
18.9994767621
 20
11.1172469226
 10
20.5727172123
 20
11.5778774106
 10
22.0457294521
 20
12.0739670611
 10
23.411337114
 20
12.6030989754
 10
24.6628870949
 20
13.162695276
 10
25.7942819689
 20
13.7500296659
 10
26.800009694
 20
14.362240711
 10
27.6751704658
 20
14.9963457806
 10
28.4155005889
 20
15.6492555787
 10
29.0173932496
 20
16.3177891942
 10
29.4779160871
 20
16.9986895986
 10
29.7948254806
 20
17.6886395135
 10
29.9665774793
 20
18.3842775725
 10
29.9923353247
 20
19.0822146966
 10
29.8719735273
 20
19.7790506065
 10
29.6060784775
 20
20.4713903877
 10
29.1959455894
 20
21.1558610302
 10
28.6435729892
 20
21.829127862
 10
27.9516517806
 20
22.4879107946
 10
27.1235529342
 20
23.129000304
 10
26.1633108644
 20
23.7492730664
 10
25.0756037739
 20
24.3457071753
 10
23.8657308625
 20
24.9153968637
 10
22.5395865093
 20
25.4555666606
 10
21.1036315562
 20
25.9635849131
 10
19.5648618316
 20
26.4369766074
 10
17.9307740668
 20
26.8734354267
 10
16.2093293731
 20
27.2708349874
 10
14.4089144561
 20
27.627239199
 10
12.5383007562
 20
27.9409116959
 10
10.6066017154
 20
28.2103242972
 10
8.6232283772
 20
28.4341644518
 10
6.5978435371
 20
28.611341633
 10
4.5403146665
 20
28.7409926514
 10
2.4606658393
 20
28.8224858602
 10
0.3690288955
 20
28.8554242327
 10
-1.72440592
 20
28.8396472965
 10
-3.8094396033
 20
28.7752319152
 10
-5.8759140797
 20
28.6624919141
 10
-7.9137616933
 20
28.5019765511
 10
-9.9130542555
 20
28.294467841
 10
-11.8640514138
 20
28.0409767453
 10
-13.7572481062
 20
27.7427382472
 10
-15.5834208686
 20
27.4012053346
 10
-17.3336727711
 20
27.0180419216
 10
-18.9994767621
 20
26.5951147418
 10
-20.5727172123
 20
26.1344842538
 10
-22.0457294521
 20
25.6383946033
 10
-23.411337114
 20
25.109262689
 10
-24.6628870949
 20
24.5496663884
 10
-25.7942819689
 20
23.9623319985
 10
-26.800009694
 20
23.3501209534
 10
-27.6751704658
 20
22.7160158838
 10
-28.4155005889
 20
22.0631060857
 10
-29.0173932496
 20
21.3945724702
 10
-29.4779160871
 20
20.7136720658
 10
-29.7948254806
 20
20.0237221509
 10
-29.9665774793
 20
19.3280840919
 10
-29.9923353247
 20
18.6301469678
 10
-29.8719735273
 20
17.9333110579
 10
-29.6060784775
 20
17.2409712767
 10
-29.1959455894
 20
16.5565006342
 10
-28.6435729892
 20
15.8832338024
 10
-27.9516517806
 20
15.2244508698
 10
-27.1235529342
 20
14.5833613604
 10
-26.1633108644
 20
13.963088598
 10
-25.0756037739
 20
13.3666544891
 10
-23.8657308625
 20
12.7969648007
 10
-22.5395865093
 20
12.2567950038
 10
-21.1036315562
 20
11.7487767513
 10
-19.5648618316
 20
11.275385057
 10
-17.9307740668
 20
10.8389262377
 10
-16.2093293731
 20
10.441526677
 10
-14.4089144561
 20
10.0851224654
 10
-12.5383007562
 20
9.7714499685
 10
-10.6066017154
 20
9.5020373672
  0
LWPOLYLINE
  5
15E
330
141
100
AcDbEntity
  8
0
  6
Continuous
 62
     7
370
    15
100
AcDbPolyline
 90
       39
 70
   128
 43
0.0
 10
28.7749891392
 20
16.0277537074
 10
28.6435729892
 20
16.1722736123
 10
27.9516517806
 20
16.831056545
 10
27.1235529342
 20
17.4721460544
 10
26.1633108644
 20
18.0924188168
 10
25.0756037739
 20
18.6888529256
 10
23.8657308625
 20
19.258542614
 10
22.5395865093
 20
19.7987124109
 10
21.1036315562
 20
20.3067306634
 10
19.5648618316
 20
20.7801223577
 10
17.9307740668
 20
21.216581177
 10
16.2093293731
 20
21.6139807378
 10
14.4089144561
 20
21.9703849494
 10
12.5383007562
 20
22.2840574462
 10
10.6066017154
 20
22.5534700476
 10
8.6232283772
 20
22.7773102022
 10
6.5978435371
 20
22.9544873834
 10
4.5403146665
 20
23.0841384017
 10
2.4606658393
 20
23.1656316106
 10
0.3690288955
 20
23.1985699831
 10
-1.72440592
 20
23.1827930469
 10
-3.8094396033
 20
23.1183776656
 10
-5.8759140797
 20
23.0056376644
 10
-7.9137616933
 20
22.8451223015
 10
-9.9130542555
 20
22.6376135914
 10
-11.8640514138
 20
22.3841224957
 10
-13.7572481062
 20
22.0858839975
 10
-15.5834208686
 20
21.7443510849
 10
-17.3336727711
 20
21.3611876719
 10
-18.9994767621
 20
20.9382604921
 10
-20.5727172123
 20
20.4776300042
 10
-22.0457294521
 20
19.9815403536
 10
-23.411337114
 20
19.4524084393
 10
-24.6628870949
 20
18.8928121387
 10
-25.7942819689
 20
18.3054777488
 10
-26.800009694
 20
17.6932667037
 10
-27.6751704658
 20
17.0591616341
 10
-28.4155005889
 20
16.4062518361
 10
-28.7749891392
 20
16.0277537074
  0
LWPOLYLINE
  5
15F
330
141
100
AcDbEntity
  8
0
  6
Continuous
 62
     7
370
    15
100
AcDbPolyline
 90
       35
 70
   128
 43
0.0
 10
-1.5909902573
 20
11.7962050628
 10
-0.7904319165
 20
11.7226479755
 10
0.0370436351
 20
11.6993774071
 10
0.8632577103
 20
11.7271858089
 10
1.6600745794
 20
11.8051261991
 10
2.4003595998
 20
11.9305444112
 10
3.0589032529
 20
12.0991694784
 10
3.6132796245
 20
12.3052590763
 10
4.0446100922
 20
12.5417950708
 10
4.3382062141
 20
12.8007225123
 10
4.4840699265
 20
13.0732239374
 10
4.4772340156
 20
13.3500196367
 10
4.3179312702
 20
13.6216836649
 10
4.0115865541
 20
13.8789648292
 10
3.5686320693
 20
14.1131017281
 10
3.0041520995
 20
14.3161211104
 10
2.3373693331
 20
14.4811093945
 10
1.5909902573
 20
14.6024481023
 10
0.7904319165
 20
14.6760051896
 10
-0.0370436351
 20
14.699275758
 10
-0.8632577103
 20
14.6714673562
 10
-1.6600745794
 20
14.593526966
 10
-2.4003595998
 20
14.4681087539
 10
-3.0589032529
 20
14.2994836867
 10
-3.6132796245
 20
14.0933940888
 10
-4.0446100922
 20
13.8568580943
 10
-4.3382062141
 20
13.5979306528
 10
-4.4840699265
 20
13.3254292277
 10
-4.4772340156
 20
13.0486335283
 10
-4.3179312702
 20
12.7769695002
 10
-4.0115865541
 20
12.5196883359
 10
-3.5686320693
 20
12.285551437
 10
-3.0041520995
 20
12.0825320547
 10
-2.3373693331
 20
11.9175437706
 10
-1.5909902573
 20
11.7962050628
  0
LINE
  5
160
330
141
100
AcDbEntity
  8
0
  6
Continuous
 62
     7
370
    15
100
AcDbLine
 10
75.0
 20
0.9428090416
 30
0.0
 11
75.0
 21
17.9133717906
 31
0.0
  0
LINE
  5
161
330
141
100
AcDbEntity
  8
0
  6
Continuous
 62
     7
370
    15
100
AcDbLine
 10
-75.0
 20
17.9133717906
 30
0.0
 11
-75.0
 21
0.9428090416
 31
0.0
  0
LINE
  5
162
330
141
100
AcDbEntity
  8
0
  6
Continuous
 62
     7
370
    15
100
AcDbLine
 10
-70.1560760047
 20
-7.8960257188
 30
0.0
 11
-69.220661658
 21
-8.7209836302
 31
0.0
  0
LINE
  5
163
330
141
100
AcDbEntity
  8
0
  6
Continuous
 62
     7
370
    15
100
AcDbLine
 10
69.220661658
 20
-8.7209836302
 30
0.0
 11
70.1560760047
 21
-7.8960257188
 31
0.0
  0
LINE
  5
164
330
141
100
AcDbEntity
  8
0
  6
Continuous
 62
     7
370
    15
100
AcDbLine
 10
-68.0
 20
17.9133717906
 30
0.0
 11
-68.0
 21
14.1421356242
 31
0.0
  0
LINE
  5
165
330
141
100
AcDbEntity
  8
0
  6
Continuous
 62
     7
370
    15
100
AcDbLine
 10
68.0
 20
14.1421356242
 30
0.0
 11
68.0
 21
17.9133717906
 31
0.0
  0
LINE
  5
166
330
141
100
AcDbEntity
  8
0
  6
Continuous
 62
     7
370
    15
100
AcDbLine
 10
-55.0
 20
18.8561808322
 30
0.0
 11
-55.0
 21
17.9133717906
 31
0.0
  0
LINE
  5
167
330
141
100
AcDbEntity
  8
0
  6
Continuous
 62
     7
370
    15
100
AcDbLine
 10
55.0
 20
17.9133717906
 30
0.0
 11
55.0
 21
18.8561808322
 31
0.0
  0
VIEWPORT
  5
171
330
141
100
AcDbEntity
  8
0
100
AcDbViewport
 10
0.0
 20
0.0
 30
0.0
 40
243.84
 41
204.216
 68
     1
 69
     1
 12
0.0
 22
0.0
 13
0.0
 23
0.0
 14
10.0
 24
10.0
 15
10.0
 25
10.0
 16
0.0
 26
0.0
 36
1.0
 17
0.0
 27
0.0
 37
0.0
 42
50.0
 43
0.0
 44
0.0
 45
453.6031772252
 50
0.0
 51
0.0
 72
   100
 90
   557152
  1

281
     0
 71
     1
 74
     0
110
0.0
120
0.0
130
0.0
111
1.0
121
0.0
131
0.0
112
0.0
122
1.0
132
0.0
 79
     0
146
0.0
  0
ENDBLK
  5
144
330
141
100
AcDbEntity
  8
0
100
AcDbBlockEnd
  0
ENDSEC
  0
SECTION
  2
ENTITIES
  0
LWPOLYLINE
  5
44
330
1F
100
AcDbEntity
  8
0
  6
Continuous
 62
     7
100
AcDbPolyline
 90
       17
 70
   128
 43
0.0
 10
14.0462657122
 20
56.028020426
 10
13.7587614967
 20
56.91071282
 10
13.1364372201
 20
57.6216494019
 10
12.2740361121
 20
58.0525965216
 10
11.3028509236
 20
58.1379463869
 10
10.3707357959
 20
57.8647052543
 10
9.6195968074
 20
57.2744716094
 10
9.1637880601
 20
56.4571031741
 10
9.0727023038
 20
55.5370368833
 10
9.3602065192
 20
54.6543444893
 10
9.9825307959
 20
53.9434079074
 10
10.8449319039
 20
53.5124607877
 10
11.8161170923
 20
53.4271109224
 10
12.7482322201
 20
53.700352055
 10
13.4993712086
 20
54.2905856999
 10
13.9551799559
 20
55.1079541352
 10
14.0462657122
 20
56.028020426
  0
LWPOLYLINE
  5
45
330
1F
100
AcDbEntity
  8
0
  6
Continuous
 62
     7
100
AcDbPolyline
 90
       69
 70
   128
 43
0.0
 10
233.5059889326
 20
23.0513996257
 10
230.2864515615
 20
43.3601573379
 10
225.1021913824
 20
63.2989814761
 10
217.9974386752
 20
82.6977610229
 10
209.032808685
 20
101.3909924311
 10
198.2847844739
 20
119.2191916413
 10
185.845064395
 20
136.030254744
 10
171.8197797538
 20
151.6807556761
 10
156.3285893337
 20
166.0371698818
 10
139.5036585092
 20
178.9770134972
 10
121.488531658
 20
190.389888339
 10
102.4369074904
 20
200.178423783
 10
82.5113277462
 20
208.2591074963
 10
61.8817904464
 20
214.5629979345
 10
40.7242995294
 20
219.036312527
 10
19.2193632478
 20
221.6408865312
 10
-2.4495458644
 20
222.3544986398
 10
-24.097556315
 20
221.171060566
 10
-45.5399749118
 20
218.1006689862
 10
-66.5938624995
 20
213.1695193987
 10
-87.0795947327
 20
206.4196826332
 10
-106.822394567
 20
197.908745917
 10
-125.6538233954
 20
187.7093215613
 10
-143.4132181069
 20
175.9084274584
 10
-159.9490618076
 20
162.6067446761
 10
-175.1202765093
 20
147.9177584816
 10
-188.7974267576
 20
131.9667901262
 10
-200.8638239289
 20
114.8899276476
 10
-211.216521777
 20
96.8328648153
 10
-219.7671947341
 20
77.9496581228
 10
-226.4428914736
 20
58.4014124314
 10
-231.1866573044
 20
38.3549064809
 10
-233.9580200893
 20
17.9811699919
 10
-234.733335538
 20
-2.5459754996
 10
-233.5059889326
 20
-23.0513996257
 10
-230.2864515615
 20
-43.3601573379
 10
-225.1021913824
 20
-63.2989814761
 10
-217.9974386752
 20
-82.6977610229
 10
-209.032808685
 20
-101.3909924311
 10
-198.2847844739
 20
-119.2191916413
 10
-185.845064395
 20
-136.030254744
 10
-171.8197797538
 20
-151.6807556761
 10
-156.3285893337
 20
-166.0371698818
 10
-139.5036585092
 20
-178.9770134972
 10
-121.488531658
 20
-190.389888339
 10
-102.4369074904
 20
-200.178423783
 10
-82.5113277462
 20
-208.2591074963
 10
-61.8817904464
 20
-214.5629979345
 10
-40.7242995294
 20
-219.036312527
 10
-19.2193632478
 20
-221.6408865312
 10
2.4495458644
 20
-222.3544986398
 10
24.097556315
 20
-221.171060566
 10
45.5399749118
 20
-218.1006689862
 10
66.5938624995
 20
-213.1695193987
 10
87.0795947327
 20
-206.4196826332
 10
106.822394567
 20
-197.908745917
 10
125.6538233954
 20
-187.7093215613
 10
143.4132181069
 20
-175.9084274584
 10
159.9490618076
 20
-162.6067446761
 10
175.1202765093
 20
-147.9177584816
 10
188.7974267576
 20
-131.9667901262
 10
200.8638239289
 20
-114.8899276476
 10
211.216521777
 20
-96.8328648153
 10
219.7671947341
 20
-77.9496581228
 10
226.4428914736
 20
-58.4014124314
 10
231.1866573044
 20
-38.3549064809
 10
233.9580200893
 20
-17.9811699919
 10
234.733335538
 20
2.5459754996
 10
233.5059889326
 20
23.0513996257
  0
LWPOLYLINE
  5
48
330
1F
100
AcDbEntity
  8
0
  6
Continuous
 62
     7
370
    15
100
AcDbPolyline
 90
      143
 70
   128
 43
0.0
 10
14.4523540972
 20
69.4077258397
 10
17.6935470298
 20
68.7371621699
 10
20.900109884
 20
67.9314150108
 10
24.0657656625
 20
66.9920616502
 10
27.1843174455
 20
65.9209409164
 10
30.2496605213
 20
64.7201495787
 10
33.255794337
 20
63.3920382423
 10
36.1968342444
 20
61.9392067477
 10
39.0670230198
 20
60.3644990807
 10
41.860742134
 20
58.6709978055
 10
44.5725227505
 20
56.8620180304
 10
47.1970564314
 20
54.9411009182
 10
49.7292055289
 20
52.9120067544
 10
52.1640132421
 20
50.7787075862
 10
54.4967133205
 20
48.5453794467
 10
56.7227393944
 20
46.2163941808
 10
58.8377339131
 20
43.7963108864
 10
60.8375566754
 20
41.2898669903
 10
62.7182929345
 20
38.701968974
 10
64.4762610607
 20
36.0376827695
 10
66.108019749
 20
33.3022238421
 10
67.610374755
 20
30.5009469812
 10
68.9803851483
 20
27.6393358177
 10
70.2153690692
 20
24.7229920899
 10
71.3129089787
 20
21.7576246775
 10
72.2708563909
 20
18.7490384266
 10
73.0873360787
 20
15.703122786
 10
73.7607497448
 20
12.6258402786
 10
74.2897791503
 20
9.5232148295
 10
74.6733886953
 20
6.4013199735
 10
74.9108274462
 20
3.2662669666
 10
75.0016306053
 20
0.1241928223
 10
74.9456204214
 20
-3.0187517019
 10
74.7429065368
 20
-6.1564141444
 10
74.3938857736
 20
-9.2826523836
 10
73.8992413564
 20
-12.3913466614
 10
73.2599415747
 20
-15.4764115627
 10
72.477237888
 20
-18.5318079281
 10
71.5526624754
 20
-21.5515546758
 10
70.4880252367
 20
-24.5297405096
 10
69.2854102494
 20
-27.460535491
 10
67.9471716887
 20
-30.3382024512
 10
66.4759292195
 20
-33.1571082219
 10
64.874562868
 20
-35.9117346627
 10
63.146207384
 20
-38.5966894629
 10
61.2942461046
 20
-41.2067166976
 10
59.3223043309
 20
-43.7367071158
 10
57.2342422315
 20
-46.1817081425
 10
55.0341472861
 20
-48.5369335733
 10
52.7263262839
 20
-50.7977729438
 10
50.3152968927
 20
-52.9598005549
 10
47.805778816
 20
-55.0187841359
 10
45.2026845531
 20
-56.9706931298
 10
42.5111097833
 20
-58.811706583
 10
39.7363233906
 20
-60.5382206253
 10
36.8837571498
 20
-62.1468555244
 10
33.9589950931
 20
-63.6344623019
 10
30.9677625797
 20
-64.9981288977
 10
27.9159150876
 20
-66.2351858704
 10
24.8094267516
 20
-67.3432116229
 10
21.6543786686
 20
-68.3200371426
 10
18.4569469933
 20
-69.1637502479
 10
15.2233908484
 20
-69.8726993307
 10
11.9600400719
 20
-70.4454965898
 10
8.6732828261
 20
-70.8810207477
 10
5.3695530928
 20
-71.1784192454
 10
2.055318078
 20
-71.3371099115
 10
-1.2629344477
 20
-71.3567821014
 10
-4.578708849
 20
-71.237397306
 10
-7.8855143418
 20
-70.9791892265
 10
-11.1768776992
 20
-70.5826633175
 10
-14.4463559227
 20
-70.0485957969
 10
-17.6875488553
 20
-69.3780321272
 10
-20.8941117095
 20
-68.572284968
 10
-24.059767488
 20
-67.6329316074
 10
-27.1783192709
 20
-66.5618108737
 10
-30.2436623467
 20
-65.3610195359
 10
-33.2497961624
 20
-64.0329081996
 10
-36.1908360699
 20
-62.5800767049
 10
-39.0610248453
 20
-61.0053690379
 10
-41.8547439594
 20
-59.3118677627
 10
-44.5665245759
 20
-57.5028879876
 10
-47.1910582569
 20
-55.5819708754
 10
-49.7232073543
 20
-53.5528767117
 10
-52.1580150675
 20
-51.4195775434
 10
-54.490715146
 20
-49.186249404
 10
-56.7167412199
 20
-46.857264138
 10
-58.8317357385
 20
-44.4371808436
 10
-60.8315585008
 20
-41.9307369475
 10
-62.7122947599
 20
-39.3428389312
 10
-64.4702628862
 20
-36.6785527267
 10
-66.1020215744
 20
-33.9430937994
 10
-67.6043765805
 20
-31.1418169384
 10
-68.9743869738
 20
-28.2802057749
 10
-70.2093708947
 20
-25.3638620471
 10
-71.3069108042
 20
-22.3984946348
 10
-72.2648582164
 20
-19.3899083839
 10
-73.0813379042
 20
-16.3439927433
 10
-73.7547515702
 20
-13.2667102359
 10
-74.2837809758
 20
-10.1640847867
 10
-74.6673905208
 20
-7.0421899308
 10
-74.9048292716
 20
-3.9071369239
 10
-74.9956324308
 20
-0.7650627795
 10
-74.9396222468
 20
2.3778817447
 10
-74.7369083623
 20
5.5155441872
 10
-74.3878875991
 20
8.6417824264
 10
-73.8932431818
 20
11.7504767042
 10
-73.2539434001
 20
14.8355416055
 10
-72.4712397134
 20
17.8909379709
 10
-71.5466643008
 20
20.9106847186
 10
-70.4820270622
 20
23.8888705524
 10
-69.2794120748
 20
26.8196655338
 10
-67.9411735142
 20
29.697332494
 10
-66.469931045
 20
32.5162382646
 10
-64.8685646935
 20
35.2708647054
 10
-63.1402092095
 20
37.9558195057
 10
-61.28824793
 20
40.5658467404
 10
-59.3163061563
 20
43.0958371586
 10
-57.228244057
 20
45.5408381853
 10
-55.0281491116
 20
47.896063616
 10
-52.7203281093
 20
50.1569029866
 10
-50.3092987182
 20
52.3189305976
 10
-47.7997806414
 20
54.3779141786
 10
-45.1966863785
 20
56.3298231725
 10
-42.5051116087
 20
58.1708366258
 10
-39.7303252161
 20
59.8973506681
 10
-36.8777589752
 20
61.5059855672
 10
-33.9529969186
 20
62.9935923447
 10
-30.9617644051
 20
64.3572589405
 10
-27.909916913
 20
65.5943159132
 10
-24.8034285771
 20
66.7023416656
 10
-21.6483804941
 20
67.6791671854
 10
-18.4509488188
 20
68.5228802907
 10
-15.2173926739
 20
69.2318293734
 10
-11.9540418973
 20
69.8046266325
 10
-8.6672846516
 20
70.2401507905
 10
-5.3635549182
 20
70.5375492882
 10
-2.0493199034
 20
70.6962399543
 10
1.2689326222
 20
70.7159121442
 10
4.5847070235
 20
70.5965273487
 10
7.8915125163
 20
70.3383192693
 10
11.1828758737
 20
69.9417933602
 10
14.4523540972
 20
69.4077258397
  0
LWPOLYLINE
  5
49
330
1F
100
AcDbEntity
  8
0
  6
Continuous
 62
     7
370
    15
100
AcDbPolyline
 90
      142
 70
   128
 43
0.0
 10
14.2566969432
 20
68.7984520074
 10
11.0078485372
 20
69.3286522538
 10
7.7371450669
 20
69.7212068784
 10
4.4510802112
 20
69.9753365006
 10
1.1561781478
 20
70.0905365693
 10
-2.1410194003
 20
70.0665783655
 10
-5.4339661526
 20
69.9035094561
 10
-8.716124268
 20
69.6016535993
 10
-11.9809773256
 20
69.1616101018
 10
-15.2220432616
 20
68.5842526294
 10
-18.4328872398
 20
67.8707274719
 10
-21.6071344266
 20
67.0224512673
 10
-24.738482648
 20
66.0411081897
 10
-27.8207149021
 20
64.9286466048
 10
-30.8477117019
 20
63.6872752022
 10
-33.8134632256
 20
62.3194586098
 10
-36.7120812479
 20
60.8279125009
 10
-39.5378108311
 20
59.2155982023
 10
-42.2850417508
 20
57.4857168147
 10
-44.9483196341
 20
55.6417028575
 10
-47.5223567894
 20
53.6872174496
 10
-50.0020427042
 20
51.6261410411
 10
-52.3824541916
 20
49.4625657083
 10
-54.6588651649
 20
47.2007870297
 10
-56.8267560209
 20
44.8452955576
 10
-58.881822613
 20
42.4007679023
 10
-60.8199847967
 20
39.872057447
 10
-62.6373945303
 20
37.2641847125
 10
-64.330443515
 20
34.5823273885
 10
-65.8957703589
 20
31.8318100546
 10
-67.3302672503
 20
29.0180936084
 10
-68.6310861285
 20
26.1467644233
 10
-69.7956443379
 20
23.2235232577
 10
-70.8216297562
 20
20.2541739364
 10
-71.7070053841
 20
17.2446118275
 10
-72.4500133903
 20
14.2008121381
 10
-73.0491786012
 20
11.1288180506
 10
-73.5033114298
 20
8.0347287251
 10
-73.8115102373
 20
4.9246871894
 10
-73.9731631236
 20
1.8048681431
 10
-73.9879491418
 20
-1.3185343018
 10
-73.8558389356
 20
-4.4393189189
 10
-73.5770947976
 20
-7.5512896791
 10
-73.1522701485
 20
-10.6482680528
 10
-72.5822084383
 20
-13.7241052758
 10
-71.8680414718
 20
-16.7726945582
 10
-71.0111871614
 20
-19.7879832081
 10
-70.013346712
 20
-22.763984649
 10
-68.8765012434
 20
-25.6947903055
 10
-67.6029078571
 20
-28.5745813343
 10
-66.1950951549
 20
-31.3976401768
 10
-64.6558582186
 20
-34.1583619111
 10
-62.9882530606
 20
-36.8512653796
 10
-61.1955905566
 20
-39.4710040719
 10
-59.2814298721
 20
-42.0123767392
 10
-57.2495713959
 20
-44.4703377213
 10
-55.1040491951
 20
-46.8400069642
 10
-52.8491230052
 20
-49.116679709
 10
-50.4892697735
 20
-51.2958358327
 10
-48.0291747702
 20
-53.3731488226
 10
-45.4737222862
 20
-55.3444943659
 10
-42.8279859358
 20
-57.2059585385
 10
-40.0972185837
 20
-58.9538455758
 10
-37.2868419157
 20
-60.5846852096
 10
-34.4024356745
 20
-62.095239559
 10
-31.4497265817
 20
-63.482509558
 10
-28.4345769679
 20
-64.7437409105
 10
-25.3629731336
 20
-65.8764295584
 10
-22.2410134638
 20
-66.8783266533
 10
-19.0748963205
 20
-67.7474430211
 10
-15.8709077363
 20
-68.4820531118
 10
-12.6354089337
 20
-69.080698425
 10
-9.3748236964
 20
-69.542190406
 10
-6.0956256144
 20
-69.865612805
 10
-2.8043252319
 20
-70.0503234968
 10
0.4925428787
 20
-70.0959557556
 10
3.788433091
 20
-70.0024189825
 10
7.0768017201
 20
-69.7698988863
 10
10.3511200145
 20
-69.3988571141
 10
13.6048871182
 20
-68.8900303349
 10
16.8316429778
 20
-68.2444287773
 10
20.0249811684
 20
-67.4633342234
 10
23.1785616124
 20
-66.548297464
 10
26.2861231678
 20
-65.50113522
 10
29.3414960589
 20
-64.3239265352
 10
32.3386141255
 20
-63.0190086482
 10
35.2715268672
 20
-61.588972353
 10
38.1344112571
 20
-60.0366568541
 10
40.9215833034
 20
-58.3651441302
 10
43.627509334
 20
-56.5777528152
 10
46.2468169831
 20
-54.6780316091
 10
48.7743058579
 20
-52.6697522325
 10
51.2049578631
 20
-50.5569019381
 10
53.5339471643
 20
-48.3436755948
 10
55.7566497688
 20
-46.0344673584
 10
57.8686527062
 20
-43.6338619483
 10
59.8657627902
 20
-41.1466255441
 10
61.7440149437
 20
-38.5776963237
 10
63.4996800708
 20
-35.9321746582
 10
65.1292724609
 20
-33.2153129859
 10
66.6295567092
 20
-30.4325053842
 10
67.9975541401
 20
-27.5892768601
 10
69.2305487215
 20
-24.6912723805
 10
70.3260924567
 20
-21.7442456652
 10
71.282010245
 20
-18.7540477628
 10
72.0964042001
 20
-15.7266154346
 10
72.7676574183
 20
-12.6679593671
 10
73.2944371883
 20
-9.584152239
 10
73.6756976378
 20
-6.4813166637
 10
73.9106818093
 20
-3.3656130341
 10
73.9989231636
 20
-0.2432272913
 10
73.9402465057
 20
2.8796413567
 10
73.7347683325
 20
5.9967927433
 10
73.382896602
 20
9.1020380531
 10
72.885329923
 20
12.1892121088
 10
72.243056168
 20
15.2521856122
 10
71.4573505121
 20
18.2848773128
 10
70.5297729012
 20
21.2812660821
 10
69.4621649547
 20
24.2354028674
 10
68.2566463094
 20
27.1414225037
 10
66.915610411
 20
29.9935553579
 10
65.4417197622
 20
32.7861387844
 10
63.8379006363
 20
35.513628367
 10
62.1073372678
 20
38.1706089279
 10
60.2534655302
 20
40.751805278
 10
58.279966114
 20
43.2520926908
 10
56.1907572198
 20
45.6665070772
 10
53.9899867783
 20
47.990254841
 10
51.6820242157
 20
50.2187223959
 10
49.2714517779
 20
52.3474853259
 10
46.7630554334
 20
54.3723171694
 10
44.1618153709
 20
56.2891978101
 10
41.4728961118
 20
58.0943214589
 10
38.7016362564
 20
59.7841042099
 10
35.8535378846
 20
61.3551911558
 10
32.9342556321
 20
62.8044630491
 10
29.9495854636
 20
64.1290424944
 10
26.9054531654
 20
65.3262996619
 10
23.8079025804
 20
66.3938575083
 10
20.6630836086
 20
67.3295964963
 10
17.477239997
 20
68.1316588029
 10
14.2566969432
 20
68.7984520074
  0
LWPOLYLINE
  5
4A
330
1F
100
AcDbEntity
  8
0
  6
Continuous
 62
     7
370
    15
100
AcDbPolyline
 90
       28
 70
   128
 43
0.0
 10
11.0296743243
 20
53.2258294246
 10
11.6662651369
 20
53.1796032753
 10
12.2970993512
 20
53.2737015069
 10
12.8881685314
 20
53.5030512593
 10
13.4076079851
 20
53.8552882282
 10
13.8274145967
 20
54.3114232274
 10
14.1249564833
 20
54.8468659009
 10
14.2841930848
 20
55.4327503956
 10
14.2965399146
 20
56.0374915268
 10
14.161331352
 20
56.6284875436
 10
13.8858565257
 20
57.1738776978
 10
13.4849663547
 20
57.6442598648
 10
12.9802729321
 20
58.0142756205
 10
12.3989844108
 20
58.2639773195
 10
11.7724382055
 20
58.3799034787
 10
11.1344115843
 20
58.3558044889
 10
10.5193007274
 20
58.1929795327
 10
9.9602664205
 20
57.9002065458
 10
9.4874463476
 20
57.4932689957
 10
9.1263303614
 20
56.9941049909
 10
8.896386318
 20
56.4296245923
 10
8.8100105604
 20
55.8302590842
 10
8.8718596281
 20
55.2283204162
 10
9.0785992217
 20
54.6562592579
 10
9.4190839563
 20
54.1449155742
 10
9.8749582117
 20
53.7218560356
 10
10.4216456889
 20
53.4098878913
 10
11.0296743243
 20
53.2258294246
  0
LWPOLYLINE
  5
4B
330
1F
100
AcDbEntity
  8
0
  6
Continuous
 62
     7
370
    15
100
AcDbPolyline
 90
       43
 70
   128
 43
0.0
 10
-1.2946622089
 20
-6.2476432093
 10
-0.2974058115
 20
-6.3597031767
 10
0.7064941403
 20
-6.3296978842
 10
1.6946121804
 20
-6.1582976005
 10
2.6448753846
 20
-5.8493311247
 10
3.5360564433
 20
-5.4097002572
 10
4.3482478443
 20
-4.8492256253
 10
5.0633065736
 20
-4.1804273061
 10
5.6652594009
 20
-3.4182451487
 10
6.1406596948
 20
-2.5797050432
 10
6.4788877983
 20
-1.6835385899
 10
6.6723882543
 20
-0.7497646665
 10
6.7168385826
 20
0.2007577607
 10
6.6112458362
 20
1.1467955912
 10
6.3579687825
 20
2.0672159033
 10
5.9626652125
 20
2.941458028
 10
5.4341655546
 20
3.749992841
 10
4.7842756179
 20
4.4747590106
 10
4.0275128697
 20
5.0995664582
 10
3.1807821392
 20
5.6104580179
 10
2.2629979919
 20
5.9960212166
 10
1.2946622089
 20
6.2476432093
 10
0.2974058115
 20
6.3597031767
 10
-0.7064941403
 20
6.3296978842
 10
-1.6946121804
 20
6.1582976005
 10
-2.6448753846
 20
5.8493311247
 10
-3.5360564433
 20
5.4097002572
 10
-4.3482478443
 20
4.8492256253
 10
-5.0633065736
 20
4.1804273061
 10
-5.6652594009
 20
3.4182451487
 10
-6.1406596948
 20
2.5797050432
 10
-6.4788877983
 20
1.6835385899
 10
-6.6723882543
 20
0.7497646665
 10
-6.7168385826
 20
-0.2007577607
 10
-6.6112458362
 20
-1.1467955912
 10
-6.3579687825
 20
-2.0672159033
 10
-5.9626652125
 20
-2.941458028
 10
-5.4341655546
 20
-3.749992841
 10
-4.7842756179
 20
-4.4747590106
 10
-4.0275128697
 20
-5.0995664582
 10
-3.1807821392
 20
-5.6104580179
 10
-2.2629979919
 20
-5.9960212166
 10
-1.2946622089
 20
-6.2476432093
  0
LWPOLYLINE
  5
4C
330
1F
100
AcDbEntity
  8
0
  6
Continuous
 62
     7
370
    15
100
AcDbPolyline
 90
       28
 70
   128
 43
0.0
 10
-56.1772133893
 20
10.3941393768
 10
-56.1277684426
 20
10.9972130016
 10
-56.2264642353
 20
11.5946911825
 10
-56.4679800518
 20
12.154363716
 10
-56.8392957119
 20
12.6460585112
 10
-57.3203934923
 20
13.0432681742
 10
-57.885337287
 20
13.3245790293
 10
-58.5036708298
 20
13.4748255355
 10
-59.1420595995
 20
13.4859078649
 10
-59.7660878922
 20
13.357228566
 10
-60.342114181
 20
13.0957247733
 10
-60.8390847398
 20
12.7154942238
 10
-61.230207757
 20
12.237035245
 10
-61.4943976896
 20
11.6861416842
 10
-61.6174119898
 20
11.0925123559
 10
-61.5926189249
 20
10.4881499708
 10
-61.4213550956
 20
9.9056358616
 10
-61.112853379
 20
9.3763735146
 10
-60.6837451827
 20
8.9288955999
 10
-60.1571638405
 20
8.5873257679
 10
-59.561497489
 20
8.3700781364
 10
-58.9288586552
 20
8.2888645816
 10
-58.2933530626
 20
8.3480633473
 10
-57.689240982
 20
8.5444830126
 10
-57.1490902522
 20
8.8675345426
 10
-56.7020205387
 20
9.2998021456
 10
-56.3721334856
 20
9.8179821633
 10
-56.1772133893
 20
10.3941393768
  0
LWPOLYLINE
  5
4D
330
1F
100
AcDbEntity
  8
0
  6
Continuous
 62
     7
370
    15
100
AcDbPolyline
 90
       28
 70
   128
 43
0.0
 10
-11.0296743243
 20
-53.2258294246
 10
-11.6662651369
 20
-53.1796032753
 10
-12.2970993512
 20
-53.2737015069
 10
-12.8881685314
 20
-53.5030512593
 10
-13.4076079851
 20
-53.8552882282
 10
-13.8274145967
 20
-54.3114232274
 10
-14.1249564833
 20
-54.8468659009
 10
-14.2841930848
 20
-55.4327503956
 10
-14.2965399146
 20
-56.0374915268
 10
-14.161331352
 20
-56.6284875436
 10
-13.8858565257
 20
-57.1738776978
 10
-13.4849663547
 20
-57.6442598648
 10
-12.9802729321
 20
-58.0142756205
 10
-12.3989844108
 20
-58.2639773195
 10
-11.7724382055
 20
-58.3799034787
 10
-11.1344115843
 20
-58.3558044889
 10
-10.5193007274
 20
-58.1929795327
 10
-9.9602664205
 20
-57.9002065458
 10
-9.4874463476
 20
-57.4932689957
 10
-9.1263303614
 20
-56.9941049909
 10
-8.896386318
 20
-56.4296245923
 10
-8.8100105604
 20
-55.8302590842
 10
-8.8718596281
 20
-55.2283204162
 10
-9.0785992217
 20
-54.6562592579
 10
-9.4190839563
 20
-54.1449155742
 10
-9.8749582117
 20
-53.7218560356
 10
-10.4216456889
 20
-53.4098878913
 10
-11.0296743243
 20
-53.2258294246
  0
LWPOLYLINE
  5
4E
330
1F
100
AcDbEntity
  8
0
  6
Continuous
 62
     7
370
    15
100
AcDbPolyline
 90
       28
 70
   128
 43
0.0
 10
56.1772133893
 20
-10.3941393768
 10
56.1277684426
 20
-10.9972130016
 10
56.2264642353
 20
-11.5946911825
 10
56.4679800518
 20
-12.154363716
 10
56.8392957119
 20
-12.6460585112
 10
57.3203934923
 20
-13.0432681742
 10
57.885337287
 20
-13.3245790293
 10
58.5036708298
 20
-13.4748255355
 10
59.1420595995
 20
-13.4859078649
 10
59.7660878922
 20
-13.357228566
 10
60.342114181
 20
-13.0957247733
 10
60.8390847398
 20
-12.7154942238
 10
61.230207757
 20
-12.237035245
 10
61.4943976896
 20
-11.6861416842
 10
61.6174119898
 20
-11.0925123559
 10
61.5926189249
 20
-10.4881499708
 10
61.4213550956
 20
-9.9056358616
 10
61.112853379
 20
-9.3763735146
 10
60.6837451827
 20
-8.9288955999
 10
60.1571638405
 20
-8.5873257679
 10
59.561497489
 20
-8.3700781364
 10
58.9288586552
 20
-8.2888645816
 10
58.2933530626
 20
-8.3480633473
 10
57.689240982
 20
-8.5444830126
 10
57.1490902522
 20
-8.8675345426
 10
56.7020205387
 20
-9.2998021456
 10
56.3721334856
 20
-9.8179821633
 10
56.1772133893
 20
-10.3941393768
  0
LWPOLYLINE
  5
4F
330
1F
100
AcDbEntity
  8
0
  6
Continuous
 62
     7
370
    15
100
AcDbPolyline
 90
       73
 70
   128
 43
0.0
 10
75.0536979174
 20
-5.386338432
 10
75.0556141763
 20
-5.6436367928
 10
74.9996039924
 20
-8.786581317
 10
74.7968901078
 20
-11.9242437595
 10
74.4478693446
 20
-15.0504819987
 10
73.9532249274
 20
-18.1591762765
 10
73.3139251457
 20
-21.2442411778
 10
72.5312214589
 20
-24.2996375432
 10
71.6066460464
 20
-27.3193842908
 10
70.5420088077
 20
-30.2975701247
 10
69.3393938204
 20
-33.2283651061
 10
68.0011552597
 20
-36.1060320662
 10
66.5299127905
 20
-38.9249378369
 10
64.928546439
 20
-41.6795642777
 10
63.200190955
 20
-44.364519078
 10
61.3482296756
 20
-46.9745463127
 10
59.3762879019
 20
-49.5045367309
 10
57.2882258025
 20
-51.9495377575
 10
55.0881308571
 20
-54.3047631883
 10
52.7803098549
 20
-56.5656025589
 10
50.3692804637
 20
-58.7276301699
 10
47.859762387
 20
-60.7866137509
 10
45.2566681241
 20
-62.7385227448
 10
42.5650933543
 20
-64.579536198
 10
39.7903069616
 20
-66.3060502404
 10
36.9377407208
 20
-67.9146851395
 10
34.0129786641
 20
-69.402291917
 10
31.0217461507
 20
-70.7659585128
 10
27.9698986586
 20
-72.0030154855
 10
24.8634103226
 20
-73.1110412379
 10
21.7083622396
 20
-74.0878667577
 10
18.5109305643
 20
-74.931579863
 10
15.2773744194
 20
-75.6405289457
 10
12.0140236429
 20
-76.2133262048
 10
8.7272663971
 20
-76.6488503627
 10
5.4235366638
 20
-76.9462488605
 10
2.1093016489
 20
-77.1049395265
 10
-1.2089508767
 20
-77.1246117164
 10
-4.524725278
 20
-77.005226921
 10
-7.8315307708
 20
-76.7470188415
 10
-11.1228941282
 20
-76.3504929325
 10
-14.3923723517
 20
-75.816425412
 10
-17.6335652843
 20
-75.1458617422
 10
-20.8401281385
 20
-74.3401145831
 10
-24.005783917
 20
-73.4007612225
 10
-27.1243356999
 20
-72.3296404887
 10
-30.1896787757
 20
-71.1288491509
 10
-33.1958125914
 20
-69.8007378146
 10
-36.1368524989
 20
-68.34790632
 10
-39.0070412743
 20
-66.773198653
 10
-41.8007603884
 20
-65.0796973778
 10
-44.5125410049
 20
-63.2707176027
 10
-47.1370746859
 20
-61.3498004905
 10
-49.6692237833
 20
-59.3207063267
 10
-52.1040314965
 20
-57.1874071584
 10
-54.436731575
 20
-54.954079019
 10
-56.6627576489
 20
-52.6250937531
 10
-58.7777521675
 20
-50.2050104587
 10
-60.7775749298
 20
-47.6985665625
 10
-62.6583111889
 20
-45.1106685463
 10
-64.4162793152
 20
-42.4463823418
 10
-66.0480380034
 20
-39.7109234144
 10
-67.5503930095
 20
-36.9096465535
 10
-68.9204034028
 20
-34.04803539
 10
-70.1553873237
 20
-31.1316916622
 10
-71.2529272332
 20
-28.1663242498
 10
-72.2108746454
 20
-25.1577379989
 10
-73.0273543332
 20
-22.1118223583
 10
-73.7007679992
 20
-19.0345398509
 10
-74.2297974048
 20
-15.9319144017
 10
-74.6134069498
 20
-12.8100195458
 10
-74.8508457006
 20
-9.6749665389
 10
-74.9397326009
 20
-6.7901907553
  0
LWPOLYLINE
  5
52
330
1F
100
AcDbEntity
  8
0
  6
Continuous
 62
     7
370
    15
100
AcDbPolyline
 90
       35
 70
   128
 43
0.0
 10
-0.8603033268
 20
-4.8950553016
 10
-0.0341632977
 20
-4.9739446017
 10
0.7933668509
 20
-4.9076768881
 10
1.5941065723
 20
-4.6985088283
 10
2.3407876356
 20
-4.3535633896
 10
3.0079827127
 20
-3.8845872754
 10
3.5729712755
 20
-3.3075509047
 10
4.0165133161
 20
-2.642104559
 10
4.3235045424
 20
-1.9109092154
 10
4.4834907362
 20
-1.1388648546
 10
4.4910237597
 20
-0.3522625211
 10
4.3458470848
 20
0.4221109859
 10
4.0529045289
 20
1.1578853054
 10
3.6221718996
 20
1.8300045255
 10
3.0683172799
 20
2.4155804322
 10
2.4102015245
 20
2.8946719404
 10
1.6702359762
 20
3.2509641633
 10
0.8736192744
 20
3.4723239966
 10
0.0474792452
 20
3.5512132967
 10
-0.7800509034
 20
3.484945583
 10
-1.5807906248
 20
3.2757775232
 10
-2.327471688
 20
2.9308320846
 10
-2.9946667652
 20
2.4618559704
 10
-3.559655328
 20
1.8848195996
 10
-4.0031973686
 20
1.2193732539
 10
-4.3101885949
 20
0.4881779104
 10
-4.4701747887
 20
-0.2838664505
 10
-4.4777078122
 20
-1.0704687839
 10
-4.3325311373
 20
-1.8448422909
 10
-4.0395885814
 20
-2.5806166105
 10
-3.6088559521
 20
-3.2527358305
 10
-3.0550013323
 20
-3.8383117373
 10
-2.396885577
 20
-4.3174032454
 10
-1.6569200287
 20
-4.6736954683
 10
-0.8603033268
 20
-4.8950553016
  0
LINE
  5
57
330
1F
100
AcDbEntity
  8
0
  6
Continuous
 62
     7
370
    15
100
AcDbLine
 10
-74.9937161719
 20
-1.0223611403
 30
0.0
 11
-74.9397326009
 21
-6.7901907553
 31
0.0
  0
LINE
  5
58
330
1F
100
AcDbEntity
  8
0
  6
Continuous
 62
     7
370
    15
100
AcDbLine
 10
75.0536979174
 20
-5.386338432
 30
0.0
 11
74.9997143464
 21
0.381491183
 31
0.0
  0
ARC
  5
59
330
1F
100
AcDbEntity
  8
0
  6
Continuous
 62
     7
370
    15
100
AcDbCircle
 10
-11.5118413202
 20
-60.8728718945
 30
0.0
 40
2.889003366754292
100
AcDbArc
 50
68.9940230065
 51
112.0784568263
  0
ARC
  5
5A
330
1F
100
AcDbEntity
  8
0
  6
Continuous
 62
     7
370
    15
100
AcDbCircle
 10
58.923324913
 20
-15.9837719559
 30
0.0
 40
2.889010375779471
100
AcDbArc
 50
68.9940778804
 51
112.0784019524
  0
ARC
  5
5B
330
1F
100
AcDbEntity
  8
0
  6
Continuous
 62
     7
370
    15
100
AcDbCircle
 10
0.1412255776
 20
-4.699107314
 30
0.0
 40
4.46323125907484
100
AcDbArc
 50
28.6238242113
 51
80.0952616409
  0
ARC
  5
5C
330
1F
100
AcDbEntity
  8
0
  6
Continuous
 62
     7
370
    15
100
AcDbCircle
 10
0.0174401624
 20
-4.7744094259
 30
0.0
 40
4.560006030771787
100
AcDbArc
 50
78.7257180802
 51
152.0408832736
  0
ARC
  5
5D
330
1F
100
AcDbEntity
  8
0
  6
Continuous
 62
     7
370
    15
100
AcDbCircle
 10
-58.8280720226
 20
5.8065563241
 30
0.0
 40
2.885768099194356
100
AcDbArc
 50
68.9686632798
 51
112.103816553
  0
ARC
  5
5E
330
1F
100
AcDbEntity
  8
0
  6
Continuous
 62
     7
370
    15
100
AcDbCircle
 10
11.6070909311
 20
50.6960066576
 30
0.0
 40
2.885449233643191
100
AcDbArc
 50
68.966160525
 51
112.1063193078
  0
CIRCLE
  5
5F
330
1B
100
AcDbEntity
 67
     1
  8
0
  6
Continuous
 62
     7
100
AcDbCircle
 10
0.0
 20
-60.0
 30
0.0
 40
2.5
  0
CIRCLE
  5
60
330
1B
100
AcDbEntity
 67
     1
  8
0
  6
Continuous
 62
     7
100
AcDbCircle
 10
0.0
 20
0.0
 30
0.0
 40
234.7471719577011
  0
CIRCLE
  5
61
330
1B
100
AcDbEntity
 67
     1
  8
0
  6
Continuous
 62
     7
370
    15
100
AcDbCircle
 10
0.0
 20
0.0
 30
0.0
 40
55.00000000000006
  0
CIRCLE
  5
62
330
1B
100
AcDbEntity
 67
     1
  8
0
  6
Continuous
 62
     7
370
    15
100
AcDbCircle
 10
0.0
 20
0.0
 30
0.0
 40
30.00000000000001
  0
CIRCLE
  5
63
330
1B
100
AcDbEntity
 67
     1
  8
0
  6
Continuous
 62
     7
370
    15
100
AcDbCircle
 10
0.0
 20
0.0
 30
0.0
 40
74.99999999999996
  0
CIRCLE
  5
64
330
1B
100
AcDbEntity
 67
     1
  8
0
  6
Continuous
 62
     7
370
    15
100
AcDbCircle
 10
0.0
 20
0.0
 30
0.0
 40
72.99999999999991
  0
CIRCLE
  5
65
330
1B
100
AcDbEntity
 67
     1
  8
0
  6
Continuous
 62
     7
370
    15
100
AcDbCircle
 10
0.0
 20
0.0
 30
0.0
 40
68.0
  0
CIRCLE
  5
66
330
1B
100
AcDbEntity
 67
     1
  8
0
  6
Continuous
 62
     7
370
    15
100
AcDbCircle
 10
0.0
 20
0.0
 30
0.0
 40
4.500000000000001
  0
VIEWPORT
  5
168
330
1B
100
AcDbEntity
 67
     1
  8
0
100
AcDbViewport
 10
0.0
 20
0.0
 30
0.0
 40
243.84
 41
204.216
 68
     1
 69
     1
 12
0.0
 22
0.0
 13
0.0
 23
0.0
 14
10.0
 24
10.0
 15
10.0
 25
10.0
 16
0.0
 26
0.0
 36
1.0
 17
0.0
 27
0.0
 37
0.0
 42
50.0
 43
0.0
 44
0.0
 45
453.6031772252
 50
0.0
 51
0.0
 72
   100
 90
   557152
  1

281
     0
 71
     1
 74
     0
110
0.0
120
0.0
130
0.0
111
1.0
121
0.0
131
0.0
112
0.0
122
1.0
132
0.0
 79
     0
146
0.0
  0
ENDSEC
  0
SECTION
  2
OBJECTS
  0
DICTIONARY
  5
C
330
0
100
AcDbDictionary
281
     1
  3
ACAD_GROUP
350
D
  3
ACAD_LAYOUT
350
1A
  3
ACAD_MLINESTYLE
350
17
  3
ACAD_PLOTSETTINGS
350
19
  3
ACAD_PLOTSTYLENAME
350
E
  0
DICTIONARY
  5
D
102
{ACAD_REACTORS
330
C
102
}
330
C
100
AcDbDictionary
281
     1
  0
DICTIONARY
  5
1A
102
{ACAD_REACTORS
330
C
102
}
330
C
100
AcDbDictionary
281
     1
  3
_Arrière
350
B4
  3
_Dessous
350
E4
  3
_Dessus
350
1E
  3
_Dimétrique
350
142
  3
_Droite
350
CC
  3
_Face
350
26
  3
_Gauche
350
80
  3
_Isométrique
350
F2
  3
_Normal à
350
98
  3
_Trimétrique
350
11A
  3
Model
350
22
  0
DICTIONARY
  5
17
102
{ACAD_REACTORS
330
C
102
}
330
C
100
AcDbDictionary
281
     1
  3
Standard
350
18
  0
DICTIONARY
  5
19
102
{ACAD_REACTORS
330
C
102
}
330
C
100
AcDbDictionary
281
     1
  0
ACDBDICTIONARYWDFLT
  5
E
102
{ACAD_REACTORS
330
C
102
}
330
C
100
AcDbDictionary
281
     1
  3
Normal
350
F
100
AcDbDictionaryWithDefault
340
F
  0
LAYOUT
  5
B4
102
{ACAD_REACTORS
330
1A
102
}
330
1A
100
AcDbPlotSettings
  1

  2
none_device
  4

  6

 40
0.0
 41
0.0
 42
0.0
 43
0.0
 44
0.0
 45
0.0
 46
0.0
 47
0.0
 48
0.0
 49
0.0
140
0.0
141
0.0
142
1.0
143
1.0
 70
   688
 72
     0
 73
     0
 74
     5
  7

 75
    16
147
1.0
148
0.0
149
0.0
100
AcDbLayout
  1
_Arrière
 70
     1
 71
     5
 10
0.0
 20
0.0
 11
0.0
 21
0.0
 12
0.0
 22
0.0
 32
0.0
 14
0.0
 24
0.0
 34
0.0
 15
0.0
 25
0.0
 35
0.0
146
0.0
 13
0.0
 23
0.0
 33
0.0
 16
1.0
 26
0.0
 36
0.0
 17
0.0
 27
1.0
 37
0.0
 76
     0
330
B3
331
16C
  0
LAYOUT
  5
E4
102
{ACAD_REACTORS
330
1A
102
}
330
1A
100
AcDbPlotSettings
  1

  2
none_device
  4

  6

 40
0.0
 41
0.0
 42
0.0
 43
0.0
 44
0.0
 45
0.0
 46
0.0
 47
0.0
 48
0.0
 49
0.0
140
0.0
141
0.0
142
1.0
143
1.0
 70
   688
 72
     0
 73
     0
 74
     5
  7

 75
    16
147
1.0
148
0.0
149
0.0
100
AcDbLayout
  1
_Dessous
 70
     1
 71
     7
 10
0.0
 20
0.0
 11
0.0
 21
0.0
 12
0.0
 22
0.0
 32
0.0
 14
0.0
 24
0.0
 34
0.0
 15
0.0
 25
0.0
 35
0.0
146
0.0
 13
0.0
 23
0.0
 33
0.0
 16
1.0
 26
0.0
 36
0.0
 17
0.0
 27
1.0
 37
0.0
 76
     0
330
E3
331
16E
  0
LAYOUT
  5
1E
102
{ACAD_REACTORS
330
1A
102
}
330
1A
100
AcDbPlotSettings
  1

  2
none_device
  4

  6

 40
0.0
 41
0.0
 42
0.0
 43
0.0
 44
0.0
 45
0.0
 46
0.0
 47
0.0
 48
0.0
 49
0.0
140
0.0
141
0.0
142
1.0
143
1.0
 70
   688
 72
     0
 73
     0
 74
     5
  7

 75
    16
147
1.0
148
0.0
149
0.0
100
AcDbLayout
  1
_Dessus
 70
     1
 71
     1
 10
0.0
 20
0.0
 11
420.0
 21
297.0
 12
0.0
 22
0.0
 32
0.0
 14
-234.7471719577
 24
-234.7471719577
 34
0.0
 15
234.7471719577
 25
234.7471719577
 35
0.0
146
0.0
 13
0.0
 23
0.0
 33
0.0
 16
1.0
 26
0.0
 36
0.0
 17
0.0
 27
1.0
 37
0.0
 76
     0
330
1B
331
168
  0
LAYOUT
  5
142
102
{ACAD_REACTORS
330
1A
102
}
330
1A
100
AcDbPlotSettings
  1

  2
none_device
  4

  6

 40
0.0
 41
0.0
 42
0.0
 43
0.0
 44
0.0
 45
0.0
 46
0.0
 47
0.0
 48
0.0
 49
0.0
140
0.0
141
0.0
142
1.0
143
1.0
 70
   688
 72
     0
 73
     0
 74
     5
  7

 75
    16
147
1.0
148
0.0
149
0.0
100
AcDbLayout
  1
_Dimétrique
 70
     1
 71
    10
 10
0.0
 20
0.0
 11
0.0
 21
0.0
 12
0.0
 22
0.0
 32
0.0
 14
0.0
 24
0.0
 34
0.0
 15
0.0
 25
0.0
 35
0.0
146
0.0
 13
0.0
 23
0.0
 33
0.0
 16
1.0
 26
0.0
 36
0.0
 17
0.0
 27
1.0
 37
0.0
 76
     0
330
141
331
171
  0
LAYOUT
  5
CC
102
{ACAD_REACTORS
330
1A
102
}
330
1A
100
AcDbPlotSettings
  1

  2
none_device
  4

  6

 40
0.0
 41
0.0
 42
0.0
 43
0.0
 44
0.0
 45
0.0
 46
0.0
 47
0.0
 48
0.0
 49
0.0
140
0.0
141
0.0
142
1.0
143
1.0
 70
   688
 72
     0
 73
     0
 74
     5
  7

 75
    16
147
1.0
148
0.0
149
0.0
100
AcDbLayout
  1
_Droite
 70
     1
 71
     6
 10
0.0
 20
0.0
 11
0.0
 21
0.0
 12
0.0
 22
0.0
 32
0.0
 14
0.0
 24
0.0
 34
0.0
 15
0.0
 25
0.0
 35
0.0
146
0.0
 13
0.0
 23
0.0
 33
0.0
 16
1.0
 26
0.0
 36
0.0
 17
0.0
 27
1.0
 37
0.0
 76
     0
330
CB
331
16D
  0
LAYOUT
  5
26
102
{ACAD_REACTORS
330
1A
102
}
330
1A
100
AcDbPlotSettings
  1

  2
none_device
  4

  6

 40
0.0
 41
0.0
 42
0.0
 43
0.0
 44
0.0
 45
0.0
 46
0.0
 47
0.0
 48
0.0
 49
0.0
140
0.0
141
0.0
142
1.0
143
1.0
 70
   688
 72
     0
 73
     0
 74
     5
  7

 75
    16
147
1.0
148
0.0
149
0.0
100
AcDbLayout
  1
_Face
 70
     1
 71
     2
 10
0.0
 20
0.0
 11
0.0
 21
0.0
 12
0.0
 22
0.0
 32
0.0
 14
0.0
 24
0.0
 34
0.0
 15
0.0
 25
0.0
 35
0.0
146
0.0
 13
0.0
 23
0.0
 33
0.0
 16
1.0
 26
0.0
 36
0.0
 17
0.0
 27
1.0
 37
0.0
 76
     0
330
23
331
169
  0
LAYOUT
  5
80
102
{ACAD_REACTORS
330
1A
102
}
330
1A
100
AcDbPlotSettings
  1

  2
none_device
  4

  6

 40
0.0
 41
0.0
 42
0.0
 43
0.0
 44
0.0
 45
0.0
 46
0.0
 47
0.0
 48
0.0
 49
0.0
140
0.0
141
0.0
142
1.0
143
1.0
 70
   688
 72
     0
 73
     0
 74
     5
  7

 75
    16
147
1.0
148
0.0
149
0.0
100
AcDbLayout
  1
_Gauche
 70
     1
 71
     3
 10
0.0
 20
0.0
 11
0.0
 21
0.0
 12
0.0
 22
0.0
 32
0.0
 14
0.0
 24
0.0
 34
0.0
 15
0.0
 25
0.0
 35
0.0
146
0.0
 13
0.0
 23
0.0
 33
0.0
 16
1.0
 26
0.0
 36
0.0
 17
0.0
 27
1.0
 37
0.0
 76
     0
330
7F
331
16A
  0
LAYOUT
  5
F2
102
{ACAD_REACTORS
330
1A
102
}
330
1A
100
AcDbPlotSettings
  1

  2
none_device
  4

  6

 40
0.0
 41
0.0
 42
0.0
 43
0.0
 44
0.0
 45
0.0
 46
0.0
 47
0.0
 48
0.0
 49
0.0
140
0.0
141
0.0
142
1.0
143
1.0
 70
   688
 72
     0
 73
     0
 74
     5
  7

 75
    16
147
1.0
148
0.0
149
0.0
100
AcDbLayout
  1
_Isométrique
 70
     1
 71
     8
 10
0.0
 20
0.0
 11
0.0
 21
0.0
 12
0.0
 22
0.0
 32
0.0
 14
0.0
 24
0.0
 34
0.0
 15
0.0
 25
0.0
 35
0.0
146
0.0
 13
0.0
 23
0.0
 33
0.0
 16
1.0
 26
0.0
 36
0.0
 17
0.0
 27
1.0
 37
0.0
 76
     0
330
F1
331
16F
  0
LAYOUT
  5
98
102
{ACAD_REACTORS
330
1A
102
}
330
1A
100
AcDbPlotSettings
  1

  2
none_device
  4

  6

 40
0.0
 41
0.0
 42
0.0
 43
0.0
 44
0.0
 45
0.0
 46
0.0
 47
0.0
 48
0.0
 49
0.0
140
0.0
141
0.0
142
1.0
143
1.0
 70
   688
 72
     0
 73
     0
 74
     5
  7

 75
    16
147
1.0
148
0.0
149
0.0
100
AcDbLayout
  1
_Normal à
 70
     1
 71
     4
 10
0.0
 20
0.0
 11
0.0
 21
0.0
 12
0.0
 22
0.0
 32
0.0
 14
0.0
 24
0.0
 34
0.0
 15
0.0
 25
0.0
 35
0.0
146
0.0
 13
0.0
 23
0.0
 33
0.0
 16
1.0
 26
0.0
 36
0.0
 17
0.0
 27
1.0
 37
0.0
 76
     0
330
97
331
16B
  0
LAYOUT
  5
11A
102
{ACAD_REACTORS
330
1A
102
}
330
1A
100
AcDbPlotSettings
  1

  2
none_device
  4

  6

 40
0.0
 41
0.0
 42
0.0
 43
0.0
 44
0.0
 45
0.0
 46
0.0
 47
0.0
 48
0.0
 49
0.0
140
0.0
141
0.0
142
1.0
143
1.0
 70
   688
 72
     0
 73
     0
 74
     5
  7

 75
    16
147
1.0
148
0.0
149
0.0
100
AcDbLayout
  1
_Trimétrique
 70
     1
 71
     9
 10
0.0
 20
0.0
 11
0.0
 21
0.0
 12
0.0
 22
0.0
 32
0.0
 14
0.0
 24
0.0
 34
0.0
 15
0.0
 25
0.0
 35
0.0
146
0.0
 13
0.0
 23
0.0
 33
0.0
 16
1.0
 26
0.0
 36
0.0
 17
0.0
 27
1.0
 37
0.0
 76
     0
330
119
331
170
  0
LAYOUT
  5
22
102
{ACAD_REACTORS
330
1A
102
}
330
1A
100
AcDbPlotSettings
  1

  2
none_device
  4
ANSI_A_(11.00_x_8.50_Inches)
  6

 40
6.35
 41
19.05
 42
6.35000508
 43
19.05000254
 44
279.4
 45
215.9
 46
133.34999746
 47
88.89999873
 48
0.0
 49
0.0
140
0.0
141
0.0
142
0.0189224865
143
1.0
 70
  1696
 72
     0
 73
     0
 74
     0
  7

 75
     0
147
0.0179189148
148
0.0
149
0.0
100
AcDbLayout
  1
Model
 70
     1
 71
     0
 10
0.0
 20
0.0
 11
420.0
 21
297.0
 12
0.0
 22
0.0
 32
0.0
 14
-234.733335538
 24
-222.3544986398
 34
0.0
 15
234.733335538
 25
222.3544986398
 35
0.0
146
0.0
 13
0.0
 23
0.0
 33
0.0
 16
1.0
 26
0.0
 36
0.0
 17
0.0
 27
1.0
 37
0.0
 76
     0
330
1F
331
29
  0
MLINESTYLE
  5
18
102
{ACAD_REACTORS
330
17
102
}
330
17
100
AcDbMlineStyle
  2
Standard
 70
     0
  3

 62
   256
 51
90.0
 52
90.0
 71
     2
 49
0.5
 62
   256
  6
BYLAYER
 49
-0.5
 62
   256
  6
BYLAYER
  0
ACDBPLACEHOLDER
  5
F
102
{ACAD_REACTORS
330
E
102
}
330
E
  0
ENDSEC
  0
EOF
