  0
SECTION
  2
HEADER
  9
$ACADVER
  1
AC1015
  9
$ACADMAINTVER
 70
     6
  9
$DWGCODEPAGE
  3
ANSI_1252
  9
$INSBASE
 10
0.0
 20
0.0
 30
0.0
  9
$EXTMIN
 10
-77.0
 20
-77.0
 30
0.0
  9
$EXTMAX
 10
77.0
 20
77.0
 30
0.0
  9
$LIMMIN
 10
0.0
 20
0.0
  9
$LIMMAX
 10
420.0
 20
297.0
  9
$ORTHOMODE
 70
     0
  9
$REGENMODE
 70
     1
  9
$FILLMODE
 70
     1
  9
$QTEXTMODE
 70
     0
  9
$MIRRTEXT
 70
     1
  9
$LTSCALE
 40
1.0
  9
$ATTMODE
 70
     1
  9
$TEXTSIZE
 40
3.5
  9
$TRACEWID
 40
1.0
  9
$TEXTSTYLE
  7
Standard
  9
$CLAYER
  8
0
  9
$CELTYPE
  6
ByLayer
  9
$CECOLOR
 62
   256
  9
$CELTSCALE
 40
1.0
  9
$DISPSILH
 70
     0
  9
$DIMSCALE
 40
1.0
  9
$DIMASZ
 40
3.302
  9
$DIMEXO
 40
1.0
  9
$DIMDLI
 40
3.75
  9
$DIMRND
 40
0.0
  9
$DIMDLE
 40
0.0
  9
$DIMEXE
 40
1.0
  9
$DIMTP
 40
0.0
  9
$DIMTM
 40
0.0
  9
$DIMTXT
 40
3.5
  9
$DIMCEN
 40
2.5
  9
$DIMTSZ
 40
0.0
  9
$DIMTOL
 70
     0
  9
$DIMLIM
 70
     0
  9
$DIMTIH
 70
     1
  9
$DIMTOH
 70
     1
  9
$DIMSE1
 70
     0
  9
$DIMSE2
 70
     0
  9
$DIMTAD
 70
     1
  9
$DIMZIN
 70
     0
  9
$DIMBLK
  1

  9
$DIMASO
 70
     1
  9
$DIMSHO
 70
     1
  9
$DIMPOST
  1

  9
$DIMAPOST
  1

  9
$DIMALT
 70
     0
  9
$DIMALTD
 70
     3
  9
$DIMALTF
 40
0.0393700787
  9
$DIMLFAC
 40
1.0
  9
$DIMTOFL
 70
     1
  9
$DIMTVP
 40
0.0
  9
$DIMTIX
 70
     0
  9
$DIMSOXD
 70
     0
  9
$DIMSAH
 70
     0
  9
$DIMBLK1
  1

  9
$DIMBLK2
  1

  9
$DIMSTYLE
  2
ISO-25
  9
$DIMCLRD
 70
     0
  9
$DIMCLRE
 70
     0
  9
$DIMCLRT
 70
     0
  9
$DIMTFAC
 40
1.0
  9
$DIMGAP
 40
1.524
  9
$DIMJUST
 70
     0
  9
$DIMSD1
 70
     0
  9
$DIMSD2
 70
     0
  9
$DIMTOLJ
 70
     0
  9
$DIMTZIN
 70
     0
  9
$DIMALTZ
 70
     0
  9
$DIMALTTZ
 70
     0
  9
$DIMUPT
 70
     0
  9
$DIMDEC
 70
     2
  9
$DIMTDEC
 70
     2
  9
$DIMALTU
 70
     2
  9
$DIMALTTD
 70
     3
  9
$DIMTXSTY
  7
Standard
  9
$DIMAUNIT
 70
     0
  9
$DIMADEC
 70
     2
  9
$DIMALTRND
 40
0.0
  9
$DIMAZIN
 70
     0
  9
$DIMDSEP
 70
    44
  9
$DIMATFIT
 70
     3
  9
$DIMFRAC
 70
     0
  9
$DIMLDRBLK
  1

  9
$DIMLUNIT
 70
     2
  9
$DIMLWD
 70
    -2
  9
$DIMLWE
 70
    -2
  9
$DIMTMOVE
 70
     0
  9
$LUNITS
 70
     2
  9
$LUPREC
 70
     2
  9
$SKETCHINC
 40
1.0
  9
$FILLETRAD
 40
10.0
  9
$AUNITS
 70
     0
  9
$AUPREC
 70
     2
  9
$MENU
  1
.
  9
$ELEVATION
 40
0.0
  9
$PELEVATION
 40
0.0
  9
$THICKNESS
 40
0.0
  9
$LIMCHECK
 70
     0
  9
$CHAMFERA
 40
10.0
  9
$CHAMFERB
 40
10.0
  9
$CHAMFERC
 40
20.0
  9
$CHAMFERD
 40
0.0
  9
$SKPOLY
 70
     0
  9
$TDCREATE
 40
2458802.893909988
  9
$TDUCREATE
 40
2458802.852243322
  9
$TDUPDATE
 40
2458802.894277419
  9
$TDUUPDATE
 40
2458802.852610752
  9
$TDINDWG
 40
0.0000000116
  9
$TDUSRTIMER
 40
0.0000000116
  9
$USRTIMER
 70
     1
  9
$ANGBASE
 50
0.0
  9
$ANGDIR
 70
     0
  9
$PDMODE
 70
     0
  9
$PDSIZE
 40
-1.0
  9
$PLINEWID
 40
0.0
  9
$SPLFRAME
 70
     0
  9
$SPLINETYPE
 70
     6
  9
$SPLINESEGS
 70
     8
  9
$HANDSEED
  5
3A7
  9
$SURFTAB1
 70
     6
  9
$SURFTAB2
 70
     6
  9
$SURFTYPE
 70
     6
  9
$SURFU
 70
     6
  9
$SURFV
 70
     6
  9
$UCSBASE
  2

  9
$UCSNAME
  2

  9
$UCSORG
 10
0.0
 20
0.0
 30
0.0
  9
$UCSXDIR
 10
1.0
 20
0.0
 30
0.0
  9
$UCSYDIR
 10
0.0
 20
1.0
 30
0.0
  9
$UCSORTHOREF
  2

  9
$UCSORTHOVIEW
 70
     0
  9
$UCSORGTOP
 10
0.0
 20
0.0
 30
0.0
  9
$UCSORGBOTTOM
 10
0.0
 20
0.0
 30
0.0
  9
$UCSORGLEFT
 10
0.0
 20
0.0
 30
0.0
  9
$UCSORGRIGHT
 10
0.0
 20
0.0
 30
0.0
  9
$UCSORGFRONT
 10
0.0
 20
0.0
 30
0.0
  9
$UCSORGBACK
 10
0.0
 20
0.0
 30
0.0
  9
$PUCSBASE
  2

  9
$PUCSNAME
  2

  9
$PUCSORG
 10
0.0
 20
0.0
 30
0.0
  9
$PUCSXDIR
 10
1.0
 20
0.0
 30
0.0
  9
$PUCSYDIR
 10
0.0
 20
1.0
 30
0.0
  9
$PUCSORTHOREF
  2

  9
$PUCSORTHOVIEW
 70
     0
  9
$PUCSORGTOP
 10
0.0
 20
0.0
 30
0.0
  9
$PUCSORGBOTTOM
 10
0.0
 20
0.0
 30
0.0
  9
$PUCSORGLEFT
 10
0.0
 20
0.0
 30
0.0
  9
$PUCSORGRIGHT
 10
0.0
 20
0.0
 30
0.0
  9
$PUCSORGFRONT
 10
0.0
 20
0.0
 30
0.0
  9
$PUCSORGBACK
 10
0.0
 20
0.0
 30
0.0
  9
$USERI1
 70
     0
  9
$USERI2
 70
     0
  9
$USERI3
 70
     0
  9
$USERI4
 70
     0
  9
$USERI5
 70
     0
  9
$USERR1
 40
0.0
  9
$USERR2
 40
0.0
  9
$USERR3
 40
0.0
  9
$USERR4
 40
0.0
  9
$USERR5
 40
0.0
  9
$WORLDVIEW
 70
     1
  9
$SHADEDGE
 70
     3
  9
$SHADEDIF
 70
    70
  9
$TILEMODE
 70
     1
  9
$MAXACTVP
 70
    64
  9
$PINSBASE
 10
0.0
 20
0.0
 30
0.0
  9
$PLIMCHECK
 70
     0
  9
$PEXTMIN
 10
-77.0
 20
-77.0
 30
0.0
  9
$PEXTMAX
 10
77.0
 20
77.0
 30
0.0
  9
$PLIMMIN
 10
0.0
 20
0.0
  9
$PLIMMAX
 10
420.0
 20
297.0
  9
$UNITMODE
 70
     0
  9
$VISRETAIN
 70
     1
  9
$PLINEGEN
 70
     0
  9
$PSLTSCALE
 70
     1
  9
$TREEDEPTH
 70
  3020
  9
$CMLSTYLE
  2
Standard
  9
$CMLJUST
 70
     0
  9
$CMLSCALE
 40
20.0
  9
$PROXYGRAPHICS
 70
     1
  9
$MEASUREMENT
 70
     1
  9
$CELWEIGHT
370
    -1
  9
$ENDCAPS
280
     0
  9
$JOINSTYLE
280
     0
  9
$LWDISPLAY
290
     1
  9
$INSUNITS
 70
     4
  9
$HYPERLINKBASE
  1

  9
$STYLESHEET
  1

  9
$XEDIT
290
     1
  9
$CEPSNTYPE
380
     0
  9
$PSTYLEMODE
290
     1
  9
$FINGERPRINTGUID
  2
{A47C177E-253F-4E11-BB4F-F7AC043D1FC7}
  9
$VERSIONGUID
  2
{FAEB1C32-E019-11D5-929B-00C0DF256EC4}
  9
$EXTNAMES
290
     1
  9
$PSVPSCALE
 40
0.0
  9
$OLESTARTUP
290
     0
  0
ENDSEC
  0
SECTION
  2
CLASSES
  0
CLASS
  1
ACDBDICTIONARYWDFLT
  2
AcDbDictionaryWithDefault
  3
ObjectDBX Classes
 90
        0
280
     0
281
     0
  0
CLASS
  1
VISUALSTYLE
  2
AcDbVisualStyle
  3
ObjectDBX Classes
 90
     4095
280
     0
281
     0
  0
CLASS
  1
MATERIAL
  2
AcDbMaterial
  3
ObjectDBX Classes
 90
     1153
280
     0
281
     0
  0
CLASS
  1
ACDBPLACEHOLDER
  2
AcDbPlaceHolder
  3
ObjectDBX Classes
 90
        0
280
     0
281
     0
  0
CLASS
  1
LAYOUT
  2
AcDbLayout
  3
ObjectDBX Classes
 90
        0
280
     0
281
     0
  0
ENDSEC
  0
SECTION
  2
TABLES
  0
TABLE
  2
VPORT
  5
8
330
0
100
AcDbSymbolTable
 70
     1
  0
VPORT
  5
29
330
8
100
AcDbSymbolTableRecord
100
AcDbViewportTableRecord
  2
*Active
 70
     0
 10
0.0
 20
0.0
 11
1.0
 21
1.0
 12
0.0
 22
0.0
 13
0.0
 23
0.0
 14
10.0
 24
10.0
 15
10.0
 25
10.0
 16
0.0
 26
0.0
 36
1.0
 17
0.0
 27
0.0
 37
0.0
 40
157.08
 41
1.0
 42
50.0
 43
0.0
 44
0.0
 50
0.0
 51
0.0
 71
     0
 72
   100
 73
     1
 74
     3
 75
     0
 76
     0
 77
     0
 78
     0
281
     0
 65
     1
110
0.0
120
0.0
130
0.0
111
1.0
121
0.0
131
0.0
112
0.0
122
1.0
132
0.0
 79
     0
146
0.0
  0
ENDTAB
  0
TABLE
  2
LTYPE
  5
5
330
0
100
AcDbSymbolTable
 70
     6
  0
LTYPE
  5
14
330
5
100
AcDbSymbolTableRecord
100
AcDbLinetypeTableRecord
  2
ByBlock
 70
     0
  3

 72
    65
 73
     0
 40
0.0
  0
LTYPE
  5
15
330
5
100
AcDbSymbolTableRecord
100
AcDbLinetypeTableRecord
  2
ByLayer
 70
     0
  3

 72
    65
 73
     0
 40
0.0
  0
LTYPE
  5
16
330
5
100
AcDbSymbolTableRecord
100
AcDbLinetypeTableRecord
  2
Continuous
 70
     0
  3
Solid line
 72
    65
 73
     0
 40
0.0
  0
LTYPE
  5
3F
330
5
100
AcDbSymbolTableRecord
100
AcDbLinetypeTableRecord
  2
HIDDEN
 70
     0
  3
Hidden __ __ __ __ __ __ __ __ __ __ __ __ __ __
 72
    65
 73
     2
 40
1.905
 49
1.27
 74
     0
 49
-0.635
 74
     0
  0
LTYPE
  5
40
330
5
100
AcDbSymbolTableRecord
100
AcDbLinetypeTableRecord
  2
PHANTOM
 70
     0
  3
Phantom ______  __  __  ______  __  __  ______
 72
    65
 73
     6
 40
12.7
 49
6.35
 74
     0
 49
-1.27
 74
     0
 49
1.27
 74
     0
 49
-1.27
 74
     0
 49
1.27
 74
     0
 49
-1.27
 74
     0
  0
LTYPE
  5
41
330
5
100
AcDbSymbolTableRecord
100
AcDbLinetypeTableRecord
  2
CENTER
 70
     0
  3
Center ____ _ ____ _ ____ _ ____ _ ____ _ ____
 72
    65
 73
     4
 40
10.16
 49
6.35
 74
     0
 49
-1.27
 74
     0
 49
1.27
 74
     0
 49
-1.27
 74
     0
  0
LTYPE
  5
42
330
5
100
AcDbSymbolTableRecord
100
AcDbLinetypeTableRecord
  2
CENTERX2
 70
     0
  3
Center (2x) ________  __  ________  __  _____
 72
    65
 73
     4
 40
20.32
 49
12.7
 74
     0
 49
-2.54
 74
     0
 49
2.54
 74
     0
 49
-2.54
 74
     0
  0
LTYPE
  5
43
330
5
100
AcDbSymbolTableRecord
100
AcDbLinetypeTableRecord
  2
DOT2
 70
     0
  3
Dot (.5x) ........................................
 72
    65
 73
     2
 40
0.635
 49
0.0
 74
     0
 49
-0.635
 74
     0
  0
ENDTAB
  0
TABLE
  2
LAYER
  5
2
330
0
100
AcDbSymbolTable
 70
     1
  0
LAYER
  5
10
330
2
100
AcDbSymbolTableRecord
100
AcDbLayerTableRecord
  2
0
 70
     0
 62
     7
  6
Continuous
370
    -3
390
F
  0
ENDTAB
  0
TABLE
  2
STYLE
  5
3
330
0
100
AcDbSymbolTable
 70
     1
  0
STYLE
  5
11
330
3
100
AcDbSymbolTableRecord
100
AcDbTextStyleTableRecord
  2
Standard
 70
     0
 40
0.0
 41
1.0
 50
0.0
 71
     0
 42
3.5
  3
txt
  4

  0
ENDTAB
  0
TABLE
  2
VIEW
  5
6
330
0
100
AcDbSymbolTable
 70
     0
  0
ENDTAB
  0
TABLE
  2
UCS
  5
7
330
0
100
AcDbSymbolTable
 70
     0
  0
ENDTAB
  0
TABLE
  2
APPID
  5
9
330
0
100
AcDbSymbolTable
 70
     1
  0
APPID
  5
12
330
9
100
AcDbSymbolTableRecord
100
AcDbRegAppTableRecord
  2
ACAD
 70
     0
  0
ENDTAB
  0
TABLE
  2
DIMSTYLE
  5
A
330
0
100
AcDbSymbolTable
 70
     1
100
AcDbDimStyleTable
  0
DIMSTYLE
105
27
330
A
100
AcDbSymbolTableRecord
100
AcDbDimStyleTableRecord
  2
ISO-25
 70
     0
 41
2.5
 42
0.625
 43
3.75
 44
1.25
 73
     0
 74
     0
 77
     1
 78
     8
140
2.5
141
2.5
143
0.0393700787
147
0.625
171
     3
172
     1
178
     0
271
     2
272
     2
274
     3
278
    44
283
     0
284
     8
340
11
  0
ENDTAB
  0
TABLE
  2
BLOCK_RECORD
  5
1
330
0
100
AcDbSymbolTable
 70
     9
  0
BLOCK_RECORD
  5
1F
330
1
100
AcDbSymbolTableRecord
100
AcDbBlockTableRecord
  2
*Model_Space
340
22
  0
BLOCK_RECORD
  5
1B
330
1
100
AcDbSymbolTableRecord
100
AcDbBlockTableRecord
  2
*Paper_Space
340
1E
  0
BLOCK_RECORD
  5
23
330
1
100
AcDbSymbolTableRecord
100
AcDbBlockTableRecord
  2
*Paper_Space0
340
26
  0
BLOCK_RECORD
  5
11A
330
1
100
AcDbSymbolTableRecord
100
AcDbBlockTableRecord
  2
*Paper_Space1
340
11B
  0
BLOCK_RECORD
  5
142
330
1
100
AcDbSymbolTableRecord
100
AcDbBlockTableRecord
  2
*Paper_Space2
340
143
  0
BLOCK_RECORD
  5
180
330
1
100
AcDbSymbolTableRecord
100
AcDbBlockTableRecord
  2
*Paper_Space3
340
181
  0
BLOCK_RECORD
  5
1AC
330
1
100
AcDbSymbolTableRecord
100
AcDbBlockTableRecord
  2
*Paper_Space4
340
1AD
  0
BLOCK_RECORD
  5
1D4
330
1
100
AcDbSymbolTableRecord
100
AcDbBlockTableRecord
  2
*Paper_Space5
340
1D5
  0
BLOCK_RECORD
  5
200
330
1
100
AcDbSymbolTableRecord
100
AcDbBlockTableRecord
  2
*Paper_Space6
340
201
  0
BLOCK_RECORD
  5
292
330
1
100
AcDbSymbolTableRecord
100
AcDbBlockTableRecord
  2
*Paper_Space7
340
293
  0
BLOCK_RECORD
  5
319
330
1
100
AcDbSymbolTableRecord
100
AcDbBlockTableRecord
  2
*Paper_Space8
340
31A
  0
ENDTAB
  0
ENDSEC
  0
SECTION
  2
BLOCKS
  0
BLOCK
  5
20
330
1F
100
AcDbEntity
  8
0
100
AcDbBlockBegin
  2
*Model_Space
 70
     0
 10
0.0
 20
0.0
 30
0.0
  3
*Model_Space
  1

  0
ENDBLK
  5
21
330
1F
100
AcDbEntity
  8
0
100
AcDbBlockEnd
  0
BLOCK
  5
1C
330
1B
100
AcDbEntity
 67
     1
  8
0
100
AcDbBlockBegin
  2
*Paper_Space
 70
     0
 10
0.0
 20
0.0
 30
0.0
  3
*Paper_Space
  1

  0
ENDBLK
  5
1D
330
1B
100
AcDbEntity
 67
     1
  8
0
100
AcDbBlockEnd
  0
BLOCK
  5
24
330
23
100
AcDbEntity
  8
0
100
AcDbBlockBegin
  2
*Paper_Space0
 70
     0
 10
0.0
 20
0.0
 30
0.0
  3
*Paper_Space0
  1

  0
CIRCLE
  5
E0
330
23
100
AcDbEntity
  8
0
  6
Continuous
 62
     7
100
AcDbCircle
 10
-30.0
 20
8.0
 30
0.0
 40
2.000000000000004
  0
CIRCLE
  5
E1
330
23
100
AcDbEntity
  8
0
  6
Continuous
 62
     7
100
AcDbCircle
 10
30.0
 20
8.0
 30
0.0
 40
2.0
  0
POINT
  5
E2
330
23
100
AcDbEntity
  8
0
  6
Continuous
 62
     7
100
AcDbPoint
 10
-30.0
 20
8.0
 30
0.0
  0
POINT
  5
E3
330
23
100
AcDbEntity
  8
0
  6
Continuous
 62
     7
100
AcDbPoint
 10
30.0
 20
8.0
 30
0.0
  0
CIRCLE
  5
EA
330
23
100
AcDbEntity
  8
0
  6
Continuous
 62
     7
370
    15
100
AcDbCircle
 10
30.0
 20
8.0
 30
0.0
 40
2.250000000000004
  0
CIRCLE
  5
FA
330
23
100
AcDbEntity
  8
0
  6
Continuous
 62
     7
370
    15
100
AcDbCircle
 10
-30.0
 20
8.0
 30
0.0
 40
2.249999999999993
  0
LINE
  5
108
330
23
100
AcDbEntity
  8
0
  6
Continuous
 62
     7
370
    15
100
AcDbLine
 10
-6.0
 20
18.5
 30
0.0
 11
-77.0
 21
18.5
 31
0.0
  0
LINE
  5
109
330
23
100
AcDbEntity
  8
0
  6
Continuous
 62
     7
370
    15
100
AcDbLine
 10
-6.0
 20
19.6464466094
 30
0.0
 11
-75.8535533906
 21
19.6464466094
 31
0.0
  0
LINE
  5
10A
330
23
100
AcDbEntity
  8
0
  6
Continuous
 62
     7
370
    15
100
AcDbLine
 10
-6.0
 20
12.0
 30
0.0
 11
-6.0
 21
20.0
 31
0.0
  0
LINE
  5
10B
330
23
100
AcDbEntity
  8
0
  6
Continuous
 62
     7
370
    15
100
AcDbLine
 10
77.0
 20
18.5
 30
0.0
 11
6.0
 21
18.5
 31
0.0
  0
LINE
  5
10C
330
23
100
AcDbEntity
  8
0
  6
Continuous
 62
     7
370
    15
100
AcDbLine
 10
75.8535533906
 20
19.6464466094
 30
0.0
 11
6.0
 21
19.6464466094
 31
0.0
  0
LINE
  5
10D
330
23
100
AcDbEntity
  8
0
  6
Continuous
 62
     7
370
    15
100
AcDbLine
 10
75.8535533906
 20
19.6464466094
 30
0.0
 11
77.0
 21
18.5
 31
0.0
  0
LINE
  5
10E
330
23
100
AcDbEntity
  8
0
  6
Continuous
 62
     7
370
    15
100
AcDbLine
 10
6.0
 20
20.0
 30
0.0
 11
6.0
 21
12.0
 31
0.0
  0
LINE
  5
10F
330
23
100
AcDbEntity
  8
0
  6
Continuous
 62
     7
370
    15
100
AcDbLine
 10
-77.0
 20
1.5
 30
0.0
 11
77.0
 21
1.5
 31
0.0
  0
LINE
  5
110
330
23
100
AcDbEntity
  8
0
  6
Continuous
 62
     7
370
    15
100
AcDbLine
 10
-77.0
 20
18.5
 30
0.0
 11
-77.0
 21
1.5
 31
0.0
  0
LINE
  5
111
330
23
100
AcDbEntity
  8
0
  6
Continuous
 62
     7
370
    15
100
AcDbLine
 10
6.0
 20
12.0
 30
0.0
 11
-6.0
 21
12.0
 31
0.0
  0
LINE
  5
112
330
23
100
AcDbEntity
  8
0
  6
Continuous
 62
     7
370
    15
100
AcDbLine
 10
77.0
 20
18.5
 30
0.0
 11
77.0
 21
1.5
 31
0.0
  0
LINE
  5
113
330
23
100
AcDbEntity
  8
0
  6
Continuous
 62
     7
370
    15
100
AcDbLine
 10
-77.0
 20
18.5
 30
0.0
 11
-75.8535533906
 21
19.6464466094
 31
0.0
  0
LINE
  5
114
330
23
100
AcDbEntity
  8
0
  6
Continuous
 62
     7
370
    15
100
AcDbLine
 10
75.5
 20
0.0
 30
0.0
 11
-75.5
 21
0.0
 31
0.0
  0
LINE
  5
115
330
23
100
AcDbEntity
  8
0
  6
Continuous
 62
     7
370
    15
100
AcDbLine
 10
-77.0
 20
1.5
 30
0.0
 11
-75.5
 21
0.0
 31
0.0
  0
LINE
  5
116
330
23
100
AcDbEntity
  8
0
  6
Continuous
 62
     7
370
    15
100
AcDbLine
 10
75.5
 20
0.0
 30
0.0
 11
77.0
 21
1.5
 31
0.0
  0
LINE
  5
117
330
23
100
AcDbEntity
  8
0
  6
Continuous
 62
     7
370
    15
100
AcDbLine
 10
75.0
 20
20.0
 30
0.0
 11
75.8535533906
 21
19.6464466094
 31
0.0
  0
LINE
  5
118
330
23
100
AcDbEntity
  8
0
  6
Continuous
 62
     7
370
    15
100
AcDbLine
 10
-75.0
 20
20.0
 30
0.0
 11
75.0
 21
20.0
 31
0.0
  0
LINE
  5
119
330
23
100
AcDbEntity
  8
0
  6
Continuous
 62
     7
370
    15
100
AcDbLine
 10
-75.8535533906
 20
19.6464466094
 30
0.0
 11
-75.0
 21
20.0
 31
0.0
  0
VIEWPORT
  5
39E
330
23
100
AcDbEntity
  8
0
100
AcDbViewport
 10
0.0
 20
0.0
 30
0.0
 40
243.84
 41
204.216
 68
     1
 69
     1
 12
0.0
 22
0.0
 13
0.0
 23
0.0
 14
10.0
 24
10.0
 15
10.0
 25
10.0
 16
0.0
 26
0.0
 36
1.0
 17
0.0
 27
0.0
 37
0.0
 42
50.0
 43
0.0
 44
0.0
 45
157.08
 50
0.0
 51
0.0
 72
   100
 90
   557152
  1

281
     0
 71
     1
 74
     0
110
0.0
120
0.0
130
0.0
111
1.0
121
0.0
131
0.0
112
0.0
122
1.0
132
0.0
 79
     0
146
0.0
  0
ENDBLK
  5
25
330
23
100
AcDbEntity
  8
0
100
AcDbBlockEnd
  0
BLOCK
  5
11C
330
11A
100
AcDbEntity
  8
0
100
AcDbBlockBegin
  2
*Paper_Space1
 70
     0
 10
0.0
 20
0.0
 30
0.0
  3
*Paper_Space1
  1

  0
LINE
  5
135
330
11A
100
AcDbEntity
  8
0
  6
Continuous
 62
     7
370
    15
100
AcDbLine
 10
-77.0
 20
1.5
 30
0.0
 11
77.0
 21
1.5
 31
0.0
  0
LINE
  5
136
330
11A
100
AcDbEntity
  8
0
  6
Continuous
 62
     7
370
    15
100
AcDbLine
 10
-77.0
 20
1.5
 30
0.0
 11
-75.5
 21
0.0
 31
0.0
  0
LINE
  5
137
330
11A
100
AcDbEntity
  8
0
  6
Continuous
 62
     7
370
    15
100
AcDbLine
 10
77.0
 20
18.5
 30
0.0
 11
-77.0
 21
18.5
 31
0.0
  0
LINE
  5
138
330
11A
100
AcDbEntity
  8
0
  6
Continuous
 62
     7
370
    15
100
AcDbLine
 10
-77.0
 20
18.5
 30
0.0
 11
-75.8535533906
 21
19.6464466094
 31
0.0
  0
LINE
  5
139
330
11A
100
AcDbEntity
  8
0
  6
Continuous
 62
     7
370
    15
100
AcDbLine
 10
75.8535533906
 20
19.6464466094
 30
0.0
 11
-75.8535533906
 21
19.6464466094
 31
0.0
  0
LINE
  5
13A
330
11A
100
AcDbEntity
  8
0
  6
Continuous
 62
     7
370
    15
100
AcDbLine
 10
75.8535533906
 20
19.6464466094
 30
0.0
 11
77.0
 21
18.5
 31
0.0
  0
LINE
  5
13B
330
11A
100
AcDbEntity
  8
0
  6
Continuous
 62
     7
370
    15
100
AcDbLine
 10
-77.0
 20
18.5
 30
0.0
 11
-77.0
 21
1.5
 31
0.0
  0
LINE
  5
13C
330
11A
100
AcDbEntity
  8
0
  6
Continuous
 62
     7
370
    15
100
AcDbLine
 10
77.0
 20
18.5
 30
0.0
 11
77.0
 21
1.5
 31
0.0
  0
LINE
  5
13D
330
11A
100
AcDbEntity
  8
0
  6
Continuous
 62
     7
370
    15
100
AcDbLine
 10
75.5
 20
0.0
 30
0.0
 11
-75.5
 21
0.0
 31
0.0
  0
LINE
  5
13E
330
11A
100
AcDbEntity
  8
0
  6
Continuous
 62
     7
370
    15
100
AcDbLine
 10
75.5
 20
0.0
 30
0.0
 11
77.0
 21
1.5
 31
0.0
  0
LINE
  5
13F
330
11A
100
AcDbEntity
  8
0
  6
Continuous
 62
     7
370
    15
100
AcDbLine
 10
-75.0
 20
20.0
 30
0.0
 11
75.0
 21
20.0
 31
0.0
  0
LINE
  5
140
330
11A
100
AcDbEntity
  8
0
  6
Continuous
 62
     7
370
    15
100
AcDbLine
 10
75.8535533906
 20
19.6464466094
 30
0.0
 11
75.0
 21
20.0
 31
0.0
  0
LINE
  5
141
330
11A
100
AcDbEntity
  8
0
  6
Continuous
 62
     7
370
    15
100
AcDbLine
 10
-75.0
 20
20.0
 30
0.0
 11
-75.8535533906
 21
19.6464466094
 31
0.0
  0
VIEWPORT
  5
39F
330
11A
100
AcDbEntity
  8
0
100
AcDbViewport
 10
0.0
 20
0.0
 30
0.0
 40
243.84
 41
204.216
 68
     1
 69
     1
 12
0.0
 22
0.0
 13
0.0
 23
0.0
 14
10.0
 24
10.0
 15
10.0
 25
10.0
 16
0.0
 26
0.0
 36
1.0
 17
0.0
 27
0.0
 37
0.0
 42
50.0
 43
0.0
 44
0.0
 45
157.08
 50
0.0
 51
0.0
 72
   100
 90
   557152
  1

281
     0
 71
     1
 74
     0
110
0.0
120
0.0
130
0.0
111
1.0
121
0.0
131
0.0
112
0.0
122
1.0
132
0.0
 79
     0
146
0.0
  0
ENDBLK
  5
11D
330
11A
100
AcDbEntity
  8
0
100
AcDbBlockEnd
  0
BLOCK
  5
144
330
142
100
AcDbEntity
  8
0
100
AcDbBlockBegin
  2
*Paper_Space2
 70
     0
 10
0.0
 20
0.0
 30
0.0
  3
*Paper_Space2
  1

  0
CIRCLE
  5
146
330
142
100
AcDbEntity
  8
0
  6
Continuous
 62
     7
100
AcDbCircle
 10
-30.0
 20
8.0
 30
0.0
 40
2.000000000000004
  0
CIRCLE
  5
147
330
142
100
AcDbEntity
  8
0
  6
Continuous
 62
     7
100
AcDbCircle
 10
30.0
 20
8.0
 30
0.0
 40
2.0
  0
POINT
  5
148
330
142
100
AcDbEntity
  8
0
  6
Continuous
 62
     7
100
AcDbPoint
 10
-30.0
 20
8.0
 30
0.0
  0
POINT
  5
149
330
142
100
AcDbEntity
  8
0
  6
Continuous
 62
     7
100
AcDbPoint
 10
30.0
 20
8.0
 30
0.0
  0
CIRCLE
  5
150
330
142
100
AcDbEntity
  8
0
  6
Continuous
 62
     7
370
    15
100
AcDbCircle
 10
30.0
 20
8.0
 30
0.0
 40
2.250000000000004
  0
CIRCLE
  5
160
330
142
100
AcDbEntity
  8
0
  6
Continuous
 62
     7
370
    15
100
AcDbCircle
 10
-30.0
 20
8.0
 30
0.0
 40
2.249999999999993
  0
LINE
  5
16E
330
142
100
AcDbEntity
  8
0
  6
Continuous
 62
     7
370
    15
100
AcDbLine
 10
-6.0
 20
18.5
 30
0.0
 11
-77.0
 21
18.5
 31
0.0
  0
LINE
  5
16F
330
142
100
AcDbEntity
  8
0
  6
Continuous
 62
     7
370
    15
100
AcDbLine
 10
-6.0
 20
19.6464466094
 30
0.0
 11
-75.8535533906
 21
19.6464466094
 31
0.0
  0
LINE
  5
170
330
142
100
AcDbEntity
  8
0
  6
Continuous
 62
     7
370
    15
100
AcDbLine
 10
-6.0
 20
12.0
 30
0.0
 11
-6.0
 21
20.0
 31
0.0
  0
LINE
  5
171
330
142
100
AcDbEntity
  8
0
  6
Continuous
 62
     7
370
    15
100
AcDbLine
 10
77.0
 20
18.5
 30
0.0
 11
6.0
 21
18.5
 31
0.0
  0
LINE
  5
172
330
142
100
AcDbEntity
  8
0
  6
Continuous
 62
     7
370
    15
100
AcDbLine
 10
75.8535533906
 20
19.6464466094
 30
0.0
 11
6.0
 21
19.6464466094
 31
0.0
  0
LINE
  5
173
330
142
100
AcDbEntity
  8
0
  6
Continuous
 62
     7
370
    15
100
AcDbLine
 10
75.8535533906
 20
19.6464466094
 30
0.0
 11
77.0
 21
18.5
 31
0.0
  0
LINE
  5
174
330
142
100
AcDbEntity
  8
0
  6
Continuous
 62
     7
370
    15
100
AcDbLine
 10
6.0
 20
20.0
 30
0.0
 11
6.0
 21
12.0
 31
0.0
  0
LINE
  5
175
330
142
100
AcDbEntity
  8
0
  6
Continuous
 62
     7
370
    15
100
AcDbLine
 10
-77.0
 20
1.5
 30
0.0
 11
77.0
 21
1.5
 31
0.0
  0
LINE
  5
176
330
142
100
AcDbEntity
  8
0
  6
Continuous
 62
     7
370
    15
100
AcDbLine
 10
-77.0
 20
18.5
 30
0.0
 11
-77.0
 21
1.5
 31
0.0
  0
LINE
  5
177
330
142
100
AcDbEntity
  8
0
  6
Continuous
 62
     7
370
    15
100
AcDbLine
 10
6.0
 20
12.0
 30
0.0
 11
-6.0
 21
12.0
 31
0.0
  0
LINE
  5
178
330
142
100
AcDbEntity
  8
0
  6
Continuous
 62
     7
370
    15
100
AcDbLine
 10
77.0
 20
18.5
 30
0.0
 11
77.0
 21
1.5
 31
0.0
  0
LINE
  5
179
330
142
100
AcDbEntity
  8
0
  6
Continuous
 62
     7
370
    15
100
AcDbLine
 10
-77.0
 20
18.5
 30
0.0
 11
-75.8535533906
 21
19.6464466094
 31
0.0
  0
LINE
  5
17A
330
142
100
AcDbEntity
  8
0
  6
Continuous
 62
     7
370
    15
100
AcDbLine
 10
75.5
 20
0.0
 30
0.0
 11
-75.5
 21
0.0
 31
0.0
  0
LINE
  5
17B
330
142
100
AcDbEntity
  8
0
  6
Continuous
 62
     7
370
    15
100
AcDbLine
 10
-77.0
 20
1.5
 30
0.0
 11
-75.5
 21
0.0
 31
0.0
  0
LINE
  5
17C
330
142
100
AcDbEntity
  8
0
  6
Continuous
 62
     7
370
    15
100
AcDbLine
 10
75.5
 20
0.0
 30
0.0
 11
77.0
 21
1.5
 31
0.0
  0
LINE
  5
17D
330
142
100
AcDbEntity
  8
0
  6
Continuous
 62
     7
370
    15
100
AcDbLine
 10
75.0
 20
20.0
 30
0.0
 11
75.8535533906
 21
19.6464466094
 31
0.0
  0
LINE
  5
17E
330
142
100
AcDbEntity
  8
0
  6
Continuous
 62
     7
370
    15
100
AcDbLine
 10
-75.0
 20
20.0
 30
0.0
 11
75.0
 21
20.0
 31
0.0
  0
LINE
  5
17F
330
142
100
AcDbEntity
  8
0
  6
Continuous
 62
     7
370
    15
100
AcDbLine
 10
-75.8535533906
 20
19.6464466094
 30
0.0
 11
-75.0
 21
20.0
 31
0.0
  0
VIEWPORT
  5
3A0
330
142
100
AcDbEntity
  8
0
100
AcDbViewport
 10
0.0
 20
0.0
 30
0.0
 40
243.84
 41
204.216
 68
     1
 69
     1
 12
0.0
 22
0.0
 13
0.0
 23
0.0
 14
10.0
 24
10.0
 15
10.0
 25
10.0
 16
0.0
 26
0.0
 36
1.0
 17
0.0
 27
0.0
 37
0.0
 42
50.0
 43
0.0
 44
0.0
 45
157.08
 50
0.0
 51
0.0
 72
   100
 90
   557152
  1

281
     0
 71
     1
 74
     0
110
0.0
120
0.0
130
0.0
111
1.0
121
0.0
131
0.0
112
0.0
122
1.0
132
0.0
 79
     0
146
0.0
  0
ENDBLK
  5
145
330
142
100
AcDbEntity
  8
0
100
AcDbBlockEnd
  0
BLOCK
  5
182
330
180
100
AcDbEntity
  8
0
100
AcDbBlockBegin
  2
*Paper_Space3
 70
     0
 10
0.0
 20
0.0
 30
0.0
  3
*Paper_Space3
  1

  0
CIRCLE
  5
184
330
180
100
AcDbEntity
  8
0
  6
Continuous
 62
     7
100
AcDbCircle
 10
30.0
 20
8.0
 30
0.0
 40
2.000000000000004
  0
CIRCLE
  5
185
330
180
100
AcDbEntity
  8
0
  6
Continuous
 62
     7
100
AcDbCircle
 10
-30.0
 20
8.0
 30
0.0
 40
2.0
  0
POINT
  5
186
330
180
100
AcDbEntity
  8
0
  6
Continuous
 62
     7
100
AcDbPoint
 10
30.0
 20
8.0
 30
0.0
  0
POINT
  5
187
330
180
100
AcDbEntity
  8
0
  6
Continuous
 62
     7
100
AcDbPoint
 10
-30.0
 20
8.0
 30
0.0
  0
LINE
  5
19F
330
180
100
AcDbEntity
  8
0
  6
Continuous
 62
     7
370
    15
100
AcDbLine
 10
-77.0
 20
1.5
 30
0.0
 11
77.0
 21
1.5
 31
0.0
  0
LINE
  5
1A0
330
180
100
AcDbEntity
  8
0
  6
Continuous
 62
     7
370
    15
100
AcDbLine
 10
-77.0
 20
18.5
 30
0.0
 11
-77.0
 21
1.5
 31
0.0
  0
LINE
  5
1A1
330
180
100
AcDbEntity
  8
0
  6
Continuous
 62
     7
370
    15
100
AcDbLine
 10
77.0
 20
18.5
 30
0.0
 11
-77.0
 21
18.5
 31
0.0
  0
LINE
  5
1A2
330
180
100
AcDbEntity
  8
0
  6
Continuous
 62
     7
370
    15
100
AcDbLine
 10
75.8535533906
 20
19.6464466094
 30
0.0
 11
-75.8535533906
 21
19.6464466094
 31
0.0
  0
LINE
  5
1A3
330
180
100
AcDbEntity
  8
0
  6
Continuous
 62
     7
370
    15
100
AcDbLine
 10
-75.8535533906
 20
19.6464466094
 30
0.0
 11
-77.0
 21
18.5
 31
0.0
  0
LINE
  5
1A4
330
180
100
AcDbEntity
  8
0
  6
Continuous
 62
     7
370
    15
100
AcDbLine
 10
75.5
 20
0.0
 30
0.0
 11
-75.5
 21
0.0
 31
0.0
  0
LINE
  5
1A5
330
180
100
AcDbEntity
  8
0
  6
Continuous
 62
     7
370
    15
100
AcDbLine
 10
-75.5
 20
0.0
 30
0.0
 11
-77.0
 21
1.5
 31
0.0
  0
LINE
  5
1A6
330
180
100
AcDbEntity
  8
0
  6
Continuous
 62
     7
370
    15
100
AcDbLine
 10
77.0
 20
1.5
 30
0.0
 11
75.5
 21
0.0
 31
0.0
  0
LINE
  5
1A7
330
180
100
AcDbEntity
  8
0
  6
Continuous
 62
     7
370
    15
100
AcDbLine
 10
77.0
 20
18.5
 30
0.0
 11
75.8535533906
 21
19.6464466094
 31
0.0
  0
LINE
  5
1A8
330
180
100
AcDbEntity
  8
0
  6
Continuous
 62
     7
370
    15
100
AcDbLine
 10
77.0
 20
18.5
 30
0.0
 11
77.0
 21
1.5
 31
0.0
  0
LINE
  5
1A9
330
180
100
AcDbEntity
  8
0
  6
Continuous
 62
     7
370
    15
100
AcDbLine
 10
-75.0
 20
20.0
 30
0.0
 11
75.0
 21
20.0
 31
0.0
  0
LINE
  5
1AA
330
180
100
AcDbEntity
  8
0
  6
Continuous
 62
     7
370
    15
100
AcDbLine
 10
-75.0
 20
20.0
 30
0.0
 11
-75.8535533906
 21
19.6464466094
 31
0.0
  0
LINE
  5
1AB
330
180
100
AcDbEntity
  8
0
  6
Continuous
 62
     7
370
    15
100
AcDbLine
 10
75.8535533906
 20
19.6464466094
 30
0.0
 11
75.0
 21
20.0
 31
0.0
  0
VIEWPORT
  5
3A1
330
180
100
AcDbEntity
  8
0
100
AcDbViewport
 10
0.0
 20
0.0
 30
0.0
 40
243.84
 41
204.216
 68
     1
 69
     1
 12
0.0
 22
0.0
 13
0.0
 23
0.0
 14
10.0
 24
10.0
 15
10.0
 25
10.0
 16
0.0
 26
0.0
 36
1.0
 17
0.0
 27
0.0
 37
0.0
 42
50.0
 43
0.0
 44
0.0
 45
157.08
 50
0.0
 51
0.0
 72
   100
 90
   557152
  1

281
     0
 71
     1
 74
     0
110
0.0
120
0.0
130
0.0
111
1.0
121
0.0
131
0.0
112
0.0
122
1.0
132
0.0
 79
     0
146
0.0
  0
ENDBLK
  5
183
330
180
100
AcDbEntity
  8
0
100
AcDbBlockEnd
  0
BLOCK
  5
1AE
330
1AC
100
AcDbEntity
  8
0
100
AcDbBlockBegin
  2
*Paper_Space4
 70
     0
 10
0.0
 20
0.0
 30
0.0
  3
*Paper_Space4
  1

  0
LINE
  5
1C7
330
1AC
100
AcDbEntity
  8
0
  6
Continuous
 62
     7
370
    15
100
AcDbLine
 10
-75.8535533906
 20
19.6464466094
 30
0.0
 11
-77.0
 21
18.5
 31
0.0
  0
LINE
  5
1C8
330
1AC
100
AcDbEntity
  8
0
  6
Continuous
 62
     7
370
    15
100
AcDbLine
 10
77.0
 20
18.5
 30
0.0
 11
-77.0
 21
18.5
 31
0.0
  0
LINE
  5
1C9
330
1AC
100
AcDbEntity
  8
0
  6
Continuous
 62
     7
370
    15
100
AcDbLine
 10
75.8535533906
 20
19.6464466094
 30
0.0
 11
-75.8535533906
 21
19.6464466094
 31
0.0
  0
LINE
  5
1CA
330
1AC
100
AcDbEntity
  8
0
  6
Continuous
 62
     7
370
    15
100
AcDbLine
 10
77.0
 20
18.5
 30
0.0
 11
75.8535533906
 21
19.6464466094
 31
0.0
  0
LINE
  5
1CB
330
1AC
100
AcDbEntity
  8
0
  6
Continuous
 62
     7
370
    15
100
AcDbLine
 10
-77.0
 20
1.5
 30
0.0
 11
77.0
 21
1.5
 31
0.0
  0
LINE
  5
1CC
330
1AC
100
AcDbEntity
  8
0
  6
Continuous
 62
     7
370
    15
100
AcDbLine
 10
-77.0
 20
18.5
 30
0.0
 11
-77.0
 21
1.5
 31
0.0
  0
LINE
  5
1CD
330
1AC
100
AcDbEntity
  8
0
  6
Continuous
 62
     7
370
    15
100
AcDbLine
 10
77.0
 20
18.5
 30
0.0
 11
77.0
 21
1.5
 31
0.0
  0
LINE
  5
1CE
330
1AC
100
AcDbEntity
  8
0
  6
Continuous
 62
     7
370
    15
100
AcDbLine
 10
77.0
 20
1.5
 30
0.0
 11
75.5
 21
0.0
 31
0.0
  0
LINE
  5
1CF
330
1AC
100
AcDbEntity
  8
0
  6
Continuous
 62
     7
370
    15
100
AcDbLine
 10
75.5
 20
0.0
 30
0.0
 11
-75.5
 21
0.0
 31
0.0
  0
LINE
  5
1D0
330
1AC
100
AcDbEntity
  8
0
  6
Continuous
 62
     7
370
    15
100
AcDbLine
 10
-75.5
 20
0.0
 30
0.0
 11
-77.0
 21
1.5
 31
0.0
  0
LINE
  5
1D1
330
1AC
100
AcDbEntity
  8
0
  6
Continuous
 62
     7
370
    15
100
AcDbLine
 10
-75.0
 20
20.0
 30
0.0
 11
75.0
 21
20.0
 31
0.0
  0
LINE
  5
1D2
330
1AC
100
AcDbEntity
  8
0
  6
Continuous
 62
     7
370
    15
100
AcDbLine
 10
75.0
 20
20.0
 30
0.0
 11
75.8535533906
 21
19.6464466094
 31
0.0
  0
LINE
  5
1D3
330
1AC
100
AcDbEntity
  8
0
  6
Continuous
 62
     7
370
    15
100
AcDbLine
 10
-75.8535533906
 20
19.6464466094
 30
0.0
 11
-75.0
 21
20.0
 31
0.0
  0
VIEWPORT
  5
3A2
330
1AC
100
AcDbEntity
  8
0
100
AcDbViewport
 10
0.0
 20
0.0
 30
0.0
 40
243.84
 41
204.216
 68
     1
 69
     1
 12
0.0
 22
0.0
 13
0.0
 23
0.0
 14
10.0
 24
10.0
 15
10.0
 25
10.0
 16
0.0
 26
0.0
 36
1.0
 17
0.0
 27
0.0
 37
0.0
 42
50.0
 43
0.0
 44
0.0
 45
157.08
 50
0.0
 51
0.0
 72
   100
 90
   557152
  1

281
     0
 71
     1
 74
     0
110
0.0
120
0.0
130
0.0
111
1.0
121
0.0
131
0.0
112
0.0
122
1.0
132
0.0
 79
     0
146
0.0
  0
ENDBLK
  5
1AF
330
1AC
100
AcDbEntity
  8
0
100
AcDbBlockEnd
  0
BLOCK
  5
1D6
330
1D4
100
AcDbEntity
  8
0
100
AcDbBlockBegin
  2
*Paper_Space5
 70
     0
 10
0.0
 20
0.0
 30
0.0
  3
*Paper_Space5
  1

  0
CIRCLE
  5
1E0
330
1D4
100
AcDbEntity
  8
0
  6
Continuous
 62
     7
370
    15
100
AcDbCircle
 10
0.0
 20
0.0
 30
0.0
 40
69.99999999999993
  0
CIRCLE
  5
1E1
330
1D4
100
AcDbEntity
  8
0
  6
Continuous
 62
     7
370
    15
100
AcDbCircle
 10
-67.0
 20
-67.0
 30
0.0
 40
4.000000000000028
  0
CIRCLE
  5
1E2
330
1D4
100
AcDbEntity
  8
0
  6
Continuous
 62
     7
370
    15
100
AcDbCircle
 10
-67.0
 20
67.0
 30
0.0
 40
4.000000000000007
  0
CIRCLE
  5
1E3
330
1D4
100
AcDbEntity
  8
0
  6
Continuous
 62
     7
370
    15
100
AcDbCircle
 10
67.0
 20
67.0
 30
0.0
 40
4.000000000000028
  0
CIRCLE
  5
1E8
330
1D4
100
AcDbEntity
  8
0
  6
Continuous
 62
     7
370
    15
100
AcDbCircle
 10
67.0
 20
-67.0
 30
0.0
 40
4.0
  0
CIRCLE
  5
1ED
330
1D4
100
AcDbEntity
  8
0
  6
Continuous
 62
     7
370
    15
100
AcDbCircle
 10
0.0
 20
0.0
 30
0.0
 40
14.00000000000001
  0
CIRCLE
  5
1EE
330
1D4
100
AcDbEntity
  8
0
  6
Continuous
 62
     7
370
    15
100
AcDbCircle
 10
0.0
 20
0.0
 30
0.0
 40
14.50000000000001
  0
CIRCLE
  5
1EF
330
1D4
100
AcDbEntity
  8
0
  6
Continuous
 62
     7
370
    15
100
AcDbCircle
 10
0.0
 20
0.0
 30
0.0
 40
7.999999999999998
  0
LINE
  5
1F0
330
1D4
100
AcDbEntity
  8
0
  6
Continuous
 62
     7
370
    15
100
AcDbLine
 10
-77.0
 20
-69.0
 30
0.0
 11
-77.0
 21
69.0
 31
0.0
  0
LINE
  5
1F1
330
1D4
100
AcDbEntity
  8
0
  6
Continuous
 62
     7
370
    15
100
AcDbLine
 10
-75.5
 20
69.0
 30
0.0
 11
-75.5
 21
-69.0
 31
0.0
  0
LINE
  5
1F2
330
1D4
100
AcDbEntity
  8
0
  6
Continuous
 62
     7
370
    15
100
AcDbLine
 10
-69.0
 20
-75.5
 30
0.0
 11
69.0
 21
-75.5
 31
0.0
  0
LINE
  5
1F3
330
1D4
100
AcDbEntity
  8
0
  6
Continuous
 62
     7
370
    15
100
AcDbLine
 10
69.0
 20
-77.0
 30
0.0
 11
-69.0
 21
-77.0
 31
0.0
  0
LINE
  5
1F4
330
1D4
100
AcDbEntity
  8
0
  6
Continuous
 62
     7
370
    15
100
AcDbLine
 10
69.0
 20
75.5
 30
0.0
 11
-69.0
 21
75.5
 31
0.0
  0
LINE
  5
1F5
330
1D4
100
AcDbEntity
  8
0
  6
Continuous
 62
     7
370
    15
100
AcDbLine
 10
75.5
 20
-69.0
 30
0.0
 11
75.5
 21
69.0
 31
0.0
  0
LINE
  5
1F6
330
1D4
100
AcDbEntity
  8
0
  6
Continuous
 62
     7
370
    15
100
AcDbLine
 10
-69.0
 20
77.0
 30
0.0
 11
69.0
 21
77.0
 31
0.0
  0
LINE
  5
1F7
330
1D4
100
AcDbEntity
  8
0
  6
Continuous
 62
     7
370
    15
100
AcDbLine
 10
77.0
 20
69.0
 30
0.0
 11
77.0
 21
-69.0
 31
0.0
  0
ARC
  5
1F8
330
1D4
100
AcDbEntity
  8
0
  6
Continuous
 62
     7
370
    15
100
AcDbCircle
 10
69.0
 20
69.0
 30
0.0
 40
8.000000000000014
100
AcDbArc
 50
0.0
 51
90.0
  0
ARC
  5
1F9
330
1D4
100
AcDbEntity
  8
0
  6
Continuous
 62
     7
370
    15
100
AcDbCircle
 10
69.0
 20
69.0
 30
0.0
 40
6.500000000000028
100
AcDbArc
 50
0.0
 51
90.0
  0
ARC
  5
1FA
330
1D4
100
AcDbEntity
  8
0
  6
Continuous
 62
     7
370
    15
100
AcDbCircle
 10
-69.0
 20
-69.0
 30
0.0
 40
7.999999999999986
100
AcDbArc
 50
180.0
 51
270.0
  0
ARC
  5
1FB
330
1D4
100
AcDbEntity
  8
0
  6
Continuous
 62
     7
370
    15
100
AcDbCircle
 10
-69.0
 20
-69.0
 30
0.0
 40
6.5
100
AcDbArc
 50
180.0
 51
270.0
  0
ARC
  5
1FC
330
1D4
100
AcDbEntity
  8
0
  6
Continuous
 62
     7
370
    15
100
AcDbCircle
 10
69.0
 20
-69.0
 30
0.0
 40
6.500000000000028
100
AcDbArc
 50
270.0
 51
0.0
  0
ARC
  5
1FD
330
1D4
100
AcDbEntity
  8
0
  6
Continuous
 62
     7
370
    15
100
AcDbCircle
 10
-69.0
 20
69.0
 30
0.0
 40
6.499999999999986
100
AcDbArc
 50
90.0
 51
180.0
  0
ARC
  5
1FE
330
1D4
100
AcDbEntity
  8
0
  6
Continuous
 62
     7
370
    15
100
AcDbCircle
 10
69.0
 20
-69.0
 30
0.0
 40
8.000000000000014
100
AcDbArc
 50
270.0
 51
0.0
  0
ARC
  5
1FF
330
1D4
100
AcDbEntity
  8
0
  6
Continuous
 62
     7
370
    15
100
AcDbCircle
 10
-69.0
 20
69.0
 30
0.0
 40
8.0
100
AcDbArc
 50
90.0
 51
180.0
  0
VIEWPORT
  5
3A3
330
1D4
100
AcDbEntity
  8
0
100
AcDbViewport
 10
0.0
 20
0.0
 30
0.0
 40
243.84
 41
204.216
 68
     1
 69
     1
 12
0.0
 22
0.0
 13
0.0
 23
0.0
 14
10.0
 24
10.0
 15
10.0
 25
10.0
 16
0.0
 26
0.0
 36
1.0
 17
0.0
 27
0.0
 37
0.0
 42
50.0
 43
0.0
 44
0.0
 45
157.08
 50
0.0
 51
0.0
 72
   100
 90
   557152
  1

281
     0
 71
     1
 74
     0
110
0.0
120
0.0
130
0.0
111
1.0
121
0.0
131
0.0
112
0.0
122
1.0
132
0.0
 79
     0
146
0.0
  0
ENDBLK
  5
1D7
330
1D4
100
AcDbEntity
  8
0
100
AcDbBlockEnd
  0
BLOCK
  5
202
330
200
100
AcDbEntity
  8
0
100
AcDbBlockBegin
  2
*Paper_Space6
 70
     0
 10
0.0
 20
0.0
 30
0.0
  3
*Paper_Space6
  1

  0
LWPOLYLINE
  5
204
330
200
100
AcDbEntity
  8
0
  6
Continuous
 62
     7
100
AcDbPolyline
 90
       17
 70
   128
 43
0.0
 10
-74.3080064313
 20
-12.9565322346
 10
-74.5691836361
 20
-12.2444570491
 10
-74.9964925357
 20
-11.5946190362
 10
-75.5248792239
 20
-11.1059501427
 10
-76.073901617
 20
-10.8528457777
 10
-76.5599760328
 20
-10.8738387864
 10
-76.9091020476
 20
-11.1657331736
 10
-77.0681283906
 20
-11.6840906648
 10
-77.0128447426
 20
-12.3499960309
 10
-76.7516675378
 20
-13.0620712164
 10
-76.3243586382
 20
-13.7119092293
 10
-75.7959719501
 20
-14.2005781228
 10
-75.2469495569
 20
-14.4536824878
 10
-74.7608751411
 20
-14.4326894791
 10
-74.4117491263
 20
-14.1407950919
 10
-74.2527227833
 20
-13.6224376007
 10
-74.3080064313
 20
-12.9565322346
  0
LWPOLYLINE
  5
205
330
200
100
AcDbEntity
  8
0
  6
Continuous
 62
     7
100
AcDbPolyline
 90
       17
 70
   128
 43
0.0
 10
-31.8815995601
 20
-37.4487755893
 10
-32.1427767649
 20
-36.7367004038
 10
-32.5700856645
 20
-36.0868623909
 10
-33.0984723527
 20
-35.5981934973
 10
-33.6474947458
 20
-35.3450891323
 10
-34.1335691616
 20
-35.3660821411
 10
-34.4826951765
 20
-35.6579765282
 10
-34.6417215194
 20
-36.1763340194
 10
-34.5864378714
 20
-36.8422393856
 10
-34.3252606667
 20
-37.5543145711
 10
-33.897951767
 20
-38.204152584
 10
-33.3695650789
 20
-38.6928214775
 10
-32.8205426857
 20
-38.9459258425
 10
-32.3344682699
 20
-38.9249328338
 10
-31.9853422551
 20
-38.6330384466
 10
-31.8263159121
 20
-38.1146809554
 10
-31.8815995601
 20
-37.4487755893
  0
POINT
  5
206
330
200
100
AcDbEntity
  8
0
  6
Continuous
 62
     7
100
AcDbPoint
 10
-75.660425587
 20
-12.6532641327
 30
0.0
  0
POINT
  5
207
330
200
100
AcDbEntity
  8
0
  6
Continuous
 62
     7
100
AcDbPoint
 10
-33.2340187158
 20
-37.1455074874
 30
0.0
  0
SPLINE
  5
208
330
200
100
AcDbEntity
  8
0
  6
Continuous
 62
     7
370
    15
100
AcDbSpline
210
0.0
220
0.0
230
1.0
 70
     8
 71
     3
 72
    22
 73
    18
 74
     0
 42
0.00000001
 43
0.00000001
 12
1.0
 22
0.0
 32
0.0
 13
1.0
 23
0.0
 33
0.0
 40
0.0
 40
0.0
 40
0.0
 40
0.0
 40
0.011607657868693
 40
0.0906323192999859
 40
0.1590136043798589
 40
0.2324406125974561
 40
0.303859831988591
 40
0.3754126724482154
 40
0.4477092316679516
 40
0.5205668729528258
 40
0.5935827511505894
 40
0.6662073669527389
 40
0.7379690662567723
 40
0.8085829404945049
 40
0.8783811215955872
 40
0.9488550836548328
 40
0.9999999999999999
 40
0.9999999999999999
 40
0.9999999999999999
 40
0.9999999999999999
 10
-34.01668046876352
 20
-35.00547141883324
 30
0.0
 10
-34.00952738716699
 20
-34.99910389673368
 30
0.0
 10
-33.95367629450317
 20
-34.94938643412364
 30
0.0
 10
-33.82435146909287
 20
-34.92577180255599
 30
0.0
 10
-33.56142711455593
 20
-34.93779332139695
 30
0.0
 10
-33.23404566231756
 20
-35.05752912481906
 30
0.0
 10
-32.86827100474456
 20
-35.28903006380808
 30
0.0
 10
-32.50362262159921
 20
-35.61795607813776
 30
0.0
 10
-32.16258994736639
 20
-36.0289207903982
 30
0.0
 10
-31.86751509258318
 20
-36.49972689487245
 30
0.0
 10
-31.63815852272803
 20
-37.00108427816973
 30
0.0
 10
-31.48859377851942
 20
-37.49968991292042
 30
0.0
 10
-31.42525354812071
 20
-37.96061319205008
 30
0.0
 10
-31.4441827759717
 20
-38.35194493741188
 30
0.0
 10
-31.53165136485457
 20
-38.64336731176572
 30
0.0
 10
-31.63939682304043
 20
-38.81224564456797
 30
0.0
 10
-31.72006281961761
 20
-38.85938827568555
 30
0.0
 10
-31.75398564229913
 20
-38.87921337156236
 30
0.0
  0
SPLINE
  5
209
330
200
100
AcDbEntity
  8
0
  6
Continuous
 62
     7
370
    15
100
AcDbSpline
210
0.0
220
0.0
230
1.0
 70
     8
 71
     3
 72
    22
 73
    18
 74
     0
 42
0.00000001
 43
0.00000001
 12
1.0
 22
0.0
 32
0.0
 13
1.0
 23
0.0
 33
0.0
 40
0.0
 40
0.0
 40
0.0
 40
0.0
 40
0.0116076578687049
 40
0.0906323192999954
 40
0.1590136043798682
 40
0.2324406125974705
 40
0.3038598319886049
 40
0.3754126724482304
 40
0.4477092316679672
 40
0.5205668729528411
 40
0.5935827511506044
 40
0.6662073669527585
 40
0.737969066256787
 40
0.8085829404945184
 40
0.8783811215956009
 40
0.9488550836548473
 40
1.0
 40
1.0
 40
1.0
 40
1.0
 10
-76.44308733995629
 20
-10.51322806415193
 30
0.0
 10
-76.43593425835978
 20
-10.50686054205237
 30
0.0
 10
-76.38008316569591
 20
-10.45714307944233
 30
0.0
 10
-76.25075834028566
 20
-10.43352844787471
 30
0.0
 10
-75.98783398574862
 20
-10.44554996671563
 30
0.0
 10
-75.66045253351028
 20
-10.56528577013779
 30
0.0
 10
-75.29467787593725
 20
-10.79678670912683
 30
0.0
 10
-74.9300294927919
 20
-11.12571272345652
 30
0.0
 10
-74.5889968185591
 20
-11.53667743571699
 30
0.0
 10
-74.2939219637759
 20
-12.00748354019125
 30
0.0
 10
-74.06456539392077
 20
-12.50884092348854
 30
0.0
 10
-73.91500064971216
 20
-13.00744655823921
 30
0.0
 10
-73.85166041931353
 20
-13.46836983736889
 30
0.0
 10
-73.87058964716448
 20
-13.85970158273063
 30
0.0
 10
-73.95805823604739
 20
-14.15112395708446
 30
0.0
 10
-74.06580369423321
 20
-14.32000228988667
 30
0.0
 10
-74.14646969081039
 20
-14.36714492100423
 30
0.0
 10
-74.18039251349192
 20
-14.38697001688105
 30
0.0
  0
LWPOLYLINE
  5
21A
330
200
100
AcDbEntity
  8
0
  6
Continuous
 62
     7
370
    15
100
AcDbPolyline
 90
       20
 70
   128
 43
0.0
 10
-44.9367586002
 20
-14.5090709941
 10
-44.2963069837
 20
-14.0725376905
 10
-43.789053396
 20
-13.5811034222
 10
-43.4288343926
 20
-13.048173235
 10
-43.2254758089
 20
-12.4882840753
 10
-43.184524737
 20
-11.9167082596
 10
-43.3070982154
 20
-11.3490368863
 10
-43.589852759
 20
-10.8007545507
 10
-44.0250755611
 20
-10.2868169656
 10
-44.6008948781
 20
-9.8212430085
 10
-45.3016038602
 20
-9.4167323235
 10
-46.1080889928
 20
-9.0843189074
 10
-46.998351464
 20
-8.8330701317
 10
-47.9481072342
 20
-8.6698394081
 10
-48.9314494419
 20
-8.5990792452
 10
-49.921555075
 20
-8.6227197958
 10
-50.8914166328
 20
-8.7401162073
 10
-51.8145788204
 20
-8.9480662116
 10
-52.6658601798
 20
-9.2408974748
 10
-53.4220399745
 20
-9.6106223231
  0
LWPOLYLINE
  5
21D
330
200
100
AcDbEntity
  8
0
  6
Continuous
 62
     7
370
    15
100
AcDbPolyline
 90
       35
 70
   128
 43
0.0
 10
97.9342891943
 20
18.1677344893
 10
98.4647973147
 20
17.7989246224
 10
98.8688810872
 20
17.3801200852
 10
99.1327799236
 20
16.9255827639
 10
99.2475070656
 20
16.450791382
 10
99.2091556179
 20
15.9719143904
 10
99.0190315932
 20
15.5052593708
 10
98.6836094369
 20
15.0667177002
 10
98.2143115484
 20
14.6712233891
 10
97.6271193044
 20
14.332244522
 10
96.9420288325
 20
14.0613246177
 10
96.1823700671
 20
13.8676895285
 10
95.3740122763
 20
13.7579332652
 10
94.5444831151
 20
13.7357934457
 10
93.7220312042
 20
13.8020240151
 10
92.9346641571
 20
13.9543695706
 10
92.2091948141
 20
14.1876421671
 10
91.5703281637
 20
14.4938979861
 10
91.0398200433
 20
14.8627078531
 10
90.6357362708
 20
15.2815123903
 10
90.3718374344
 20
15.7360497115
 10
90.2571102924
 20
16.2108410934
 10
90.2954617401
 20
16.689718085
 10
90.4855857648
 20
17.1563731046
 10
90.8210079211
 20
17.5949147753
 10
91.2903058096
 20
17.9904090864
 10
91.8774980536
 20
18.3293879534
 10
92.5625885254
 20
18.6003078578
 10
93.3222472909
 20
18.7939429469
 10
94.1306050817
 20
18.9036992102
 10
94.9601342429
 20
18.9258390297
 10
95.7825861538
 20
18.8596084604
 10
96.5699532009
 20
18.7072629049
 10
97.2954225439
 20
18.4739903084
 10
97.9342891943
 20
18.1677344893
  0
LWPOLYLINE
  5
21E
330
200
100
AcDbEntity
  8
0
  6
Continuous
 62
     7
370
    15
100
AcDbPolyline
 90
       35
 70
   128
 43
0.0
 10
3.1819805153
 20
-36.5316090028
 10
3.7124886357
 20
-36.9004188698
 10
4.1165724082
 20
-37.319223407
 10
4.3804712446
 20
-37.7737607282
 10
4.4951983866
 20
-38.2485521101
 10
4.4568469389
 20
-38.7274291017
 10
4.2667229142
 20
-39.1940841213
 10
3.9313007579
 20
-39.632625792
 10
3.4620028694
 20
-40.028120103
 10
2.8748106254
 20
-40.3670989701
 10
2.1897201536
 20
-40.6380188745
 10
1.4300613881
 20
-40.8316539636
 10
0.6217035973
 20
-40.9414102269
 10
-0.2078255639
 20
-40.9635500464
 10
-1.0302774748
 20
-40.8973194771
 10
-1.8176445219
 20
-40.7449739216
 10
-2.5431138649
 20
-40.511701325
 10
-3.1819805153
 20
-40.205445506
 10
-3.7124886357
 20
-39.836635639
 10
-4.1165724082
 20
-39.4178311019
 10
-4.3804712446
 20
-38.9632937806
 10
-4.4951983866
 20
-38.4885023987
 10
-4.4568469389
 20
-38.0096254071
 10
-4.2667229142
 20
-37.5429703875
 10
-3.9313007579
 20
-37.1044287169
 10
-3.4620028694
 20
-36.7089344058
 10
-2.8748106254
 20
-36.3699555387
 10
-2.1897201536
 20
-36.0990356344
 10
-1.4300613881
 20
-35.9054005452
 10
-0.6217035973
 20
-35.7956442819
 10
0.2078255639
 20
-35.7735044624
 10
1.0302774748
 20
-35.8397350317
 10
1.8176445219
 20
-35.9920805872
 10
2.5431138649
 20
-36.2253531838
 10
3.1819805153
 20
-36.5316090028
  0
LWPOLYLINE
  5
21F
330
200
100
AcDbEntity
  8
0
  6
Continuous
 62
     7
370
    15
100
AcDbPolyline
 90
       35
 70
   128
 43
0.0
 10
-91.5703281637
 20
18.1677344893
 10
-91.0398200433
 20
17.7989246224
 10
-90.6357362708
 20
17.3801200852
 10
-90.3718374344
 20
16.9255827639
 10
-90.2571102924
 20
16.450791382
 10
-90.2954617401
 20
15.9719143904
 10
-90.4855857648
 20
15.5052593708
 10
-90.8210079211
 20
15.0667177002
 10
-91.2903058096
 20
14.6712233891
 10
-91.8774980536
 20
14.332244522
 10
-92.5625885254
 20
14.0613246177
 10
-93.3222472909
 20
13.8676895285
 10
-94.1306050817
 20
13.7579332652
 10
-94.9601342429
 20
13.7357934457
 10
-95.7825861538
 20
13.802024015
 10
-96.5699532009
 20
13.9543695706
 10
-97.2954225439
 20
14.1876421671
 10
-97.9342891943
 20
14.4938979861
 10
-98.4647973147
 20
14.8627078531
 10
-98.8688810872
 20
15.2815123903
 10
-99.1327799236
 20
15.7360497115
 10
-99.2475070656
 20
16.2108410934
 10
-99.2091556179
 20
16.689718085
 10
-99.0190315932
 20
17.1563731046
 10
-98.6836094369
 20
17.5949147753
 10
-98.2143115484
 20
17.9904090864
 10
-97.6271193044
 20
18.3293879534
 10
-96.9420288325
 20
18.6003078578
 10
-96.1823700671
 20
18.7939429469
 10
-95.3740122763
 20
18.9036992102
 10
-94.5444831151
 20
18.9258390297
 10
-93.7220312042
 20
18.8596084604
 10
-92.9346641571
 20
18.7072629049
 10
-92.2091948141
 20
18.4739903084
 10
-91.5703281637
 20
18.1677344893
  0
LWPOLYLINE
  5
220
330
200
100
AcDbEntity
  8
0
  6
Continuous
 62
     7
370
    15
100
AcDbPolyline
 90
       35
 70
   128
 43
0.0
 10
3.1819805153
 20
72.8670779814
 10
3.7124886357
 20
72.4982681145
 10
4.1165724082
 20
72.0794635773
 10
4.3804712446
 20
71.6249262561
 10
4.4951983866
 20
71.1501348741
 10
4.4568469389
 20
70.6712578826
 10
4.2667229142
 20
70.2046028629
 10
3.9313007579
 20
69.7660611923
 10
3.4620028694
 20
69.3705668812
 10
2.8748106254
 20
69.0315880141
 10
2.1897201536
 20
68.7606681098
 10
1.4300613881
 20
68.5670330206
 10
0.6217035973
 20
68.4572767573
 10
-0.2078255639
 20
68.4351369379
 10
-1.0302774748
 20
68.5013675072
 10
-1.8176445219
 20
68.6537130627
 10
-2.5431138649
 20
68.8869856592
 10
-3.1819805153
 20
69.1932414782
 10
-3.7124886357
 20
69.5620513452
 10
-4.1165724082
 20
69.9808558824
 10
-4.3804712446
 20
70.4353932036
 10
-4.4951983866
 20
70.9101845855
 10
-4.4568469389
 20
71.3890615771
 10
-4.2667229142
 20
71.8557165967
 10
-3.9313007579
 20
72.2942582674
 10
-3.4620028694
 20
72.6897525785
 10
-2.8748106254
 20
73.0287314456
 10
-2.1897201536
 20
73.2996513499
 10
-1.4300613881
 20
73.4932864391
 10
-0.6217035973
 20
73.6030427023
 10
0.2078255639
 20
73.6251825218
 10
1.0302774748
 20
73.5589519525
 10
1.8176445219
 20
73.406606397
 10
2.5431138649
 20
73.1733338005
 10
3.1819805153
 20
72.8670779814
  0
LWPOLYLINE
  5
221
330
200
100
AcDbEntity
  8
0
  6
Continuous
 62
     7
370
    15
100
AcDbPolyline
 90
       90
 70
   128
 43
0.0
 10
21.5667568262
 20
28.781039943
 10
23.0343311538
 20
27.8718009289
 10
24.3871496023
 20
26.9050653095
 10
25.6184724981
 20
25.8856493132
 10
26.7221654526
 20
24.8186316192
 10
27.692729923
 20
23.7093280558
 10
28.5253306059
 20
22.5632651177
 10
29.2158195266
 20
21.3861524328
 10
29.760756704
 20
20.1838543173
 10
30.1574272885
 20
18.9623605599
 10
30.4038550873
 20
17.727756581
 10
30.4988124093
 20
16.4861931156
 10
30.4418261821
 20
15.2438555704
 10
30.2331803081
 20
14.0069332086
 10
29.8739142506
 20
12.7815883152
 10
29.365817855
 20
11.5739254967
 10
28.7114224319
 20
10.3899612686
 10
27.9139881466
 20
9.2355940811
 10
26.9774877764
 20
8.1165749336
 10
25.9065869191
 20
7.038478723
 10
24.706620749
 20
6.0066764705
 10
23.383567437
 20
5.0263085629
 10
21.9440183683
 20
4.102259144
 10
20.3951453039
 20
3.2391317815
 10
18.7446646515
 20
2.4412265323
 10
17.0007990227
 20
1.7125185204
 10
15.1722362684
 20
1.0566381324
 10
13.2680861961
 20
0.4768529314
 10
11.2978351858
 20
-0.0239486219
 10
9.271298929
 20
-0.4432715593
 10
7.1985735272
 20
-0.7790268351
 10
5.0899851942
 20
-1.0295417334
 10
2.956038811
 20
-1.1935682014
 10
0.8073655911
 20
-1.2702890678
 10
-1.3453298835
 20
-1.2593221128
 10
-3.4913229924
 20
-1.1607219734
 10
-5.6199225057
 20
-0.9749798705
 10
-7.7205238477
 20
-0.7030211618
 10
-9.7826619283
 20
-0.3462007321
 10
-11.7960632793
 20
0.0937037573
 10
-13.7506972364
 20
0.6145007243
 10
-15.6368259115
 20
1.2135955846
 10
-17.4450527065
 20
1.8880036779
 10
-19.1663691264
 20
2.6343651368
 10
-20.7921996594
 20
3.4489616261
 10
-22.3144444996
 20
4.3277348671
 10
-23.7255198997
 20
5.2663068558
 10
-25.0183959532
 20
6.2600016736
 10
-26.1866316164
 20
7.303868783
 10
-27.2244067982
 20
8.3927076906
 10
-28.1265513547
 20
9.5210938556
 10
-28.8885708472
 20
10.683405715
 10
-29.5066689329
 20
11.8738526896
 10
-29.9777662782
 20
13.0865040323
 10
-30.2995158998
 20
14.3153183753
 10
-30.4703148573
 20
15.5541738272
 10
-30.4893122389
 20
16.7968984726
 10
-30.3564134006
 20
18.0373011197
 10
-30.0722804377
 20
19.269202145
 10
-29.6383288863
 20
20.4864642795
 10
-29.0567206713
 20
21.6830231845
 10
-28.3303533355
 20
22.8529176637
 10
-27.4628456044
 20
23.9903193616
 10
-26.458519358
 20
25.0895618003
 10
-25.322378099
 20
26.1451686092
 10
-24.0600820261
 20
27.1518808082
 10
-22.6779198348
 20
28.1046830079
 10
-21.1827773876
 20
28.9988283955
 10
-19.5821034089
 20
29.8298623838
 10
-17.8838723762
 20
30.5936448033
 10
-16.0965447908
 20
31.2863705282
 10
-14.2290250289
 20
31.904588434
 10
-12.2906169801
 20
32.44521859
 10
-10.2909776958
 20
32.9055676042
 10
-8.2400692782
 20
33.2833420407
 10
-6.1481092499
 20
33.5766598465
 10
-4.0255196507
 20
33.7840597268
 10
-1.882875115
 20
33.9045084261
 10
0.2691498098
 20
33.9374058748
 10
2.4198338438
 20
33.8825881796
 10
4.5584623873
 20
33.7403284395
 10
6.6743809004
 20
33.5113353853
 10
8.7570479837
 20
33.1967498489
 10
10.7960878944
 20
32.7981390797
 10
12.7813422382
 20
32.3174889364
 10
14.702920578
 20
31.7571939938
 10
16.551249707
 20
31.1200456133
 10
18.3171213425
 20
30.4092180359
 10
19.9917380009
 20
29.6282525689
 10
21.5667568262
 20
28.781039943
  0
LWPOLYLINE
  5
22E
330
200
100
AcDbEntity
  8
0
  6
Continuous
 62
     7
370
    15
100
AcDbPolyline
 90
       17
 70
   128
 43
0.0
 10
2.8284271247
 20
-37.1439814367
 10
2.2222809321
 20
-36.8568088997
 10
1.5307337295
 20
-36.6434204541
 10
0.7803612881
 20
-36.5120164981
 10
0.0
 20
-36.467646812
 10
-0.7803612881
 20
-36.5120164981
 10
-1.5307337295
 20
-36.6434204541
 10
-2.2222809321
 20
-36.8568088997
 10
-2.8284271247
 20
-37.1439814367
 10
-3.3258784492
 20
-37.4939021855
 10
-3.69551813
 20
-37.8931238879
 10
-3.9231411216
 20
-38.3263046778
 10
-4.0
 20
-38.7767976603
 10
-3.9231411216
 20
-39.2272906429
 10
-3.69551813
 20
-39.6604714328
 10
-3.3258784492
 20
-40.0596931352
 10
-2.9952703632
 20
-40.3072477532
  0
LWPOLYLINE
  5
235
330
200
100
AcDbEntity
  8
0
  6
Continuous
 62
     7
370
    15
100
AcDbPolyline
 90
        3
 70
   128
 43
0.0
 10
-34.0053738994
 20
-34.9927955191
 10
-34.0054653252
 20
-34.9928483067
 10
-34.0289237815
 20
-35.0069720056
  0
LWPOLYLINE
  5
23B
330
200
100
AcDbEntity
  8
0
  6
Continuous
 62
     7
370
    15
100
AcDbPolyline
 90
       46
 70
   128
 43
0.0
 10
21.2132034356
 20
28.1686675091
 10
19.6640045911
 20
29.0019914034
 10
18.0168406648
 20
29.7701541578
 10
16.2799177446
 20
30.4693288241
 10
14.4618890931
 20
31.0960321493
 10
12.5718120376
 20
31.6471419288
 10
10.6191028469
 20
32.1199125616
 10
8.61348982
 20
32.5119887281
 10
6.5649648201
 20
32.8214171245
 10
4.4837334957
 20
33.0466561942
 10
2.3801644365
 20
33.1865838074
 10
0.2647375178
 20
33.2405028519
 10
-1.8520083098
 20
33.2081447056
 10
-3.9595275252
 20
33.0896705752
 10
-6.0473205737
 20
32.8856706928
 10
-8.1049861753
 20
32.5971613757
 10
-10.1222731434
 20
32.2255799627
 10
-12.0891314559
 20
31.7727776537
 10
-13.9957623235
 20
31.2410102871
 10
-15.8326670073
 20
30.6329271011
 10
-17.5906941405
 20
29.9515575356
 10
-19.2610853203
 20
29.2002961394
 10
-20.8355187419
 20
28.3828856591
 10
-22.3061506571
 20
27.5033983926
 10
-23.6656544519
 20
26.5662159011
 10
-24.9072571465
 20
25.5760071808
 10
-26.024773139
 20
24.5377054015
 10
-27.0126350207
 20
23.4564833307
 10
-27.8659213136
 20
22.3377275622
 10
-28.5803809882
 20
21.187011681
 10
-29.1524546423
 20
20.0100684958
 10
-29.5792922338
 20
18.8127614783
 10
-29.8587672793
 20
17.6010555518
 10
-29.9894874481
 20
16.3809873743
 10
-29.970801499
 20
15.1586352641
 10
-29.8028025244
 20
13.9400889179
 10
-29.4863274868
 20
12.7314190724
 10
-29.0229530488
 20
11.5386472598
 10
-28.4149877186
 20
10.3677158094
 10
-27.6654603489
 20
9.2244582428
 10
-26.7781050474
 20
8.1145702116
 10
-25.7573425735
 20
7.0435811222
 10
-24.6082583146
 20
6.0168265884
 10
-23.3365769505
 20
5.0394218495
 10
-21.948633934
 20
4.1162362869
 10
-21.3919940299
 20
3.7805151056
  0
LWPOLYLINE
  5
23C
330
200
100
AcDbEntity
  8
0
  6
Continuous
 62
     7
370
    15
100
AcDbPolyline
 90
       24
 70
   128
 43
0.0
 10
21.3919940299
 20
3.7805151056
 10
21.5842803623
 20
3.8944568872
 10
23.0002302659
 20
4.8033579549
 10
24.3015941793
 20
5.7676542574
 10
25.4818887729
 20
6.7825417189
 10
26.5352338784
 20
7.8429642211
 10
27.4563817835
 20
8.9436387925
 10
28.2407433757
 20
10.0790819277
 10
28.8844110049
 20
11.2436369062
 10
29.3841779514
 20
12.4315019735
 10
29.7375544014
 20
13.6367592458
 10
29.9427798512
 20
14.8534041918
 10
29.998831878
 20
16.0753755477
 10
29.9054312334
 20
17.2965855137
 10
29.6630432346
 20
18.5109500831
 10
29.2728754466
 20
19.7124193527
 10
28.7368716655
 20
20.895007663
 10
28.0577022353
 20
22.0528234187
 10
27.2387507439
 20
23.1800984397
 10
26.2840971665
 20
24.2712166988
 10
25.1984975391
 20
25.3207422995
 10
23.9873602645
 20
26.3234465582
 10
22.6567191677
 20
27.2743340526
 10
21.2132034356
 20
28.1686675091
  0
LWPOLYLINE
  5
23D
330
200
100
AcDbEntity
  8
0
  6
Continuous
 62
     7
370
    15
100
AcDbPolyline
 90
       43
 70
   128
 43
0.0
 10
29.7467659204
 20
13.6770585991
 10
29.4863274868
 20
14.6226981258
 10
29.0229530488
 20
15.8154699384
 10
28.4149877186
 20
16.9864013887
 10
27.6654603489
 20
18.1296589554
 10
26.7781050474
 20
19.2395469866
 10
25.7573425735
 20
20.310536076
 10
24.6082583146
 20
21.3372906098
 10
23.3365769505
 20
22.3146953486
 10
21.948633934
 20
23.2378809112
 10
20.4513439273
 20
24.1022480336
 10
18.8521663538
 20
24.9034904821
 10
17.1590682359
 20
25.6376165072
 10
15.3804845031
 20
26.3009687301
 10
13.5252759702
 20
26.8902423632
 10
11.6026851927
 20
27.402501675
 10
9.6222904213
 20
27.8351946154
 10
7.593957883
 20
28.1861655299
 10
5.5277926285
 20
28.453665899
 10
3.4340881892
 20
28.6363630495
 10
1.3232752953
 20
28.7333467931
 10
-0.7941300896
 20
28.7441339619
 10
-2.9075791583
 20
28.6686708147
 10
-5.0065428139
 20
28.5073333052
 10
-7.0805641251
 20
28.2609252085
 10
-9.1193104219
 20
27.9306741176
 10
-11.112624773
 20
27.5182253267
 10
-13.0505765864
 20
27.0256336349
 10
-14.9235110837
 20
26.4553531094
 10
-16.7220973994
 20
25.8102248589
 10
-18.4373750671
 20
25.0934628799
 10
-20.0607986596
 20
24.3086380447
 10
-21.5842803623
 20
23.459660311
 10
-23.0002302659
 20
22.5507592432
 10
-24.3015941793
 20
21.5864629408
 10
-25.4818887729
 20
20.5715754793
 10
-26.5352338784
 20
19.511152977
 10
-27.4563817835
 20
18.4104784057
 10
-28.2407433757
 20
17.2750352704
 10
-28.8844110049
 20
16.110480292
 10
-29.3841779514
 20
14.9226152246
 10
-29.7375544014
 20
13.7173579524
 10
-29.7467659204
 20
13.6770585991
  0
LWPOLYLINE
  5
23E
330
200
100
AcDbEntity
  8
0
  6
Continuous
 62
     7
370
    15
100
AcDbPolyline
 90
       27
 70
   128
 43
0.0
 10
-12.3743686708
 20
4.288000388
 10
-11.1798190989
 20
3.6593480275
 10
-9.8898872524
 20
3.0970055361
 10
-8.5155783749
 20
2.6057706217
 10
-7.0686175853
 20
2.1898343274
 10
-5.5613498427
 20
1.852745275
 10
-4.0066346241
 20
1.5973793894
 10
-2.4177362117
 20
1.4259153623
 10
-0.8082105263
 20
1.3398160643
 10
0.8082105263
 20
1.3398160643
 10
2.4177362117
 20
1.4259153623
 10
4.0066346241
 20
1.5973793894
 10
5.5613498427
 20
1.852745275
 10
7.0686175853
 20
2.1898343274
 10
8.5155783749
 20
2.6057706217
 10
9.8898872524
 20
3.0970055361
 10
11.1798190989
 20
3.6593480275
 10
12.3743686708
 20
4.288000388
 10
13.4633444922
 20
4.9775991773
 10
14.4374558055
 20
5.7222609817
 10
15.2883918363
 20
6.5156326093
 10
16.0088926985
 20
7.350945293
 10
16.5928113328
 20
8.2210724396
 10
17.0351659513
 20
9.1185904311
 10
17.3321825403
 20
10.0358419603
 10
17.481327059
 20
10.9650013608
 10
17.5
 20
11.4315713664
  0
LWPOLYLINE
  5
240
330
200
100
AcDbEntity
  8
0
  6
Continuous
 62
     7
370
    15
100
AcDbPolyline
 90
        3
 70
   128
 43
0.0
 10
-76.4317807706
 20
-10.5005521644
 10
-76.4318721964
 20
-10.500604952
 10
-76.4553306527
 20
-10.514728651
  0
LWPOLYLINE
  5
241
330
200
100
AcDbEntity
  8
0
  6
Continuous
 62
     7
370
    15
100
AcDbPolyline
 90
       69
 70
   128
 43
0.0
 10
-12.3743686708
 20
9.1872452593
 10
-11.1798190989
 20
8.5585928988
 10
-9.8898872524
 20
7.9962504074
 10
-8.5155783749
 20
7.5050154931
 10
-7.0686175853
 20
7.0890791988
 10
-5.5613498427
 20
6.7519901463
 10
-4.0066346241
 20
6.4966242607
 10
-2.4177362117
 20
6.3251602336
 10
-0.8082105263
 20
6.2390609356
 10
0.8082105263
 20
6.2390609356
 10
2.4177362117
 20
6.3251602336
 10
4.0066346241
 20
6.4966242607
 10
5.5613498427
 20
6.7519901463
 10
7.0686175853
 20
7.0890791988
 10
8.5155783749
 20
7.5050154931
 10
9.8898872524
 20
7.9962504074
 10
11.1798190989
 20
8.5585928988
 10
12.3743686708
 20
9.1872452593
 10
13.4633444922
 20
9.8768440486
 10
14.4374558055
 20
10.621505853
 10
15.2883918363
 20
11.4148774806
 10
16.0088926985
 20
12.2501901643
 10
16.5928113328
 20
13.1203173109
 10
17.0351659513
 20
14.0178353024
 10
17.3321825403
 20
14.9350868317
 10
17.481327059
 20
15.8642462321
 10
17.481327059
 20
16.7973862433
 10
17.3321825403
 20
17.7265456438
 10
17.0351659513
 20
18.643797173
 10
16.5928113328
 20
19.5413151645
 10
16.0088926985
 20
20.4114423111
 10
15.2883918363
 20
21.2467549949
 10
14.4374558055
 20
22.0401266224
 10
13.4633444922
 20
22.7847884269
 10
12.3743686708
 20
23.4743872162
 10
11.1798190989
 20
24.1030395766
 10
9.8898872524
 20
24.665382068
 10
8.5155783749
 20
25.1566169824
 10
7.0686175853
 20
25.5725532767
 10
5.5613498427
 20
25.9096423291
 10
4.0066346241
 20
26.1650082147
 10
2.4177362117
 20
26.3364722419
 10
0.8082105263
 20
26.4225715398
 10
-0.8082105263
 20
26.4225715398
 10
-2.4177362117
 20
26.3364722419
 10
-4.0066346241
 20
26.1650082147
 10
-5.5613498427
 20
25.9096423291
 10
-7.0686175853
 20
25.5725532767
 10
-8.5155783749
 20
25.1566169824
 10
-9.8898872524
 20
24.665382068
 10
-11.1798190989
 20
24.1030395766
 10
-12.3743686708
 20
23.4743872162
 10
-13.4633444922
 20
22.7847884269
 10
-14.4374558055
 20
22.0401266224
 10
-15.2883918363
 20
21.2467549949
 10
-16.0088926985
 20
20.4114423111
 10
-16.5928113328
 20
19.5413151645
 10
-17.0351659513
 20
18.643797173
 10
-17.3321825403
 20
17.7265456438
 10
-17.481327059
 20
16.7973862433
 10
-17.481327059
 20
15.8642462321
 10
-17.3321825403
 20
14.9350868317
 10
-17.0351659513
 20
14.0178353024
 10
-16.5928113328
 20
13.1203173109
 10
-16.0088926985
 20
12.2501901643
 10
-15.2883918363
 20
11.4148774806
 10
-14.4374558055
 20
10.621505853
 10
-13.4633444922
 20
9.8768440486
 10
-12.3743686708
 20
9.1872452593
  0
LWPOLYLINE
  5
242
330
200
100
AcDbEntity
  8
0
  6
Continuous
 62
     7
370
    15
100
AcDbPolyline
 90
       60
 70
   128
 43
0.0
 10
9.545941546
 20
21.8415709925
 10
10.5065332807
 20
21.2245941344
 10
11.3480817951
 20
20.5521688173
 10
12.0610520083
 20
19.8319138886
 10
12.6373656829
 20
19.0719901246
 10
13.0704929547
 20
18.2810077652
 10
13.3555263186
 20
17.4679289565
 10
13.4892362327
 20
16.6419662063
 10
13.4701077102
 20
15.8124780027
 10
13.2983574851
 20
14.9888627784
 10
12.9759315558
 20
14.1804524229
 10
12.5064831371
 20
13.3964065488
 10
11.8953312672
 20
12.6456087089
 10
11.1494005408
 20
11.9365657429
 10
10.2771426513
 20
11.2773113909
 10
9.2884406289
 20
10.675315268
 10
8.1944968628
 20
10.137398231
 10
7.0077061729
 20
9.6696550947
 10
5.7415153719
 20
9.2773855758
 10
4.4102709075
 20
8.9650342448
 10
3.0290563115
 20
8.7361401669
 10
1.6135212971
 20
8.5932968037
 10
0.1797044417
 20
8.5381226273
 10
-1.2561485368
 20
8.5712427834
 10
-2.6777688505
 20
8.6922820072
 10
-4.0690489731
 20
8.8998688761
 10
-5.4142251449
 20
9.1916513479
 10
-6.6980559825
 20
9.5643234105
 10
-7.9059951693
 20
10.0136625407
 10
-9.0243562718
 20
10.5345775464
 10
-10.0404678118
 20
11.1211662525
 10
-10.9428168395
 20
11.7667823747
 10
-11.7211793799
 20
12.4641108242
 10
-12.3667362744
 20
13.2052505911
 10
-12.8721731054
 20
13.9818042657
 10
-13.2317630716
 20
14.7849731845
 10
-13.4414318751
 20
15.6056571229
 10
-13.4988038846
 20
16.4345574037
 10
-13.4032290521
 20
17.2622822557
 10
-13.1557902789
 20
18.0794532256
 10
-12.759291145
 20
18.8768114396
 10
-12.2182241441
 20
19.6453225106
 10
-11.5387197814
 20
20.3762789012
 10
-10.728477113
 20
21.0613985833
 10
-9.7966765121
 20
21.6929188772
 10
-8.7538756517
 20
22.2636844056
 10
-7.6118898823
 20
22.7672281671
 10
-6.383658359
 20
23.1978448094
 10
-5.0830974357
 20
23.5506552742
 10
-3.7249429873
 20
23.8216620778
 10
-2.3245834465
 20
24.0077946048
 10
-0.8978854463
 20
24.1069438993
 10
0.5389859547
 20
24.1179865603
 10
1.9697504294
 20
24.0407974699
 10
3.3781968448
 20
23.8762512113
 10
4.74836694
 20
23.6262121596
 10
6.0647361404
 20
23.2935133569
 10
7.3123894571
 20
22.8819244138
 10
8.4771904793
 20
22.3961087973
 10
9.545941546
 20
21.8415709925
  0
LWPOLYLINE
  5
243
330
200
100
AcDbEntity
  8
0
  6
Continuous
 62
     7
370
    15
100
AcDbPolyline
 90
       30
 70
   128
 43
0.0
 10
9.1923881554
 20
21.2291985586
 10
8.1446299979
 20
21.7718408169
 10
7.0013835003
 20
22.2459054396
 10
5.7760521826
 20
22.6458344523
 10
4.4830019342
 20
22.9669390532
 10
3.1373925869
 20
23.2054545842
 10
1.7550001801
 20
23.358584669
 10
0.3520320008
 20
23.4245339972
 10
-1.0550634319
 20
23.4025293734
 10
-2.4497892104
 20
23.2928287815
 10
-3.8157934504
 20
23.0967183608
 10
-5.1370610009
 20
22.8164973265
 10
-6.3981012081
 20
22.4554510142
 10
-7.5841295284
 20
22.0178123617
 10
-8.6812408643
 20
21.5087122821
 10
-9.6765725883
 20
20.9341195084
 10
-10.5584553461
 20
20.3007706154
 10
-11.3165498687
 20
19.6160910399
 10
-11.9419681909
 20
18.8881080238
 10
-12.4273778547
 20
18.1253565025
 10
-12.7670878756
 20
17.3367790401
 10
-12.9571154643
 20
16.5316209865
 10
-12.9952327209
 20
15.7193220835
 10
-12.8809927555
 20
14.9094057931
 10
-12.6157349273
 20
14.1113676434
 10
-12.2025691417
 20
13.3345639019
 10
-11.6463393899
 20
12.5881018824
 10
-10.953566957
 20
11.8807331695
 10
-10.1323739665
 20
11.2207510145
 10
-9.3673496021
 20
10.718856289
  0
LWPOLYLINE
  5
244
330
200
100
AcDbEntity
  8
0
  6
Continuous
 62
     7
370
    15
100
AcDbPolyline
 90
       16
 70
   128
 43
0.0
 10
9.3673496021
 20
10.718856289
 10
9.6765725883
 20
10.9109721552
 10
10.5584553461
 20
11.5443210482
 10
11.3165498687
 20
12.2290006237
 10
11.9419681909
 20
12.9569836397
 10
12.4273778547
 20
13.719735161
 10
12.7670878756
 20
14.5083126234
 10
12.9571154643
 20
15.3134706771
 10
12.9952327209
 20
16.1257695801
 10
12.8809927555
 20
16.9356858704
 10
12.6157349273
 20
17.7337240202
 10
12.2025691417
 20
18.5105277616
 10
11.6463393899
 20
19.2569897812
 10
10.953566957
 20
19.9643584941
 10
10.1323739665
 20
20.624340649
 10
9.1923881554
 20
21.2291985586
  0
LWPOLYLINE
  5
245
330
200
100
AcDbEntity
  8
0
  6
Continuous
 62
     7
370
    15
100
AcDbPolyline
 90
       23
 70
   128
 43
0.0
 10
11.8686922745
 20
12.8605177872
 10
11.6463393899
 20
13.132933692
 10
10.953566957
 20
13.8403024049
 10
10.1323739665
 20
14.5002845599
 10
9.1923881554
 20
15.1051424695
 10
8.1446299979
 20
15.6477847278
 10
7.0013835003
 20
16.1218493504
 10
5.7760521826
 20
16.5217783632
 10
4.4830019342
 20
16.842882964
 10
3.1373925869
 20
17.0813984951
 10
1.7550001801
 20
17.2345285799
 10
0.3520320008
 20
17.3004779081
 10
-1.0550634319
 20
17.2784732842
 10
-2.4497892104
 20
17.1687726924
 10
-3.8157934504
 20
16.9726622716
 10
-5.1370610009
 20
16.6924412374
 10
-6.3981012081
 20
16.3313949251
 10
-7.5841295284
 20
15.8937562726
 10
-8.6812408643
 20
15.384656193
 10
-9.6765725883
 20
14.8100634192
 10
-10.5584553461
 20
14.1767145262
 10
-11.3165498687
 20
13.4920349507
 10
-11.8686922745
 20
12.8605177872
  0
LWPOLYLINE
  5
246
330
200
100
AcDbEntity
  8
0
  6
Continuous
 62
     7
370
    15
100
AcDbPolyline
 90
       23
 70
   128
 43
0.0
 10
-7.9882916587
 20
10.048260178
 10
-7.8530174676
 20
10.6797032497
 10
-7.5641486048
 20
11.3020617027
 10
-7.1280521935
 20
11.8951548379
 10
-6.5532163543
 20
12.4474387718
 10
-5.850829613
 20
12.948163926
 10
-5.0345631284
 20
13.387584255
 10
-4.1203045993
 20
13.7571469418
 10
-3.1258490279
 20
14.0496588691
 10
-2.0705523608
 20
14.2594266251
 10
-0.9749547472
 20
14.3823673188
 10
0.1396192515
 20
14.4160880496
 10
1.2514757203
 20
14.3599324818
 10
2.3389736378
 20
14.2149936196
 10
3.3809460939
 20
13.9840925332
 10
4.3571122801
 20
13.6717234495
 10
5.2484722319
 20
13.2839662775
 10
6.0376766418
 20
12.8283682693
 10
6.7093645436
 20
12.3137971221
 10
7.2504622963
 20
11.7502683779
 10
7.6504380477
 20
11.1487504826
 10
7.9015067248
 20
10.5209512979
 10
7.9882916587
 20
10.048260178
  0
LWPOLYLINE
  5
249
330
200
100
AcDbEntity
  8
0
  6
Continuous
 62
     7
370
    15
100
AcDbPolyline
 90
       17
 70
   128
 43
0.0
 10
-91.9238815543
 20
17.5553620554
 10
-92.5300277469
 20
17.8425345924
 10
-93.2215749495
 20
18.055923038
 10
-93.9719473909
 20
18.1873269941
 10
-94.752308679
 20
18.2316966801
 10
-95.5326699671
 20
18.1873269941
 10
-96.2830424085
 20
18.055923038
 10
-96.9745896111
 20
17.8425345924
 10
-97.5807358037
 20
17.5553620554
 10
-98.0781871282
 20
17.2054413067
 10
-98.447826809
 20
16.8062196043
 10
-98.6754498006
 20
16.3730388144
 10
-98.752308679
 20
15.9225458318
 10
-98.6754498006
 20
15.4720528492
 10
-98.447826809
 20
15.0388720593
 10
-98.0781871282
 20
14.6396503569
 10
-97.7475790468
 20
14.392095742
  0
LWPOLYLINE
  5
24B
330
200
100
AcDbEntity
  8
0
  6
Continuous
 62
     7
370
    15
100
AcDbPolyline
 90
       17
 70
   128
 43
0.0
 10
97.5807358037
 20
17.5553620554
 10
96.9745896111
 20
17.8425345924
 10
96.2830424085
 20
18.055923038
 10
95.5326699671
 20
18.1873269941
 10
94.752308679
 20
18.2316966801
 10
93.9719473909
 20
18.1873269941
 10
93.2215749495
 20
18.055923038
 10
92.5300277469
 20
17.8425345924
 10
91.9238815543
 20
17.5553620554
 10
91.4264302298
 20
17.2054413067
 10
91.056790549
 20
16.8062196043
 10
90.8291675574
 20
16.3730388144
 10
90.752308679
 20
15.9225458318
 10
90.8291675574
 20
15.4720528492
 10
91.056790549
 20
15.0388720593
 10
91.4264302298
 20
14.6396503569
 10
91.7570383072
 20
14.3920957445
  0
LWPOLYLINE
  5
24D
330
200
100
AcDbEntity
  8
0
  6
Continuous
 62
     7
370
    15
100
AcDbPolyline
 90
        3
 70
   128
 43
0.0
 10
5.6568542495
 20
10.6144997543
 10
6.3890840804
 20
10.1282306495
 10
6.9400801996
 20
9.6461015453
  0
LWPOLYLINE
  5
24E
330
200
100
AcDbEntity
  8
0
  6
Continuous
 62
     7
370
    15
100
AcDbPolyline
 90
       15
 70
   128
 43
0.0
 10
-6.9400801996
 20
9.6461015453
 10
-6.8573384056
 20
9.7274685222
 10
-6.2171676917
 20
10.2552587367
 10
-5.4559868805
 20
10.726479348
 10
-4.5886114908
 20
11.131958583
 10
-3.6319239979
 20
11.4638042494
 10
-2.6045452357
 20
11.7155573489
 10
-1.526471963
 20
11.8823177938
 10
-0.4186876499
 20
11.9608397817
 10
0.697245942
 20
11.9495949714
 10
1.7996084348
 20
11.8488022304
 10
2.8669435964
 20
11.6604233747
 10
3.878476962
 20
11.3881249844
 10
4.8145201852
 20
11.0372070381
 10
5.6568542495
 20
10.6144997543
  0
LWPOLYLINE
  5
24F
330
200
100
AcDbEntity
  8
0
  6
Continuous
 62
     7
370
    15
100
AcDbPolyline
 90
       12
 70
   128
 43
0.0
 10
103.2375900532
 20
18.3716374672
 10
103.9850657311
 20
17.8736500839
 10
104.6021677203
 20
17.3193214284
 10
105.0763336037
 20
16.7199360335
 10
105.3979107315
 20
16.0876956573
 10
105.5603527206
 20
15.4354708907
 10
105.5603527206
 20
14.7765391491
 10
105.3979107315
 20
14.1243143825
 10
105.0763336037
 20
13.4920740063
 10
104.6021677203
 20
12.8926886114
 10
103.9850657311
 20
12.3383599559
 10
103.2375900532
 20
11.8403725726
  0
LWPOLYLINE
  5
250
330
200
100
AcDbEntity
  8
0
  6
Continuous
 62
     7
370
    15
100
AcDbPolyline
 90
       11
 70
   128
 43
0.0
 10
102.4269298815
 20
18.8397737566
 10
103.1253769686
 20
18.3676814498
 10
103.6872965886
 20
17.8383262367
 10
104.0988524156
 20
17.2647425992
 10
104.3499105793
 20
16.6610540704
 10
104.4342891943
 20
16.0421254651
 10
104.3499105793
 20
15.4231968599
 10
104.0988524156
 20
14.819508331
 10
103.6872965886
 20
14.2459246936
 10
103.1253769686
 20
13.7165694804
 10
102.4269298815
 20
13.2444771737
  0
LWPOLYLINE
  5
252
330
200
100
AcDbEntity
  8
0
  6
Continuous
 62
     7
370
    15
100
AcDbPolyline
 90
       12
 70
   128
 43
0.0
 10
-103.2375900532
 20
11.8403725726
 10
-103.9850657311
 20
12.3383599559
 10
-104.6021677203
 20
12.8926886114
 10
-105.0763336037
 20
13.4920740063
 10
-105.3979107315
 20
14.1243143825
 10
-105.5603527206
 20
14.7765391491
 10
-105.5603527206
 20
15.4354708907
 10
-105.3979107315
 20
16.0876956573
 10
-105.0763336037
 20
16.7199360335
 10
-104.6021677203
 20
17.3193214284
 10
-103.9850657311
 20
17.8736500839
 10
-103.2375900532
 20
18.3716374672
  0
LWPOLYLINE
  5
254
330
200
100
AcDbEntity
  8
0
  6
Continuous
 62
     7
370
    15
100
AcDbPolyline
 90
       11
 70
   128
 43
0.0
 10
-102.4269298815
 20
13.2444771737
 10
-103.1253769686
 20
13.7165694804
 10
-103.6872965886
 20
14.2459246936
 10
-104.0988524156
 20
14.819508331
 10
-104.3499105793
 20
15.4231968599
 10
-104.4342891943
 20
16.0421254651
 10
-104.3499105793
 20
16.6610540704
 10
-104.0988524156
 20
17.2647425992
 10
-103.6872965886
 20
17.8383262367
 10
-103.1253769686
 20
18.3676814498
 10
-102.4269298815
 20
18.8397737566
  0
LWPOLYLINE
  5
259
330
200
100
AcDbEntity
  8
0
  6
Continuous
 62
     7
370
    15
100
AcDbPolyline
 90
       17
 70
   128
 43
0.0
 10
2.8284271247
 20
72.2547055475
 10
2.2222809321
 20
72.5418780845
 10
1.5307337295
 20
72.7552665302
 10
0.7803612881
 20
72.8866704862
 10
0.0
 20
72.9310401722
 10
-0.7803612881
 20
72.8866704862
 10
-1.5307337295
 20
72.7552665302
 10
-2.2222809321
 20
72.5418780845
 10
-2.8284271247
 20
72.2547055475
 10
-3.3258784492
 20
71.9047847988
 10
-3.69551813
 20
71.5055630964
 10
-3.9231411216
 20
71.0723823065
 10
-4.0
 20
70.6218893239
 10
-3.9231411216
 20
70.1713963413
 10
-3.69551813
 20
69.7382155514
 10
-3.3258784492
 20
69.338993849
 10
-2.9952703632
 20
69.091439231
  0
LINE
  5
25C
330
200
100
AcDbEntity
  8
0
  6
Continuous
 62
     7
370
    15
100
AcDbLine
 10
-17.5
 20
16.3308162377
 30
0.0
 11
-17.5
 21
11.4315713664
 31
0.0
  0
LINE
  5
25D
330
200
100
AcDbEntity
  8
0
  6
Continuous
 62
     7
370
    15
100
AcDbLine
 10
17.5
 20
11.4315713664
 30
0.0
 11
17.5
 21
16.3308162377
 31
0.0
  0
LINE
  5
25E
330
200
100
AcDbEntity
  8
0
  6
Continuous
 62
     7
370
    15
100
AcDbLine
 10
105.5807358037
 20
1.2248112178
 30
0.0
 11
105.5807358037
 21
15.1060050199
 31
0.0
  0
LINE
  5
25F
330
200
100
AcDbEntity
  8
0
  6
Continuous
 62
     7
370
    15
100
AcDbLine
 10
-105.5807358037
 20
15.1060050199
 30
0.0
 11
-105.5807358037
 21
1.2248112178
 31
0.0
  0
LINE
  5
260
330
200
100
AcDbEntity
  8
0
  6
Continuous
 62
     7
370
    15
100
AcDbLine
 10
-4.2426406871
 20
75.112200289
 30
0.0
 11
-101.8233764909
 21
18.7800405732
 31
0.0
  0
LINE
  5
261
330
200
100
AcDbEntity
  8
0
  6
Continuous
 62
     7
370
    15
100
AcDbLine
 10
101.8233764909
 20
18.7800405732
 30
0.0
 11
4.2426406871
 21
75.112200289
 31
0.0
  0
LINE
  5
262
330
200
100
AcDbEntity
  8
0
  6
Continuous
 62
     7
370
    15
100
AcDbLine
 10
4.2426406871
 20
-42.4505678135
 30
0.0
 11
101.8233764909
 21
13.8815919022
 31
0.0
  0
LINE
  5
263
330
200
100
AcDbEntity
  8
0
  6
Continuous
 62
     7
370
    15
100
AcDbLine
 10
-48.7903679019
 20
-16.7337122911
 30
0.0
 11
-4.2426406871
 21
-42.4505678135
 31
0.0
  0
LINE
  5
264
330
200
100
AcDbEntity
  8
0
  6
Continuous
 62
     7
370
    15
100
AcDbLine
 10
-48.7903679019
 20
-16.7337122911
 30
0.0
 11
-44.9367586002
 21
-14.5090709941
 31
0.0
  0
LINE
  5
265
330
200
100
AcDbEntity
  8
0
  6
Continuous
 62
     7
370
    15
100
AcDbLine
 10
-53.4220399745
 20
-9.6106223231
 30
0.0
 11
-57.2756492761
 21
-11.8352636202
 31
0.0
  0
LINE
  5
266
330
200
100
AcDbEntity
  8
0
  6
Continuous
 62
     7
370
    15
100
AcDbLine
 10
-101.8233764909
 20
13.8815919022
 30
0.0
 11
-57.2756492761
 21
-11.8352636202
 31
0.0
  0
LINE
  5
267
330
200
100
AcDbEntity
  8
0
  6
Continuous
 62
     7
370
    15
100
AcDbLine
 10
103.2375900532
 20
11.8403725726
 30
0.0
 11
5.6568542495
 21
-44.4917871432
 31
0.0
  0
LINE
  5
268
330
200
100
AcDbEntity
  8
0
  6
Continuous
 62
     7
370
    15
100
AcDbLine
 10
102.4269298815
 20
13.2444771737
 30
0.0
 11
4.8461940777
 21
-43.0876825421
 31
0.0
  0
LINE
  5
269
330
200
100
AcDbEntity
  8
0
  6
Continuous
 62
     7
370
    15
100
AcDbLine
 10
-4.8461940777
 20
-43.0876825421
 30
0.0
 11
-49.3939212925
 21
-17.3708270197
 31
0.0
  0
LINE
  5
26A
330
200
100
AcDbEntity
  8
0
  6
Continuous
 62
     7
370
    15
100
AcDbLine
 10
-5.6568542495
 20
-44.4917871432
 30
0.0
 11
-50.2045814642
 21
-18.7749316208
 31
0.0
  0
LINE
  5
26B
330
200
100
AcDbEntity
  8
0
  6
Continuous
 62
     7
370
    15
100
AcDbLine
 10
-50.2045814642
 20
-18.7749316208
 30
0.0
 11
-49.3939212925
 21
-17.3708270197
 31
0.0
  0
LINE
  5
26C
330
200
100
AcDbEntity
  8
0
  6
Continuous
 62
     7
370
    15
100
AcDbLine
 10
-49.3939212925
 20
-17.3708270197
 30
0.0
 11
-48.7903679019
 21
-16.7337122911
 31
0.0
  0
LINE
  5
26D
330
200
100
AcDbEntity
  8
0
  6
Continuous
 62
     7
370
    15
100
AcDbLine
 10
5.6568542495
 20
-58.3729809452
 30
0.0
 11
103.2375900532
 21
-2.0408212295
 31
0.0
  0
LINE
  5
26E
330
200
100
AcDbEntity
  8
0
  6
Continuous
 62
     7
370
    15
100
AcDbLine
 10
-50.2045814642
 20
-18.7749316208
 30
0.0
 11
-50.2045814642
 21
-24.082446898
 31
0.0
  0
LINE
  5
26F
330
200
100
AcDbEntity
  8
0
  6
Continuous
 62
     7
370
    15
100
AcDbLine
 10
-103.2375900532
 20
-2.0408212295
 30
0.0
 11
-5.6568542495
 21
-58.3729809452
 31
0.0
  0
LINE
  5
270
330
200
100
AcDbEntity
  8
0
  6
Continuous
 62
     7
370
    15
100
AcDbLine
 10
-58.6898628385
 20
-13.8764829498
 30
0.0
 11
-103.2375900532
 21
11.8403725726
 31
0.0
  0
LINE
  5
271
330
200
100
AcDbEntity
  8
0
  6
Continuous
 62
     7
370
    15
100
AcDbLine
 10
-58.6898628385
 20
-19.1839982271
 30
0.0
 11
-58.6898628385
 21
-13.8764829498
 31
0.0
  0
LINE
  5
272
330
200
100
AcDbEntity
  8
0
  6
Continuous
 62
     7
370
    15
100
AcDbLine
 10
-50.2045814642
 20
-24.082446898
 30
0.0
 11
-58.6898628385
 21
-19.1839982271
 31
0.0
  0
LINE
  5
273
330
200
100
AcDbEntity
  8
0
  6
Continuous
 62
     7
370
    15
100
AcDbLine
 10
102.1769298815
 20
-2.6533263634
 30
0.0
 11
103.2375900532
 21
-2.0408212295
 31
0.0
  0
LINE
  5
274
330
200
100
AcDbEntity
  8
0
  6
Continuous
 62
     7
370
    15
100
AcDbLine
 10
102.1769298815
 20
-2.6533263634
 30
0.0
 11
4.5961940777
 21
-58.9854860792
 31
0.0
  0
LINE
  5
275
330
200
100
AcDbEntity
  8
0
  6
Continuous
 62
     7
370
    15
100
AcDbLine
 10
-103.2375900532
 20
-2.0408212295
 30
0.0
 11
-102.1769298815
 21
-2.6533263634
 31
0.0
  0
LINE
  5
276
330
200
100
AcDbEntity
  8
0
  6
Continuous
 62
     7
370
    15
100
AcDbLine
 10
-4.5961940777
 20
-58.9854860792
 30
0.0
 11
-102.1769298815
 21
-2.6533263634
 31
0.0
  0
LINE
  5
277
330
200
100
AcDbEntity
  8
0
  6
Continuous
 62
     7
370
    15
100
AcDbLine
 10
-53.4220399745
 20
-16.1429488182
 30
0.0
 11
-58.6898628385
 21
-19.1839982271
 31
0.0
  0
LINE
  5
278
330
200
100
AcDbEntity
  8
0
  6
Continuous
 62
     7
370
    15
100
AcDbLine
 10
-57.8792026667
 20
-12.4723783487
 30
0.0
 11
-58.6898628385
 21
-13.8764829498
 31
0.0
  0
LINE
  5
279
330
200
100
AcDbEntity
  8
0
  6
Continuous
 62
     7
370
    15
100
AcDbLine
 10
-57.2756492761
 20
-11.8352636202
 30
0.0
 11
-57.8792026667
 21
-12.4723783487
 31
0.0
  0
LINE
  5
27A
330
200
100
AcDbEntity
  8
0
  6
Continuous
 62
     7
370
    15
100
AcDbLine
 10
-57.8792026667
 20
-12.4723783487
 30
0.0
 11
-102.4269298815
 21
13.2444771737
 31
0.0
  0
LINE
  5
27B
330
200
100
AcDbEntity
  8
0
  6
Continuous
 62
     7
370
    15
100
AcDbLine
 10
102.4269298815
 20
18.8397737566
 30
0.0
 11
103.2375900532
 21
18.3716374672
 31
0.0
  0
LINE
  5
27C
330
200
100
AcDbEntity
  8
0
  6
Continuous
 62
     7
370
    15
100
AcDbLine
 10
-103.2375900532
 20
18.3716374672
 30
0.0
 11
-102.4269298815
 21
18.8397737566
 31
0.0
  0
LINE
  5
27D
330
200
100
AcDbEntity
  8
0
  6
Continuous
 62
     7
370
    15
100
AcDbLine
 10
4.8461940777
 20
75.1719334723
 30
0.0
 11
102.4269298815
 21
18.8397737566
 31
0.0
  0
LINE
  5
27E
330
200
100
AcDbEntity
  8
0
  6
Continuous
 62
     7
370
    15
100
AcDbLine
 10
-102.4269298815
 20
18.8397737566
 30
0.0
 11
-4.8461940777
 21
75.1719334723
 31
0.0
  0
ARC
  5
27F
330
200
100
AcDbEntity
  8
0
  6
Continuous
 62
     7
370
    15
100
AcDbCircle
 10
0.0
 20
-33.6290406056
 30
0.0
 40
12.24741859899434
100
AcDbArc
 50
242.4914255688
 51
297.5085744312
  0
ARC
  5
280
330
200
100
AcDbEntity
  8
0
  6
Continuous
 62
     7
370
    15
100
AcDbCircle
 10
0.0
 20
-33.8212978761
 30
0.0
 40
10.45712588704308
100
AcDbArc
 50
242.3910402158
 51
297.6089597842
  0
ARC
  5
281
330
200
100
AcDbEntity
  8
0
  6
Continuous
 62
     7
370
    15
100
AcDbCircle
 10
0.0
 20
-47.5102344077
 30
0.0
 40
12.24741859899433
100
AcDbArc
 50
242.4914255688
 51
297.5085744312
  0
ARC
  5
282
330
200
100
AcDbEntity
  8
0
  6
Continuous
 62
     7
370
    15
100
AcDbCircle
 10
0.0
 20
-34.3072852428
 30
0.0
 40
9.182213841297676
100
AcDbArc
 50
242.4805390039
 51
297.5194609961
  0
ARC
  5
283
330
200
100
AcDbEntity
  8
0
  6
Continuous
 62
     7
370
    15
100
AcDbCircle
 10
-100.8678456549
 20
16.3308162377
 30
0.0
 40
2.629018642756971
100
AcDbArc
 50
111.3125518932
 51
248.6874481068
  0
ARC
  5
284
330
200
100
AcDbEntity
  8
0
  6
Continuous
 62
     7
370
    15
100
AcDbCircle
 10
0.0
 20
66.9689177182
 30
0.0
 40
9.182213841297587
100
AcDbArc
 50
62.4805390039
 51
117.5194609961
  0
ARC
  5
285
330
200
100
AcDbEntity
  8
0
  6
Continuous
 62
     7
370
    15
100
AcDbCircle
 10
100.8678456549
 20
16.3308162377
 30
0.0
 40
2.629018642756952
100
AcDbArc
 50
291.3125518932
 51
68.6874481068
  0
ARC
  5
286
330
200
100
AcDbEntity
  8
0
  6
Continuous
 62
     7
370
    15
100
AcDbCircle
 10
2.2353567832
 20
-38.7612954698
 30
0.0
 40
1.722625064150478
100
AcDbArc
 50
296.1764460297
 51
69.8619729236
  0
ARC
  5
287
330
200
100
AcDbEntity
  8
0
  6
Continuous
 62
     7
370
    15
100
AcDbCircle
 10
0.0
 20
-50.1971252251
 30
0.0
 40
9.917675458554617
100
AcDbArc
 50
242.3910402158
 51
297.6089597842
  0
ARC
  5
288
330
200
100
AcDbEntity
  8
0
  6
Continuous
 62
     7
370
    15
100
AcDbCircle
 10
-49.1435402647
 20
-24.5309033224
 30
0.0
 40
9.416121310328249
100
AcDbArc
 50
74.2957264541
 51
117.025066569
  0
ARC
  5
289
330
200
100
AcDbEntity
  8
0
  6
Continuous
 62
     7
370
    15
100
AcDbCircle
 10
-8.7501195459
 20
12.2991080616
 30
0.0
 40
8.792782715307252
100
AcDbArc
 50
185.6622794007
 51
245.6578615569
  0
ARC
  5
28A
330
200
100
AcDbEntity
  8
0
  6
Continuous
 62
     7
370
    15
100
AcDbCircle
 10
0.0
 20
-14.4383267219
 30
0.0
 40
23.74721105541409
100
AcDbArc
 50
79.7444574179
 51
100.2555425821
  0
ARC
  5
28B
330
200
100
AcDbEntity
  8
0
  6
Continuous
 62
     7
370
    15
100
AcDbCircle
 10
0.0
 20
-15.4931520958
 30
0.0
 40
24.68193868702089
100
AcDbArc
 50
80.8455121105
 51
99.1544878895
  0
ARC
  5
28C
330
200
100
AcDbEntity
  8
0
  6
Continuous
 62
     7
370
    15
100
AcDbCircle
 10
-92.5169518952
 20
15.9380480227
 30
0.0
 40
1.722625063600664
100
AcDbArc
 50
296.1764461679
 51
69.861972939
  0
ARC
  5
28D
330
200
100
AcDbEntity
  8
0
  6
Continuous
 62
     7
370
    15
100
AcDbCircle
 10
96.9876654637
 20
15.9380480232
 30
0.0
 40
1.722625062847322
100
AcDbArc
 50
296.1764463574
 51
69.8619729602
  0
ARC
  5
28E
330
200
100
AcDbEntity
  8
0
  6
Continuous
 62
     7
370
    15
100
AcDbCircle
 10
101.6117742861
 20
1.5991680045
 30
0.0
 40
3.986577295412915
100
AcDbArc
 50
294.0681184713
 51
354.6117405711
  0
ARC
  5
28F
330
200
100
AcDbEntity
  8
0
  6
Continuous
 62
     7
370
    15
100
AcDbCircle
 10
-101.6117742861
 20
1.5991680045
 30
0.0
 40
3.986577295412874
100
AcDbArc
 50
185.3882594289
 51
245.9318815287
  0
ARC
  5
290
330
200
100
AcDbEntity
  8
0
  6
Continuous
 62
     7
370
    15
100
AcDbCircle
 10
2.2353567832
 20
70.6373915145
 30
0.0
 40
1.722625064150245
100
AcDbArc
 50
296.1764460297
 51
69.8619729236
  0
ARC
  5
291
330
200
100
AcDbEntity
  8
0
  6
Continuous
 62
     7
370
    15
100
AcDbCircle
 10
0.0
 20
65.9055488063
 30
0.0
 40
10.45712588704308
100
AcDbArc
 50
62.3910402158
 51
117.6089597842
  0
VIEWPORT
  5
3A4
330
200
100
AcDbEntity
  8
0
100
AcDbViewport
 10
0.0
 20
0.0
 30
0.0
 40
243.84
 41
204.216
 68
     1
 69
     1
 12
0.0
 22
0.0
 13
0.0
 23
0.0
 14
10.0
 24
10.0
 15
10.0
 25
10.0
 16
0.0
 26
0.0
 36
1.0
 17
0.0
 27
0.0
 37
0.0
 42
50.0
 43
0.0
 44
0.0
 45
157.08
 50
0.0
 51
0.0
 72
   100
 90
   557152
  1

281
     0
 71
     1
 74
     0
110
0.0
120
0.0
130
0.0
111
1.0
121
0.0
131
0.0
112
0.0
122
1.0
132
0.0
 79
     0
146
0.0
  0
ENDBLK
  5
203
330
200
100
AcDbEntity
  8
0
100
AcDbBlockEnd
  0
BLOCK
  5
294
330
292
100
AcDbEntity
  8
0
100
AcDbBlockBegin
  2
*Paper_Space7
 70
     0
 10
0.0
 20
0.0
 30
0.0
  3
*Paper_Space7
  1

  0
LWPOLYLINE
  5
296
330
292
100
AcDbEntity
  8
0
  6
Continuous
 62
     7
100
AcDbPolyline
 90
       17
 70
   128
 43
0.0
 10
-60.7765420859
 20
-20.9643814444
 10
-61.1032110686
 20
-20.2863718423
 10
-61.6376702825
 20
-19.7179005726
 10
-62.2985531571
 20
-19.3455122329
 10
-62.9852462658
 20
-19.2258995724
 10
-63.5932068076
 20
-19.3772725342
 10
-64.0298783012
 20
-19.7765859571
 10
-64.2287814701
 20
-20.3630479923
 10
-64.15963511
 20
-21.0473751112
 10
-63.8329661273
 20
-21.7253847133
 10
-63.2985069134
 20
-22.293855983
 10
-62.6376240388
 20
-22.6662443226
 10
-61.9509309301
 20
-22.7858569832
 10
-61.3429703883
 20
-22.6344840214
 10
-60.9062988947
 20
-22.2351705985
 10
-60.7073957258
 20
-21.6487085633
 10
-60.7765420859
 20
-20.9643814444
  0
LWPOLYLINE
  5
297
330
292
100
AcDbEntity
  8
0
  6
Continuous
 62
     7
100
AcDbPolyline
 90
       17
 70
   128
 43
0.0
 10
-7.7114547853
 20
-35.3863351255
 10
-8.0381237679
 20
-34.7083255233
 10
-8.5725829818
 20
-34.1398542536
 10
-9.2334658565
 20
-33.767465914
 10
-9.9201589651
 20
-33.6478532534
 10
-10.5281195069
 20
-33.7992262152
 10
-10.9647910005
 20
-34.1985396381
 10
-11.1636941695
 20
-34.7850016733
 10
-11.0945478093
 20
-35.4693287922
 10
-10.7678788267
 20
-36.1473383944
 10
-10.2334196128
 20
-36.7158096641
 10
-9.5725367381
 20
-37.0881980037
 10
-8.8858436294
 20
-37.2078106642
 10
-8.2778830877
 20
-37.0564377024
 10
-7.8412115941
 20
-36.6571242795
 10
-7.6423084251
 20
-36.0706622443
 10
-7.7114547853
 20
-35.3863351255
  0
POINT
  5
298
330
292
100
AcDbEntity
  8
0
  6
Continuous
 62
     7
100
AcDbPoint
 10
-62.4680885979
 20
-21.0058782778
 30
0.0
  0
POINT
  5
299
330
292
100
AcDbEntity
  8
0
  6
Continuous
 62
     7
100
AcDbPoint
 10
-9.4030012973
 20
-35.4278319588
 30
0.0
  0
SPLINE
  5
29B
330
292
100
AcDbEntity
  8
0
  6
Continuous
 62
     7
370
    15
100
AcDbSpline
210
0.0
220
0.0
230
1.0
 70
     8
 71
     3
 72
    21
 73
    17
 74
     0
 42
0.00000001
 43
0.00000001
 12
1.0
 22
0.0
 32
0.0
 13
1.0
 23
0.0
 33
0.0
 40
0.0
 40
0.0
 40
0.0
 40
0.0
 40
0.0639152922843252
 40
0.1380309181530289
 40
0.2170411235069277
 40
0.293114099663443
 40
0.3679285743166678
 40
0.4423873008668103
 40
0.5166918074851742
 40
0.5908690727736542
 40
0.6647886205653314
 40
0.7384106409335452
 40
0.8119235348613975
 40
0.8859342699773722
 40
0.9618878906848124
 40
1.0
 40
1.0
 40
1.0
 40
1.0
 10
-10.73963033992687
 20
-33.60310455304459
 30
0.0
 10
-10.66790343231865
 20
-33.53668943595802
 30
0.0
 10
-10.51300261657338
 20
-33.39325991755859
 30
0.0
 10
-10.17057880652552
 20
-33.27137672008949
 30
0.0
 10
-9.74450832315151
 20
-33.23403859086923
 30
0.0
 10
-9.26738777180014
 20
-33.3164244902906
 30
0.0
 10
-8.788739424121319
 20
-33.50958956890302
 30
0.0
 10
-8.33470732449999
 20
-33.80324976049867
 30
0.0
 10
-7.932040001466901
 20
-34.18032318027688
 30
0.0
 10
-7.604831267233513
 20
-34.61771761907534
 30
0.0
 10
-7.371798048011788
 20
-35.0875860597231
 30
0.0
 10
-7.244744718854612
 20
-35.55886421287277
 30
0.0
 10
-7.224834575533065
 20
-36.00290615436949
 30
0.0
 10
-7.311690118368863
 20
-36.38921831127431
 30
0.0
 10
-7.445385957257196
 20
-36.66385256920243
 30
0.0
 10
-7.579336560107914
 20
-36.77613022687758
 30
0.0
 10
-7.624092684648303
 20
-36.81364489813003
 30
0.0
  0
SPLINE
  5
29C
330
292
100
AcDbEntity
  8
0
  6
Continuous
 62
     7
370
    15
100
AcDbSpline
210
0.0
220
0.0
230
1.0
 70
     8
 71
     3
 72
    21
 73
    17
 74
     0
 42
0.00000001
 43
0.00000001
 12
1.0
 22
0.0
 32
0.0
 13
1.0
 23
0.0
 33
0.0
 40
0.0
 40
0.0
 40
0.0
 40
0.0
 40
0.0639152922843195
 40
0.1380309181530207
 40
0.217041123506919
 40
0.2931140996634353
 40
0.3679285743166592
 40
0.4423873008668046
 40
0.5166918074851699
 40
0.5908690727736521
 40
0.6647886205653284
 40
0.738410640933541
 40
0.8119235348613898
 40
0.8859342699773631
 40
0.9618878906848081
 40
1.0
 40
1.0
 40
1.0
 40
1.0
 10
-63.80471764057214
 20
-19.1811508720093
 30
0.0
 10
-63.73299073296391
 20
-19.11473575492274
 30
0.0
 10
-63.57808991721867
 20
-18.97130623652331
 30
0.0
 10
-63.23566610717084
 20
-18.84942303905423
 30
0.0
 10
-62.80959562379682
 20
-18.81208490983393
 30
0.0
 10
-62.33247507244546
 20
-18.89447080925531
 30
0.0
 10
-61.85382672476664
 20
-19.08763588786772
 30
0.0
 10
-61.39979462514532
 20
-19.38129607946337
 30
0.0
 10
-60.99712730211218
 20
-19.75836949924157
 30
0.0
 10
-60.66991856787882
 20
-20.19576393804005
 30
0.0
 10
-60.43688534865706
 20
-20.6656323786878
 30
0.0
 10
-60.30983201949989
 20
-21.13691053183745
 30
0.0
 10
-60.28992187617833
 20
-21.58095247333416
 30
0.0
 10
-60.37677741901414
 20
-21.96726463023901
 30
0.0
 10
-60.51047325790245
 20
-22.24189888816712
 30
0.0
 10
-60.64442386075319
 20
-22.3541765458423
 30
0.0
 10
-60.68917998529356
 20
-22.39169121709473
 30
0.0
  0
LWPOLYLINE
  5
2A4
330
292
100
AcDbEntity
  8
0
  6
Continuous
 62
     7
370
    15
100
AcDbPolyline
 90
       12
 70
   128
 43
0.0
 10
35.898213533
 20
-34.0807002972
 10
35.2948552926
 20
-34.5797331964
 10
34.5597460659
 20
-35.0294619733
 10
33.7078505571
 20
-35.4207314467
 10
32.7565109019
 20
-35.7455764987
 10
31.7250936323
 20
-35.9973842206
 10
30.6345954295
 20
-36.1710285334
 10
29.5072156922
 20
-36.2629745397
 10
28.3659046209
 20
-36.2713504839
 10
27.2338960175
 20
-36.195985856
 10
26.1342343129
 20
-36.0384148624
 10
25.0893054481
 20
-35.8018451941
  0
LWPOLYLINE
  5
2A6
330
292
100
AcDbEntity
  8
0
  6
Continuous
 62
     7
370
    15
100
AcDbPolyline
 90
       12
 70
   128
 43
0.0
 10
25.0893054481
 20
-50.3736893061
 10
26.1342343129
 20
-50.6102589743
 10
27.2338960175
 20
-50.7678299679
 10
28.3659046209
 20
-50.8431945958
 10
29.5072156922
 20
-50.8348186516
 10
30.6345954295
 20
-50.7428726454
 10
31.7250936323
 20
-50.5692283325
 10
32.7565109019
 20
-50.3174206106
 10
33.7078505571
 20
-49.9925755587
 10
34.5597460659
 20
-49.6013060852
 10
35.2948552926
 20
-49.1515773084
 10
35.898213533
 20
-48.6525444091
  0
LWPOLYLINE
  5
2A8
330
292
100
AcDbEntity
  8
0
  6
Continuous
 62
     7
370
    15
100
AcDbPolyline
 90
       10
 70
   128
 43
0.0
 10
-98.533340962
 20
3.7406666458
 10
-98.9389679936
 20
3.244166604
 10
-99.1710346706
 20
2.7189320881
 10
-99.2224897643
 20
2.1809220833
 10
-99.091769838
 20
1.6464837513
 10
-98.7828467502
 20
1.1318557304
 10
-98.3051069728
 20
0.6526747325
 10
-97.6730663871
 20
0.2235004299
 10
-96.9059292265
 20
-0.1426269336
 10
-96.0270045655
 20
-0.4345827631
  0
LWPOLYLINE
  5
2AC
330
292
100
AcDbEntity
  8
0
  6
Continuous
 62
     7
370
    15
100
AcDbPolyline
 90
       10
 70
   128
 43
0.0
 10
98.533340962
 20
30.5460253822
 10
98.9389679936
 20
31.0425254241
 10
99.1710346706
 20
31.56775994
 10
99.2224897643
 20
32.1057699448
 10
99.091769838
 20
32.6402082768
 10
98.7828467502
 20
33.1548362977
 10
98.3051069728
 20
33.6340172956
 10
97.6730663871
 20
34.0631915982
 10
96.9059292265
 20
34.4293189616
 10
96.0270045655
 20
34.7212747912
  0
LWPOLYLINE
  5
2B0
330
292
100
AcDbEntity
  8
0
  6
Continuous
 62
     7
370
    15
100
AcDbPolyline
 90
       20
 70
   128
 43
0.0
 10
-27.1522365237
 20
-15.9795797906
 10
-26.7637171683
 20
-15.5100642155
 10
-26.5305433333
 20
-15.0140164712
 10
-26.4590753929
 20
-14.5049674471
 10
-26.5512628064
 20
-13.9968026736
 10
-26.8045909414
 20
-13.503383561
 10
-27.2121496668
 20
-13.0381692965
 10
-27.7628218429
 20
-12.6138497124
 10
-28.4415865683
 20
-12.241999141
 10
-29.2299289107
 20
-11.9327606964
 10
-30.1063449461
 20
-11.6945695973
 10
-31.0469283295
 20
-11.533923076
 10
-32.0260223984
 20
-11.4552031508
 10
-33.0169200187
 20
-11.460557096
 10
-33.9925920865
 20
-11.54983887
 10
-34.9264248111
 20
-11.7206130987
 10
-35.7929456702
 20
-11.9682215064
 10
-36.5685182335
 20
-12.2859099811
 10
-37.2319869033
 20
-12.6650128094
 10
-37.7652539838
 20
-13.0951890544
  0
LWPOLYLINE
  5
2B3
330
292
100
AcDbEntity
  8
0
  6
Continuous
 62
     7
370
    15
100
AcDbPolyline
 90
       35
 70
   128
 43
0.0
 10
92.6247344609
 20
33.6077250567
 10
93.3202770848
 20
33.3740714501
 10
93.9206164561
 20
33.0785714787
 10
94.4053087375
 20
32.7312880397
 10
94.7578483147
 20
32.3440474541
 10
94.9662298752
 20
31.9300367355
 10
95.0233572349
 20
31.5033545225
 10
94.9272849901
 20
31.0785309661
 10
94.6812847658
 20
30.6700329229
 10
94.2937338046
 20
30.2917713039
 10
93.7778296898
 20
29.9566273548
 10
93.1511409171
 20
29.6760140009
 10
92.4350086211
 20
29.4594871934
 10
91.6538198283
 20
29.314420493
 10
90.834176986
 20
29.2457539721
 10
90.0039920482
 20
29.2558259869
 10
89.1915359672
 20
29.3442935469
 10
88.4244759605
 20
29.5081439955
 10
87.7289333366
 20
29.7417976021
 10
87.1285939653
 20
30.0372975735
 10
86.6439016839
 20
30.3845810125
 10
86.2913621067
 20
30.7718215981
 10
86.0829805462
 20
31.1858323167
 10
86.0258531865
 20
31.6125145297
 10
86.1219254313
 20
32.0373380861
 10
86.3679256556
 20
32.4458361293
 10
86.7554766168
 20
32.8240977483
 10
87.2713807316
 20
33.1592416974
 10
87.8980695043
 20
33.4398550513
 10
88.6142018003
 20
33.6563818588
 10
89.3953905931
 20
33.8014485593
 10
90.2150334354
 20
33.8701150801
 10
91.0452183732
 20
33.8600430653
 10
91.8576744542
 20
33.7715755053
 10
92.6247344609
 20
33.6077250567
  0
LWPOLYLINE
  5
2B4
330
292
100
AcDbEntity
  8
0
  6
Continuous
 62
     7
370
    15
100
AcDbPolyline
 90
       35
 70
   128
 43
0.0
 10
30.0875523443
 20
-27.430481855
 10
30.7830949682
 20
-27.6641354617
 10
31.3834343395
 20
-27.9596354331
 10
31.8681266209
 20
-28.3069188721
 10
32.2206661981
 20
-28.6941594577
 10
32.4290477586
 20
-29.1081701762
 10
32.4861751183
 20
-29.5348523892
 10
32.3901028734
 20
-29.9596759457
 10
32.1441026491
 20
-30.3681739888
 10
31.756551688
 20
-30.7464356079
 10
31.2406475732
 20
-31.0815795569
 10
30.6139588005
 20
-31.3621929108
 10
29.8978265045
 20
-31.5787197184
 10
29.1166377117
 20
-31.7237864188
 10
28.2969948694
 20
-31.7924529396
 10
27.4668099316
 20
-31.7823809249
 10
26.6543538506
 20
-31.6939133649
 10
25.8872938439
 20
-31.5300629163
 10
25.19175122
 20
-31.2964093096
 10
24.5914118487
 20
-31.0009093383
 10
24.1067195672
 20
-30.6536258993
 10
23.7541799901
 20
-30.2663853136
 10
23.5457984296
 20
-29.8523745951
 10
23.4886710699
 20
-29.4256923821
 10
23.5847433147
 20
-29.0008688257
 10
23.830743539
 20
-28.5923707825
 10
24.2182945001
 20
-28.2141091635
 10
24.734198615
 20
-27.8789652144
 10
25.3608873877
 20
-27.5983518605
 10
26.0770196836
 20
-27.381825053
 10
26.8582084765
 20
-27.2367583525
 10
27.6778513188
 20
-27.1680918317
 10
28.5080362566
 20
-27.1781638465
 10
29.3204923375
 20
-27.2666314065
 10
30.0875523443
 20
-27.430481855
  0
LWPOLYLINE
  5
2B5
330
292
100
AcDbEntity
  8
0
  6
Continuous
 62
     7
370
    15
100
AcDbPolyline
 90
       35
 70
   128
 43
0.0
 10
-88.4244759605
 20
4.7785480326
 10
-87.7289333366
 20
4.5448944259
 10
-87.1285939653
 20
4.2493944546
 10
-86.6439016839
 20
3.9021110156
 10
-86.2913621067
 20
3.51487043
 10
-86.0829805462
 20
3.1008597114
 10
-86.0258531865
 20
2.6741774984
 10
-86.1219254313
 20
2.249353942
 10
-86.3679256556
 20
1.8408558988
 10
-86.7554766168
 20
1.4625942798
 10
-87.2713807316
 20
1.1274503307
 10
-87.8980695043
 20
0.8468369768
 10
-88.6142018003
 20
0.6303101693
 10
-89.3953905931
 20
0.4852434688
 10
-90.2150334354
 20
0.416576948
 10
-91.0452183732
 20
0.4266489628
 10
-91.8576744542
 20
0.5151165228
 10
-92.6247344609
 20
0.6789669714
 10
-93.3202770848
 20
0.912620578
 10
-93.9206164561
 20
1.2081205494
 10
-94.4053087375
 20
1.5554039884
 10
-94.7578483147
 20
1.942644574
 10
-94.9662298752
 20
2.3566552925
 10
-95.0233572349
 20
2.7833375055
 10
-94.9272849901
 20
3.208161062
 10
-94.6812847658
 20
3.6166591052
 10
-94.2937338046
 20
3.9949207242
 10
-93.7778296898
 20
4.3300646732
 10
-93.1511409171
 20
4.6106780271
 10
-92.4350086211
 20
4.8272048347
 10
-91.6538198283
 20
4.9722715351
 10
-90.834176986
 20
5.040938056
 10
-90.0039920482
 20
5.0308660412
 10
-89.1915359672
 20
4.9423984812
 10
-88.4244759605
 20
4.7785480326
  0
LWPOLYLINE
  5
2B6
330
292
100
AcDbEntity
  8
0
  6
Continuous
 62
     7
370
    15
100
AcDbPolyline
 90
       35
 70
   128
 43
0.0
 10
-25.8872938439
 20
65.8167549444
 10
-25.19175122
 20
65.5831013377
 10
-24.5914118487
 20
65.2876013663
 10
-24.1067195672
 20
64.9403179273
 10
-23.7541799901
 20
64.5530773417
 10
-23.5457984296
 20
64.1390666232
 10
-23.4886710699
 20
63.7123844102
 10
-23.5847433147
 20
63.2875608538
 10
-23.830743539
 20
62.8790628106
 10
-24.2182945001
 20
62.5008011916
 10
-24.734198615
 20
62.1656572425
 10
-25.3608873877
 20
61.8850438886
 10
-26.0770196836
 20
61.668517081
 10
-26.8582084765
 20
61.5234503806
 10
-27.6778513188
 20
61.4547838598
 10
-28.5080362566
 20
61.4648558745
 10
-29.3204923375
 20
61.5533234346
 10
-30.0875523443
 20
61.7171738831
 10
-30.7830949682
 20
61.9508274898
 10
-31.3834343395
 20
62.2463274612
 10
-31.8681266209
 20
62.5936109002
 10
-32.2206661981
 20
62.9808514858
 10
-32.4290477586
 20
63.3948622043
 10
-32.4861751183
 20
63.8215444173
 10
-32.3901028734
 20
64.2463679738
 10
-32.1441026491
 20
64.6548660169
 10
-31.756551688
 20
65.0331276359
 10
-31.2406475732
 20
65.368271585
 10
-30.6139588005
 20
65.6488849389
 10
-29.8978265045
 20
65.8654117465
 10
-29.1166377117
 20
66.0104784469
 10
-28.2969948694
 20
66.0791449677
 10
-27.4668099316
 20
66.069072953
 10
-26.6543538506
 20
65.980605393
 10
-25.8872938439
 20
65.8167549444
  0
LWPOLYLINE
  5
2B7
330
292
100
AcDbEntity
  8
0
  6
Continuous
 62
     7
370
    15
100
AcDbPolyline
 90
       90
 70
   128
 43
0.0
 10
14.2342093624
 20
31.0363707216
 10
16.1015232815
 20
30.4846311664
 10
17.8886202216
 20
29.8664259998
 10
19.5865969556
 20
29.1848350886
 10
21.1869942488
 20
28.4432540845
 10
22.6818390023
 20
27.6453775069
 10
24.0636839749
 20
26.7951803366
 10
25.3256448844
 20
25.8968982133
 10
26.4614347049
 20
24.9550063332
 10
27.4653949889
 20
23.9741971543
 10
28.3325240565
 20
22.9593570186
 10
29.0585019145
 20
21.9155418087
 10
29.6397117776
 20
20.8479517594
 10
30.0732580875
 20
19.7619055506
 10
30.3569809384
 20
18.6628138099
 10
30.4894668373
 20
17.556152157
 10
30.470055746
 20
16.4474339248
 10
30.2988443697
 20
15.3421826915
 10
29.9766856748
 20
14.2459047634
 10
29.5051846398
 20
13.1640617418
 10
28.8866902591
 20
12.1020433143
 10
28.1242838405
 20
11.0651404032
 10
27.2217636545
 20
10.0585188067
 10
26.1836260113
 20
9.0871934631
 10
25.0150428604
 20
8.1560034662
 10
23.7218360243
 20
7.2695879578
 10
22.3104481943
 20
6.4323630153
 10
20.7879108337
 20
5.6484996514
 10
19.1618091469
 20
4.9219030339
 10
17.4402442909
 20
4.2561930305
 10
15.6317930151
 20
3.654686175
 10
13.7454649327
 20
3.1203791444
 10
11.7906576355
 20
2.6559338293
 10
9.7771098751
 20
2.263664073
 10
7.714853045
 20
1.9455241437
 10
5.6141612052
 20
1.7030989984
 10
3.4854998966
 20
1.5375963871
 10
1.3394740029
 20
1.4498408355
 10
-0.813225083
 20
1.4402695372
 10
-2.9618727223
 20
1.5089301761
 10
-5.0957644608
 20
1.6554806882
 10
-7.2042693571
 20
1.8791909663
 10
-9.2768829458
 20
2.1789464971
 10
-11.3032795703
 20
2.5532539135
 10
-13.2733638245
 20
3.0002484349
 10
-15.1773208479
 20
3.5177031569
 10
-17.0056652222
 20
4.1030401463
 10
-18.7492882278
 20
4.7533432836
 10
-20.3995032226
 20
5.4653727913
 10
-21.9480889184
 20
6.2355813741
 10
-23.3873303393
 20
7.0601318917
 10
-24.7100572568
 20
7.9349164749
 10
-25.9096799121
 20
8.8555769908
 10
-26.9802218453
 20
9.8175267551
 10
-27.9163496704
 20
10.8159733824
 10
-28.7133996457
 20
11.845942662
 10
-29.3674009083
 20
12.9023033385
 10
-29.8750952568
 20
13.9797926764
 10
-30.2339533835
 20
15.0730426778
 10
-30.4421874752
 20
16.1766068263
 10
-30.4987601203
 20
17.2849872208
 10
-30.4033894765
 20
18.392661966
 10
-30.1565506757
 20
19.4941126819
 10
-29.7594734564
 20
20.5838519965
 10
-29.2141360373
 20
21.6564508834
 10
-28.5232552619
 20
22.7065657089
 10
-27.6902730636
 20
23.7289648536
 10
-26.7193393177
 20
24.7185547766
 10
-25.6152911674
 20
25.6704053905
 10
-24.383628925
 20
26.5797746236
 10
-23.0304886698
 20
27.442132044
 10
-21.5626116785
 20
28.2531814305
 10
-19.9873108405
 20
29.0088821757
 10
-18.3124342253
 20
29.7054694167
 10
-16.5463259839
 20
30.3394727907
 10
-14.6977847787
 20
30.9077337249
 10
-12.7760199491
 20
31.407421172
 10
-10.7906056308
 20
31.836045714
 10
-8.751433058
 20
32.1914719653
 10
-6.6686612859
 20
32.47192921
 10
-4.5526665787
 20
32.6760202243
 10
-2.4139907157
 20
32.802728237
 10
-0.2632884723
 20
32.8514219951
 10
1.888725461
 20
32.8218589088
 10
4.0313298591
 20
32.71418626
 10
6.1538503746
 20
32.5289404682
 10
8.245712717
 20
32.2670444189
 10
10.2964953335
 20
31.9298028648
 10
12.2959813282
 20
31.5188959265
 10
14.2342093624
 20
31.0363707216
  0
LWPOLYLINE
  5
2C3
330
292
100
AcDbEntity
  8
0
  6
Continuous
 62
     7
370
    15
100
AcDbPolyline
 90
       15
 70
   128
 43
0.0
 10
29.8542046498
 20
-28.0868200088
 10
29.128169301
 20
-27.934257681
 10
28.3582957153
 20
-27.8575780606
 10
27.5741697027
 20
-27.8597279024
 10
26.8059247861
 20
-27.9406245892
 10
26.083084187
 20
-28.0971593068
 10
25.4334262641
 20
-28.3233165136
 10
24.8819170071
 20
-28.6104051151
 10
24.4497506074
 20
-28.9473924573
 10
24.1535349774
 20
-29.3213283056
 10
24.0046535177
 20
-29.7178425152
 10
24.0088276592
 20
-30.1216972672
 10
24.1658969921
 20
-30.51737265
 10
24.4698254299
 20
-30.8896630807
 10
24.6064885242
 20
-31.0097951212
  0
LWPOLYLINE
  5
2C4
330
292
100
AcDbEntity
  8
0
  6
Continuous
 62
     7
370
    15
100
AcDbPolyline
 90
       10
 70
   128
 43
0.0
 10
31.3683576638
 20
-31.0097951213
 10
31.5250955808
 20
-30.8703196148
 10
31.8213112108
 20
-30.4963837664
 10
31.9701926705
 20
-30.0998695569
 10
31.966018529
 20
-29.6960148049
 10
31.8089491961
 20
-29.300339422
 10
31.5050207582
 20
-28.9280489913
 10
31.0659130149
 20
-28.5934504254
 10
30.5085006303
 20
-28.3094021593
 10
29.8542046498
 20
-28.0868200088
  0
LWPOLYLINE
  5
2CD
330
292
100
AcDbEntity
  8
0
  6
Continuous
 62
     7
370
    15
100
AcDbPolyline
 90
       40
 70
   128
 43
0.0
 10
14.0008616679
 20
30.3800325678
 10
12.0944078638
 20
30.8546475234
 10
10.1277003281
 20
31.2588182825
 10
8.1105370987
 20
31.5905312865
 10
6.0529675815
 20
31.848133958
 10
3.9652424843
 20
32.0303429334
 10
1.8577627485
 20
32.1362504569
 10
-0.2589722678
 20
32.1653289024
 10
-2.3744170974
 20
32.1174334026
 10
-4.4780327004
 20
31.9928025705
 10
-6.5593389697
 20
31.7920573105
 10
-8.6079669423
 20
31.5161977256
 10
-10.6137104565
 20
31.1665981342
 10
-12.5665769991
 20
30.7450002239
 10
-14.4568374873
 20
30.2535043744
 10
-16.2750747382
 20
29.6945591932
 10
-18.0122303855
 20
29.0709493171
 10
-19.6596500071
 20
28.3857815391
 10
-21.2091262412
 20
27.6424693307
 10
-22.6529396752
 20
26.8447158358
 10
-23.9838973033
 20
25.9964954223
 10
-25.1953683614
 20
25.1020338816
 10
-26.2813173617
 20
24.165787376
 10
-27.2363341609
 20
23.1924202387
 10
-28.0556609134
 20
22.1867817356
 10
-28.7352157744
 20
21.1538819073
 10
-29.2716132358
 20
20.0988666088
 10
-29.6621809925
 20
19.0269918731
 10
-29.9049732556
 20
17.9435977262
 10
-29.9987804462
 20
16.8540815835
 10
-29.9431352216
 20
15.7638713594
 10
-29.7383148034
 20
14.6783984264
 10
-29.3853395969
 20
13.6030705561
 10
-28.8859681065
 20
12.5432449779
 10
-28.2426881761
 20
11.5042016895
 10
-27.4587045938
 20
10.4911171523
 10
-26.5379231265
 20
9.5090385024
 10
-25.484931061
 20
8.5628584064
 10
-24.304974351
 20
7.6572906858
 10
-24.1781654366
 20
7.5677047695
  0
LWPOLYLINE
  5
2CE
330
292
100
AcDbEntity
  8
0
  6
Continuous
 62
     7
370
    15
100
AcDbPolyline
 90
       26
 70
   128
 43
0.0
 10
24.1781654365
 20
7.5677047694
 10
24.6049601906
 20
7.8747533002
 10
25.7543862407
 20
8.7906778873
 10
26.775505234
 20
9.7460798647
 10
27.6632300071
 20
10.7361994678
 10
28.4131379598
 20
11.7561039705
 10
29.0214930884
 20
12.8007122598
 10
29.4852645982
 20
13.8648201499
 10
29.802142003
 20
14.9431263088
 10
29.9705466354
 20
16.0302586693
 10
29.9896395121
 20
17.1208011929
 10
29.8593255132
 20
18.2093208514
 10
29.5802538566
 20
19.2903946947
 10
29.1538148632
 20
20.3586368673
 10
28.5821330306
 20
21.4087254404
 10
27.868056449
 20
22.4354289256
 10
27.015142612
 20
23.4336323377
 10
26.0276406934
 20
24.3983626776
 10
24.9104703781
 20
25.3248137072
 10
23.6691973524
 20
26.2083698941
 10
22.3100055761
 20
27.0446294058
 10
20.8396664742
 20
27.8294260396
 10
19.2655052022
 20
28.558849978
 10
17.5953641524
 20
29.2292672677
 10
15.8375638835
 20
29.8373379234
 10
14.0008616679
 20
30.3800325678
  0
LWPOLYLINE
  5
2CF
330
292
100
AcDbEntity
  8
0
  6
Continuous
 62
     7
370
    15
100
AcDbPolyline
 90
       42
 70
   128
 43
0.0
 10
29.6488311641
 20
14.3575522868
 10
29.3853395969
 20
15.1120340174
 10
28.8859681065
 20
16.1718595956
 10
28.2426881761
 20
17.210902884
 10
27.4587045938
 20
18.2239874212
 10
26.5379231265
 20
19.2060660711
 10
25.484931061
 20
20.1522461671
 10
24.304974351
 20
21.0578138877
 10
23.0039314813
 20
21.91825774
 10
21.588284182
 20
22.729291036
 10
20.0650851369
 20
23.4868732486
 10
18.441922847
 20
24.1872301414
 10
16.7268838251
 20
24.8268725715
 10
14.9285123094
 20
25.4026138726
 10
13.0557676962
 20
25.9115857303
 10
11.1179799052
 20
26.3512524727
 10
9.1248028975
 20
26.7194237019
 10
7.0861665807
 20
27.0142652076
 10
5.0122273385
 20
27.2343081041
 10
2.9133174318
 20
27.3784561488
 10
0.7998935242
 20
27.4459912035
 10
-1.3175154127
 20
27.4365768117
 10
-3.428360554
 20
27.3502598757
 10
-5.5221257756
 20
27.1874704219
 10
-7.5883800443
 20
26.9490194594
 10
-9.6168293853
 20
26.6360949387
 10
-11.5973681661
 20
26.2502558342
 10
-13.520129442
 20
25.7934243767
 10
-15.3755341132
 20
25.2678764777
 10
-17.1543386468
 20
24.6762303904
 10
-18.8476811281
 20
24.0214336658
 10
-20.4471254102
 20
23.3067484682
 10
-21.9447031419
 20
22.5357353233
 10
-23.3329534665
 20
21.7122353799
 10
-24.6049601906
 20
20.8403512733
 10
-25.7543862407
 20
19.9244266862
 10
-26.775505234
 20
18.9690247088
 10
-27.6632300071
 20
17.9789051057
 10
-28.4131379598
 20
16.9590006031
 10
-29.0214930884
 20
15.9143923137
 10
-29.4852645982
 20
14.8502844236
 10
-29.6488311641
 20
14.3575522868
  0
LWPOLYLINE
  5
2D0
330
292
100
AcDbEntity
  8
0
  6
Continuous
 62
     7
370
    15
100
AcDbPolyline
 90
       24
 70
   128
 43
0.0
 10
-8.1671693063
 20
4.0289345908
 10
-6.7042629414
 20
3.6748212918
 10
-5.184158169
 20
3.3917384018
 10
-3.619823987
 20
3.1821010842
 10
-2.024606743
 20
3.0476978907
 10
-0.4121162682
 20
2.9896755019
 10
1.2038902373
 20
3.0085289443
 10
2.8096255759
 20
3.1040973672
 10
4.3913901796
 20
3.2755654143
 10
5.9356889907
 20
3.5214701807
 10
7.4293465962
 20
3.8397136937
 10
8.859619636
 20
4.2275808119
 10
10.2143055249
 20
4.6817623897
 10
11.4818465606
 20
5.1983835101
 10
12.6514285298
 20
5.7730365438
 10
13.7130729715
 20
6.4008187538
 10
14.6577223097
 20
7.0763741235
 10
15.4773171294
 20
7.7939390529
 10
16.1648649364
 20
8.5473915308
 10
16.7144998154
 20
9.3303033664
 10
17.1215324753
 20
10.1359950321
 10
17.382490257
 20
10.9575926504
 10
17.4951467608
 20
11.7880866404
 10
17.5
 20
12.0003422098
  0
LWPOLYLINE
  5
2D1
330
292
100
AcDbEntity
  8
0
  6
Continuous
 62
     7
370
    15
100
AcDbPolyline
 90
       13
 70
   128
 43
0.0
 10
-17.5
 20
12.0003422098
 10
-17.458540841
 20
11.3802928996
 10
-17.2729848064
 20
10.553278062
 10
-16.9400617558
 20
9.7386090656
 10
-16.4626120712
 20
8.9432363788
 10
-15.8447091849
 20
8.1739458411
 10
-15.0916248265
 20
7.4373007681
 10
-14.2097840463
 20
6.7395859557
 10
-13.2067103989
 20
6.0867540609
 10
-12.0909617548
 20
5.484374815
 10
-10.8720572882
 20
4.9375875055
 10
-9.5603962623
 20
4.4510571289
 10
-8.1671693063
 20
4.0289345908
  0
LWPOLYLINE
  5
2D2
330
292
100
AcDbEntity
  8
0
  6
Continuous
 62
     7
370
    15
100
AcDbPolyline
 90
       12
 70
   128
 43
0.0
 10
-96.9603953434
 20
-2.6313517277
 10
-97.9293196299
 20
-2.3205992611
 10
-98.8025148338
 20
-1.9419900202
 10
-99.5622052189
 20
-1.5032313973
 10
-100.1929256797
 20
-1.0132552527
 10
-100.6818365664
 20
-0.4820360877
 10
-101.0189850634
 20
0.0796120073
 10
-101.1975077994
 20
0.6602554969
 10
-101.2137705664
 20
1.248074154
 10
-101.0674423013
 20
1.8311016858
 10
-100.7615018257
 20
2.3974693332
 10
-100.3021772053
 20
2.9356474842
  0
LWPOLYLINE
  5
2D3
330
292
100
AcDbEntity
  8
0
  6
Continuous
 62
     7
370
    15
100
AcDbPolyline
 90
       11
 70
   128
 43
0.0
 10
-96.4253539971
 20
-1.1264384258
 10
-97.3341878193
 20
-0.8302992492
 10
-98.1418849153
 20
-0.4645815638
 10
-98.8285571022
 20
-0.0382905526
 10
-99.3772962317
 20
0.4380770849
 10
-99.7745905253
 20
0.9527915965
 10
-100.010657279
 20
1.4931790026
 10
-100.0796837458
 20
2.0459331719
 10
-99.979970265
 20
2.5974434623
 10
-99.7139721135
 20
3.13412986
 10
-99.2882390484
 20
3.6427773648
  0
LWPOLYLINE
  5
2D4
330
292
100
AcDbEntity
  8
0
  6
Continuous
 62
     7
370
    15
100
AcDbPolyline
 90
        9
 70
   128
 43
0.0
 10
-101.2268322319
 20
-13.5591237853
 10
-101.1975077994
 20
-13.911588615
 10
-101.0189850634
 20
-14.4922321046
 10
-100.6818365664
 20
-15.0538801996
 10
-100.1929256797
 20
-15.5850993646
 10
-99.5622052189
 20
-16.0750755092
 10
-98.8025148338
 20
-16.5138341321
 10
-97.9293196299
 20
-16.8924433731
 10
-96.9603953434
 20
-17.2031958397
  0
LWPOLYLINE
  5
2D5
330
292
100
AcDbEntity
  8
0
  6
Continuous
 62
     7
370
    15
100
AcDbPolyline
 90
       15
 70
   128
 43
0.0
 10
-88.657823655
 20
4.1222098788
 10
-89.3838590037
 20
4.2747722067
 10
-90.1537325895
 20
4.3514518271
 10
-90.9378586021
 20
4.3493019853
 10
-91.7061035186
 20
4.2684052984
 10
-92.4289441178
 20
4.1118705809
 10
-93.0786020407
 20
3.8857133741
 10
-93.6301112977
 20
3.5986247726
 10
-94.0622776974
 20
3.2616374304
 10
-94.3584933274
 20
2.887701582
 10
-94.5073747871
 20
2.4911873725
 10
-94.5032006456
 20
2.0873326205
 10
-94.3461313127
 20
1.6916572376
 10
-94.0422028749
 20
1.319366807
 10
-93.90553978
 20
1.199234766
  0
LWPOLYLINE
  5
2D6
330
292
100
AcDbEntity
  8
0
  6
Continuous
 62
     7
370
    15
100
AcDbPolyline
 90
       10
 70
   128
 43
0.0
 10
-87.1436706413
 20
1.1992347661
 10
-86.986932724
 20
1.3387102729
 10
-86.690717094
 20
1.7126461212
 10
-86.5418356343
 20
2.1091603308
 10
-86.5460097758
 20
2.5130150828
 10
-86.7030791087
 20
2.9086904657
 10
-87.0070075465
 20
3.2809808963
 10
-87.4461152899
 20
3.6155794623
 10
-88.0035276745
 20
3.8996277283
 10
-88.657823655
 20
4.1222098788
  0
LWPOLYLINE
  5
2DA
330
292
100
AcDbEntity
  8
0
  6
Continuous
 62
     7
370
    15
100
AcDbPolyline
 90
       69
 70
   128
 43
0.0
 10
-8.1671693063
 20
9.171938395
 10
-6.7042629414
 20
8.817825096
 10
-5.184158169
 20
8.534742206
 10
-3.619823987
 20
8.3251048884
 10
-2.024606743
 20
8.1907016949
 10
-0.4121162682
 20
8.1326793061
 10
1.2038902373
 20
8.1515327486
 10
2.8096255759
 20
8.2471011714
 10
4.3913901796
 20
8.4185692185
 10
5.9356889907
 20
8.6644739849
 10
7.4293465962
 20
8.9827174979
 10
8.859619636
 20
9.3705846161
 10
10.2143055249
 20
9.8247661939
 10
11.4818465606
 20
10.3413873143
 10
12.6514285298
 20
10.916040348
 10
13.7130729715
 20
11.543822558
 10
14.6577223097
 20
12.2193779277
 10
15.4773171294
 20
12.9369428571
 10
16.1648649364
 20
13.690395335
 10
16.7144998154
 20
14.4733071706
 10
17.1215324753
 20
15.2789988363
 10
17.382490257
 20
16.1005964547
 10
17.4951467608
 20
16.9310904446
 10
17.458540841
 20
17.7633953243
 10
17.2729848064
 20
18.5904101618
 10
16.9400617558
 20
19.4050791583
 10
16.4626120712
 20
20.2004518451
 10
15.8447091849
 20
20.9697423828
 10
15.0916248265
 20
21.7063874558
 10
14.2097840463
 20
22.4041022681
 10
13.2067103989
 20
23.056934163
 10
12.0909617548
 20
23.6593134089
 10
10.8720572882
 20
24.2061007184
 10
9.5603962623
 20
24.692631095
 10
8.1671693063
 20
25.1147536331
 10
6.7042629414
 20
25.4688669321
 10
5.184158169
 20
25.751949822
 10
3.619823987
 20
25.9615871396
 10
2.024606743
 20
26.0959903332
 10
0.4121162682
 20
26.154012722
 10
-1.2038902373
 20
26.1351592795
 10
-2.8096255759
 20
26.0395908567
 10
-4.3913901796
 20
25.8681228096
 10
-5.9356889907
 20
25.6222180432
 10
-7.4293465962
 20
25.3039745301
 10
-8.859619636
 20
24.916107412
 10
-10.2143055249
 20
24.4619258342
 10
-11.4818465606
 20
23.9453047138
 10
-12.6514285298
 20
23.3706516801
 10
-13.7130729715
 20
22.7428694701
 10
-14.6577223097
 20
22.0673141003
 10
-15.4773171294
 20
21.349749171
 10
-16.1648649364
 20
20.5962966931
 10
-16.7144998154
 20
19.8133848574
 10
-17.1215324753
 20
19.0076931918
 10
-17.382490257
 20
18.1860955734
 10
-17.4951467608
 20
17.3556015834
 10
-17.458540841
 20
16.5232967038
 10
-17.2729848064
 20
15.6962818662
 10
-16.9400617558
 20
14.8816128698
 10
-16.4626120712
 20
14.086240183
 10
-15.8447091849
 20
13.3169496453
 10
-15.0916248265
 20
12.5803045723
 10
-14.2097840463
 20
11.8825897599
 10
-13.2067103989
 20
11.2297578651
 10
-12.0909617548
 20
10.6273786192
 10
-10.8720572882
 20
10.0805913097
 10
-9.5603962623
 20
9.5940609331
 10
-8.1671693063
 20
9.171938395
  0
LWPOLYLINE
  5
2DB
330
292
100
AcDbEntity
  8
0
  6
Continuous
 62
     7
370
    15
100
AcDbPolyline
 90
       60
 70
   128
 43
0.0
 10
6.3003877506
 20
23.2927176059
 10
7.5338012417
 20
22.9129642488
 10
8.6818537543
 20
22.4678388116
 10
9.7315373949
 20
21.9623847435
 10
10.6709588282
 20
21.402329041
 10
11.4894740341
 20
20.794017359
 10
12.1778089083
 20
20.1443421119
 10
12.7281643415
 20
19.4606643799
 10
13.1343045868
 20
18.7507305049
 10
13.3916279129
 20
18.0225843213
 10
13.4972187438
 20
17.2844760163
 10
13.4498806931
 20
16.544768652
 10
13.2501501198
 20
15.8118434085
 10
12.9002900512
 20
15.0940046214
 10
12.4042645416
 20
14.3993856913
 10
11.7676937582
 20
13.735856928
 10
10.9977903025
 20
13.1109363776
 10
10.1032774881
 20
12.5317046397
 10
9.0942905027
 20
12.0047246413
 10
7.982261572
 20
11.5359672763
 10
6.7797904282
 20
11.130743753
 10
5.5005015497
 20
10.7936454159
 10
4.1588897908
 20
10.5284917237
 10
2.7701561488
 20
10.3382869738
 10
1.3500355307
 20
10.225186262
 10
-0.0853815294
 20
10.1904710645
 10
-1.5198311827
 20
10.2345347185
 10
-2.9370605414
 20
10.356877965
 10
-4.3210118305
 20
10.5561146063
 10
-5.656004329
 20
10.8299872115
 10
-6.9269120385
 20
11.1753926947
 10
-8.1193350667
 20
11.5884174737
 10
-9.2197627843
 20
12.0643818126
 10
-10.2157269055
 20
12.5978928454
 10
-11.0959427588
 20
13.1829056789
 10
-11.850437147
 20
13.8127918839
 10
-12.4706613471
 20
14.480414598
 10
-12.9495879712
 20
15.1782093891
 10
-13.2817905891
 20
15.8982699634
 10
-13.4635052125
 20
16.6324377468
 10
-13.4926729421
 20
17.3723943251
 10
-13.3689632959
 20
18.1097556945
 10
-13.0937779536
 20
18.836167256
 10
-12.670234875
 20
19.5433984765
 10
-12.1031329726
 20
20.2234361435
 10
-11.3988977374
 20
20.8685751586
 10
-10.565508436
 20
21.471505839
 10
-9.6124077024
 20
22.0253967392
 10
-8.5503945485
 20
22.5239720538
 10
-7.3915020079
 20
22.9615827255
 10
-6.1488607959
 20
23.3332704503
 10
-4.8365505343
 20
23.6348238579
 10
-3.4694402224
 20
23.8628262277
 10
-2.0630197666
 20
24.0146942017
 10
-0.6332244724
 20
24.088707055
 10
0.803745508
 20
24.0840261926
 10
2.2316087307
 20
24.0007046504
 10
3.6341869348
 20
23.8396864947
 10
4.9955883487
 20
23.6027961257
 10
6.3003877506
 20
23.2927176059
  0
LWPOLYLINE
  5
2DC
330
292
100
AcDbEntity
  8
0
  6
Continuous
 62
     7
370
    15
100
AcDbPolyline
 90
       26
 70
   128
 43
0.0
 10
6.0670400561
 20
22.6363794521
 10
4.7883833578
 20
22.9395122988
 10
3.4535872428
 20
23.1696656438
 10
2.0783009749
 20
23.3241411496
 10
0.6786485284
 20
23.4011277322
 10
-0.7289604517
 20
23.3997227942
 10
-2.1280230369
 20
23.3199428073
 10
-3.5021364978
 20
23.1627231189
 10
-4.8351906102
 20
22.9299069861
 10
-6.1115565336
 20
22.6242239651
 10
-7.3162700444
 20
22.2492579099
 10
-8.4352069784
 20
21.8094049546
 10
-9.4552488228
 20
21.3098219731
 10
-10.3644365199
 20
20.7563661189
 10
-11.1521106751
 20
20.155526156
 10
-11.809036529
 20
19.5143463836
 10
-12.3275122268
 20
18.8403440482
 10
-12.7014591148
 20
18.1414212109
 10
-12.9264930078
 20
17.4257721031
 10
-12.9999755891
 20
16.7017870562
 10
-12.9210453426
 20
15.9779541329
 10
-12.6906276533
 20
15.2627596125
 10
-12.3114239578
 20
14.5645884967
 10
-11.787880073
 20
13.8916262036
 10
-11.126134072
 20
13.2517626007
 10
-10.5862148531
 20
12.8286284101
  0
LWPOLYLINE
  5
2DD
330
292
100
AcDbEntity
  8
0
  6
Continuous
 62
     7
370
    15
100
AcDbPolyline
 90
       17
 70
   128
 43
0.0
 10
10.5862148531
 20
12.8286284101
 10
11.1521106751
 20
13.2739985714
 10
11.809036529
 20
13.9151783438
 10
12.3275122268
 20
14.5891806792
 10
12.7014591148
 20
15.2881035165
 10
12.9264930078
 20
16.0037526243
 10
12.9999755891
 20
16.7277376712
 10
12.9210453426
 20
17.4515705945
 10
12.6906276533
 20
18.1667651149
 10
12.3114239578
 20
18.8649362307
 10
11.787880073
 20
19.5378985238
 10
11.126134072
 20
20.1777621267
 10
10.3339443218
 20
20.7770252235
 10
9.4205985228
 20
21.3286620026
 10
8.3968048194
 20
21.8262050268
 10
7.2745662568
 20
22.2638210593
 10
6.0670400561
 20
22.6363794521
  0
LWPOLYLINE
  5
2DE
330
292
100
AcDbEntity
  8
0
  6
Continuous
 62
     7
370
    15
100
AcDbPolyline
 90
       22
 70
   128
 43
0.0
 10
11.4039168327
 20
13.5003849861
 10
11.126134072
 20
13.7490073714
 10
10.3339443218
 20
14.3482704683
 10
9.4205985228
 20
14.8999072473
 10
8.3968048194
 20
15.3974502716
 10
7.2745662568
 20
15.835066304
 10
6.0670400561
 20
16.2076246969
 10
4.7883833578
 20
16.5107575435
 10
3.4535872428
 20
16.7409108886
 10
2.0783009749
 20
16.8953863944
 10
0.6786485284
 20
16.972372977
 10
-0.7289604517
 20
16.970968039
 10
-2.1280230369
 20
16.8911880521
 10
-3.5021364978
 20
16.7339683637
 10
-4.8351906102
 20
16.5011522308
 10
-6.1115565336
 20
16.1954692098
 10
-7.3162700444
 20
15.8205031546
 10
-8.4352069784
 20
15.3806501994
 10
-9.4552488228
 20
14.8810672178
 10
-10.3644365199
 20
14.3276113637
 10
-11.1521106751
 20
13.7267714008
 10
-11.4039168327
 20
13.5003849861
  0
LWPOLYLINE
  5
2DF
330
292
100
AcDbEntity
  8
0
  6
Continuous
 62
     7
370
    15
100
AcDbPolyline
 90
       21
 70
   128
 43
0.0
 10
-7.6868490932
 20
11.4275289417
 10
-7.6161810156
 20
11.54693471
 10
-7.2013343379
 20
12.08058709
 10
-6.6463218788
 20
12.5793100216
 10
-5.9619463244
 20
13.0333964304
 10
-5.1615282664
 20
13.4340080408
 10
-4.2606469318
 20
13.7733474036
 10
-3.2768369511
 20
14.0448096641
 10
-2.2292470665
 20
14.2431111182
 10
-1.1382674235
 20
14.3643920536
 10
-0.0251326999
 20
14.4062918748
 10
1.0884912032
 20
14.3679950496
 10
2.1809288631
 20
14.250246982
 10
3.2309172235
 20
14.0553395043
 10
4.2180194552
 20
13.7870662687
 10
5.1230227362
 20
13.4506489087
 10
5.9283122069
 20
13.0526354056
 10
6.618213824
 20
12.6007726394
 10
7.179299437
 20
12.1038556048
 10
7.6006481528
 20
11.5715562268
 10
7.6868490932
 20
11.4275289417
  0
LWPOLYLINE
  5
2E0
330
292
100
AcDbEntity
  8
0
  6
Continuous
 62
     7
370
    15
100
AcDbPolyline
 90
        3
 70
   128
 43
0.0
 10
3.7335631114
 20
11.3585777608
 10
4.6819260322
 20
11.0554941666
 10
5.3765485775
 20
10.7655455914
  0
LWPOLYLINE
  5
2E2
330
292
100
AcDbEntity
  8
0
  6
Continuous
 62
     7
370
    15
100
AcDbPolyline
 90
       15
 70
   128
 43
0.0
 10
92.3913867664
 20
32.951386903
 10
91.6653514177
 20
33.1039492308
 10
90.8954778319
 20
33.1806288512
 10
90.1113518193
 20
33.1784790094
 10
89.3431069028
 20
33.0975823226
 10
88.6202663036
 20
32.941047605
 10
87.9706083807
 20
32.7148903982
 10
87.4190991237
 20
32.4278017967
 10
86.986932724
 20
32.0908144545
 10
86.690717094
 20
31.7168786061
 10
86.5418356343
 20
31.3203643966
 10
86.5460097758
 20
30.9165096446
 10
86.7030791087
 20
30.5208342617
 10
87.0070075465
 20
30.1485438311
 10
87.1436706367
 20
30.0284117939
  0
LWPOLYLINE
  5
2E3
330
292
100
AcDbEntity
  8
0
  6
Continuous
 62
     7
370
    15
100
AcDbPolyline
 90
       10
 70
   128
 43
0.0
 10
93.9055397854
 20
30.0284117945
 10
94.0622776974
 20
30.167887297
 10
94.3584933274
 20
30.5418231454
 10
94.5073747871
 20
30.9383373549
 10
94.5032006456
 20
31.3421921069
 10
94.3461313127
 20
31.7378674898
 10
94.0422028749
 20
32.1101579204
 10
93.6030951315
 20
32.4447564864
 10
93.0456827469
 20
32.7288047524
 10
92.3913867664
 20
32.951386903
  0
LWPOLYLINE
  5
2E5
330
292
100
AcDbEntity
  8
0
  6
Continuous
 62
     7
370
    15
100
AcDbPolyline
 90
       11
 70
   128
 43
0.0
 10
96.4253539971
 20
34.8070216429
 10
97.3341878193
 20
34.5108824664
 10
98.1418849153
 20
34.145164781
 10
98.8285571022
 20
33.7188737698
 10
99.3772962317
 20
33.2425061323
 10
99.7745905253
 20
32.7277916207
 10
100.010657279
 20
32.1874042146
 10
100.0796837458
 20
31.6346500452
 10
99.979970265
 20
31.0831397549
 10
99.7139721135
 20
30.5464533572
 10
99.2882390484
 20
30.0378058524
  0
LWPOLYLINE
  5
2E8
330
292
100
AcDbEntity
  8
0
  6
Continuous
 62
     7
370
    15
100
AcDbPolyline
 90
       15
 70
   128
 43
0.0
 10
-26.1206415384
 20
65.1604167906
 10
-26.8466768871
 20
65.3129791184
 10
-27.6165504729
 20
65.3896587388
 10
-28.4006764855
 20
65.387508897
 10
-29.168921402
 20
65.3066122102
 10
-29.8917620011
 20
65.1500774927
 10
-30.5414199241
 20
64.9239202858
 10
-31.0929291811
 20
64.6368316843
 10
-31.5250955808
 20
64.2998443421
 10
-31.8213112108
 20
63.9259084938
 10
-31.9701926705
 20
63.5293942843
 10
-31.966018529
 20
63.1255395322
 10
-31.8089491961
 20
62.7298641494
 10
-31.5050207582
 20
62.3575737187
 10
-31.3683576622
 20
62.2374416768
  0
LWPOLYLINE
  5
2E9
330
292
100
AcDbEntity
  8
0
  6
Continuous
 62
     7
370
    15
100
AcDbPolyline
 90
       10
 70
   128
 43
0.0
 10
-24.6064885254
 20
62.2374416772
 10
-24.4497506074
 20
62.3769171847
 10
-24.1535349774
 20
62.750853033
 10
-24.0046535177
 20
63.1473672425
 10
-24.0088276592
 20
63.5512219946
 10
-24.1658969921
 20
63.9468973774
 10
-24.4698254299
 20
64.3191878081
 10
-24.9089331733
 20
64.653786374
 10
-25.4663455579
 20
64.9378346401
 10
-26.1206415384
 20
65.1604167906
  0
LWPOLYLINE
  5
2EB
330
292
100
AcDbEntity
  8
0
  6
Continuous
 62
     7
370
    15
100
AcDbPolyline
 90
        3
 70
   128
 43
0.0
 10
-35.898213533
 20
65.7958904231
 10
-35.2948552926
 20
66.2949233224
 10
-35.2176990543
 20
66.3486920378
  0
LINE
  5
2EC
330
292
100
AcDbEntity
  8
0
  6
Continuous
 62
     7
370
    15
100
AcDbLine
 10
34.0186683365
 20
-50.02689783
 30
0.0
 11
35.2176990543
 21
-49.2053460237
 31
0.0
  0
LINE
  5
2ED
330
292
100
AcDbEntity
  8
0
  6
Continuous
 62
     7
370
    15
100
AcDbLine
 10
-101.2268322319
 20
1.0127203267
 30
0.0
 11
-101.2268322319
 21
-13.5591237853
 31
0.0
  0
LINE
  5
2EE
330
292
100
AcDbEntity
  8
0
  6
Continuous
 62
     7
370
    15
100
AcDbLine
 10
-99.6216627266
 20
-16.0348525574
 30
0.0
 11
-98.4226320089
 21
-16.8564043636
 31
0.0
  0
LINE
  5
2EF
330
292
100
AcDbEntity
  8
0
  6
Continuous
 62
     7
370
    15
100
AcDbLine
 10
-17.5
 20
17.143346014
 30
0.0
 11
-17.5
 21
12.0003422098
 31
0.0
  0
LINE
  5
2F0
330
292
100
AcDbEntity
  8
0
  6
Continuous
 62
     7
370
    15
100
AcDbLine
 10
17.5
 20
12.0003422098
 30
0.0
 11
17.5
 21
17.143346014
 31
0.0
  0
LINE
  5
2F1
330
292
100
AcDbEntity
  8
0
  6
Continuous
 62
     7
370
    15
100
AcDbLine
 10
99.6216627266
 20
33.1781985714
 30
0.0
 11
98.7052462593
 21
33.8061087599
 31
0.0
  0
LINE
  5
2F2
330
292
100
AcDbEntity
  8
0
  6
Continuous
 62
     7
370
    15
100
AcDbLine
 10
101.2268322319
 20
16.1306256874
 30
0.0
 11
101.2268322319
 21
30.7024697993
 31
0.0
  0
LINE
  5
2F3
330
292
100
AcDbEntity
  8
0
  6
Continuous
 62
     7
370
    15
100
AcDbLine
 10
-34.301282587
 20
66.9766022263
 30
0.0
 11
-35.2176990543
 21
66.3486920378
 31
0.0
  0
LINE
  5
2F4
330
292
100
AcDbEntity
  8
0
  6
Continuous
 62
     7
370
    15
100
AcDbLine
 10
-34.1293772896
 20
66.6009095848
 30
0.0
 11
-98.533340962
 21
3.7406666458
 31
0.0
  0
LINE
  5
2F5
330
292
100
AcDbEntity
  8
0
  6
Continuous
 62
     7
370
    15
100
AcDbLine
 10
96.0270045655
 20
34.7212747912
 30
0.0
 11
-26.022696226
 21
67.8917682576
 31
0.0
  0
LINE
  5
2F6
330
292
100
AcDbEntity
  8
0
  6
Continuous
 62
     7
370
    15
100
AcDbLine
 10
34.1293772896
 20
-32.3142175567
 30
0.0
 11
98.533340962
 21
30.5460253822
 31
0.0
  0
LINE
  5
2F7
330
292
100
AcDbEntity
  8
0
  6
Continuous
 62
     7
370
    15
100
AcDbLine
 10
-29.6956454397
 20
-18.4620248644
 30
0.0
 11
26.022696226
 21
-33.6050762295
 31
0.0
  0
LINE
  5
2F8
330
292
100
AcDbEntity
  8
0
  6
Continuous
 62
     7
370
    15
100
AcDbLine
 10
-29.6956454397
 20
-18.4620248644
 30
0.0
 11
-27.1522365237
 21
-15.9795797906
 31
0.0
  0
LINE
  5
2F9
330
292
100
AcDbEntity
  8
0
  6
Continuous
 62
     7
370
    15
100
AcDbLine
 10
-37.7652539838
 20
-13.0951890544
 30
0.0
 11
-40.3086628998
 21
-15.5776341282
 31
0.0
  0
LINE
  5
2FA
330
292
100
AcDbEntity
  8
0
  6
Continuous
 62
     7
370
    15
100
AcDbLine
 10
-96.0270045655
 20
-0.4345827631
 30
0.0
 11
-40.3086628998
 21
-15.5776341282
 31
0.0
  0
LINE
  5
2FB
330
292
100
AcDbEntity
  8
0
  6
Continuous
 62
     7
370
    15
100
AcDbLine
 10
25.6243467944
 20
-34.2969318921
 30
0.0
 11
-30.0939948713
 21
-19.1538805271
 31
0.0
  0
LINE
  5
2FC
330
292
100
AcDbEntity
  8
0
  6
Continuous
 62
     7
370
    15
100
AcDbLine
 10
25.0893054481
 20
-35.8018451941
 30
0.0
 11
-30.6290362176
 21
-20.658793829
 31
0.0
  0
LINE
  5
2FD
330
292
100
AcDbEntity
  8
0
  6
Continuous
 62
     7
370
    15
100
AcDbLine
 10
-30.6290362176
 20
-20.658793829
 30
0.0
 11
-30.0939948713
 21
-19.1538805271
 31
0.0
  0
LINE
  5
2FE
330
292
100
AcDbEntity
  8
0
  6
Continuous
 62
     7
370
    15
100
AcDbLine
 10
-30.6290362176
 20
-20.658793829
 30
0.0
 11
-30.6290362176
 21
-26.2303812836
 31
0.0
  0
LINE
  5
2FF
330
292
100
AcDbEntity
  8
0
  6
Continuous
 62
     7
370
    15
100
AcDbLine
 10
-96.9603953434
 20
-17.2031958397
 30
0.0
 11
25.0893054481
 21
-50.3736893061
 31
0.0
  0
LINE
  5
300
330
292
100
AcDbEntity
  8
0
  6
Continuous
 62
     7
370
    15
100
AcDbLine
 10
-41.2420536777
 20
-17.7744030928
 30
0.0
 11
-96.9603953434
 21
-2.6313517277
 31
0.0
  0
LINE
  5
301
330
292
100
AcDbEntity
  8
0
  6
Continuous
 62
     7
370
    15
100
AcDbLine
 10
-41.2420536777
 20
-23.3459905474
 30
0.0
 11
-41.2420536777
 21
-17.7744030928
 31
0.0
  0
LINE
  5
302
330
292
100
AcDbEntity
  8
0
  6
Continuous
 62
     7
370
    15
100
AcDbLine
 10
-30.6290362176
 20
-26.2303812836
 30
0.0
 11
-41.2420536777
 21
-23.3459905474
 31
0.0
  0
LINE
  5
303
330
292
100
AcDbEntity
  8
0
  6
Continuous
 62
     7
370
    15
100
AcDbLine
 10
-30.0939948713
 20
-19.1538805271
 30
0.0
 11
-29.6956454397
 21
-18.4620248644
 31
0.0
  0
LINE
  5
304
330
292
100
AcDbEntity
  8
0
  6
Continuous
 62
     7
370
    15
100
AcDbLine
 10
100.3021772053
 20
28.7795426418
 30
0.0
 11
35.898213533
 21
-34.0807002972
 31
0.0
  0
LINE
  5
305
330
292
100
AcDbEntity
  8
0
  6
Continuous
 62
     7
370
    15
100
AcDbLine
 10
99.2882390484
 20
30.0378058524
 30
0.0
 11
34.8842753761
 21
-32.8224370866
 31
0.0
  0
LINE
  5
306
330
292
100
AcDbEntity
  8
0
  6
Continuous
 62
     7
370
    15
100
AcDbLine
 10
35.898213533
 20
-48.6525444091
 30
0.0
 11
100.3021772053
 21
14.2076985299
 31
0.0
  0
LINE
  5
307
330
292
100
AcDbEntity
  8
0
  6
Continuous
 62
     7
370
    15
100
AcDbLine
 10
25.7893485315
 20
-50.9761767469
 30
0.0
 11
-96.26035226
 21
-17.8056832805
 31
0.0
  0
LINE
  5
308
330
292
100
AcDbEntity
  8
0
  6
Continuous
 62
     7
370
    15
100
AcDbLine
 10
-37.7652539838
 20
-19.95252746
 30
0.0
 11
-41.2420536777
 21
-23.3459905474
 31
0.0
  0
LINE
  5
309
330
292
100
AcDbEntity
  8
0
  6
Continuous
 62
     7
370
    15
100
AcDbLine
 10
-40.7070123314
 20
-16.2694897908
 30
0.0
 11
-41.2420536777
 21
-17.7744030928
 31
0.0
  0
LINE
  5
30A
330
292
100
AcDbEntity
  8
0
  6
Continuous
 62
     7
370
    15
100
AcDbLine
 10
-40.3086628998
 20
-15.5776341282
 30
0.0
 11
-40.7070123314
 21
-16.2694897908
 31
0.0
  0
LINE
  5
30B
330
292
100
AcDbEntity
  8
0
  6
Continuous
 62
     7
370
    15
100
AcDbLine
 10
-40.7070123314
 20
-16.2694897908
 30
0.0
 11
-96.4253539971
 21
-1.1264384258
 31
0.0
  0
LINE
  5
30C
330
292
100
AcDbEntity
  8
0
  6
Continuous
 62
     7
370
    15
100
AcDbLine
 10
-99.2882390484
 20
3.6427773648
 30
0.0
 11
-34.8842753761
 21
66.5030203038
 31
0.0
  0
LINE
  5
30D
330
292
100
AcDbEntity
  8
0
  6
Continuous
 62
     7
370
    15
100
AcDbLine
 10
-100.3021772053
 20
2.9356474842
 30
0.0
 11
-35.898213533
 21
65.7958904231
 31
0.0
  0
LINE
  5
30E
330
292
100
AcDbEntity
  8
0
  6
Continuous
 62
     7
370
    15
100
AcDbLine
 10
-25.6243467944
 20
67.9775151093
 30
0.0
 11
96.4253539971
 21
34.8070216429
 31
0.0
  0
ARC
  5
30F
330
292
100
AcDbEntity
  8
0
  6
Continuous
 62
     7
370
    15
100
AcDbCircle
 10
28.7794241331
 20
-24.2972931998
 30
0.0
 40
10.48557518639552
100
AcDbArc
 50
252.4885174786
 51
305.6064320282
  0
ARC
  5
310
330
292
100
AcDbEntity
  8
0
  6
Continuous
 62
     7
370
    15
100
AcDbCircle
 10
28.7907092632
 20
-24.8877020078
 30
0.0
 40
9.146283917269837
100
AcDbArc
 50
252.3838836072
 51
305.7110658997
  0
ARC
  5
311
330
292
100
AcDbEntity
  8
0
  6
Continuous
 62
     7
370
    15
100
AcDbCircle
 10
-28.7907092632
 20
59.1743940359
 30
0.0
 40
9.14628391726971
100
AcDbArc
 50
72.3838836072
 51
125.7110658997
  0
ARC
  5
312
330
292
100
AcDbEntity
  8
0
  6
Continuous
 62
     7
370
    15
100
AcDbCircle
 10
28.766825774
 20
-40.6432758021
 30
0.0
 40
10.75333495546956
100
AcDbArc
 50
253.9253982779
 51
299.2349458499
  0
ARC
  5
313
330
292
100
AcDbEntity
  8
0
  6
Continuous
 62
     7
370
    15
100
AcDbCircle
 10
-32.4194036325
 20
-27.4619446207
 30
0.0
 40
9.217888156831533
100
AcDbArc
 50
73.4298044075
 51
125.4465385457
  0
ARC
  5
314
330
292
100
AcDbEntity
  8
0
  6
Continuous
 62
     7
370
    15
100
AcDbCircle
 10
-94.5172144489
 20
-10.8978677175
 30
0.0
 40
7.124355780042614
100
AcDbArc
 50
236.7578706403
 51
255.8374875595
  0
ARC
  5
315
330
292
100
AcDbEntity
  8
0
  6
Continuous
 62
     7
370
    15
100
AcDbCircle
 10
0.0412288523
 20
-2.1909967666
 30
0.0
 40
14.04365700784841
100
AcDbArc
 50
74.7567062454
 51
112.6922403837
  0
ARC
  5
316
330
292
100
AcDbEntity
  8
0
  6
Continuous
 62
     7
370
    15
100
AcDbCircle
 10
98.5128395219
 20
30.7546838917
 30
0.0
 40
2.665128946643074
100
AcDbArc
 50
312.1743425321
 51
65.4146299176
  0
ARC
  5
317
330
292
100
AcDbEntity
  8
0
  6
Continuous
 62
     7
370
    15
100
AcDbCircle
 10
98.5561537001
 20
16.2310654999
 30
0.0
 40
2.672566552241352
100
AcDbArc
 50
310.79188538
 51
357.8462153257
  0
ARC
  5
318
330
292
100
AcDbEntity
  8
0
  6
Continuous
 62
     7
370
    15
100
AcDbCircle
 10
-28.7794241331
 20
57.977876417
 30
0.0
 40
10.48557518639549
100
AcDbArc
 50
72.4885174786
 51
125.6064320282
  0
VIEWPORT
  5
3A5
330
292
100
AcDbEntity
  8
0
100
AcDbViewport
 10
0.0
 20
0.0
 30
0.0
 40
243.84
 41
204.216
 68
     1
 69
     1
 12
0.0
 22
0.0
 13
0.0
 23
0.0
 14
10.0
 24
10.0
 15
10.0
 25
10.0
 16
0.0
 26
0.0
 36
1.0
 17
0.0
 27
0.0
 37
0.0
 42
50.0
 43
0.0
 44
0.0
 45
157.08
 50
0.0
 51
0.0
 72
   100
 90
   557152
  1

281
     0
 71
     1
 74
     0
110
0.0
120
0.0
130
0.0
111
1.0
121
0.0
131
0.0
112
0.0
122
1.0
132
0.0
 79
     0
146
0.0
  0
ENDBLK
  5
295
330
292
100
AcDbEntity
  8
0
100
AcDbBlockEnd
  0
BLOCK
  5
31B
330
319
100
AcDbEntity
  8
0
100
AcDbBlockBegin
  2
*Paper_Space8
 70
     0
 10
0.0
 20
0.0
 30
0.0
  3
*Paper_Space8
  1

  0
LWPOLYLINE
  5
31D
330
319
100
AcDbEntity
  8
0
  6
Continuous
 62
     7
100
AcDbPolyline
 90
       17
 70
   128
 43
0.0
 10
-53.496959094
 20
-12.6050638088
 10
-53.84246406
 20
-11.9134350536
 10
-54.4077406007
 20
-11.3767155506
 10
-55.1067304872
 20
-11.0766159786
 10
-55.8330188455
 20
-11.0588237772
 10
-56.4760348569
 20
-11.3260476476
 10
-56.9378851627
 20
-11.837605178
 10
-57.1482572404
 20
-12.5156163717
 10
-57.0751238483
 20
-13.2568601707
 10
-56.7296188823
 20
-13.9484889258
 10
-56.1643423416
 20
-14.4852084289
 10
-55.4653524551
 20
-14.7853080008
 10
-54.7390640968
 20
-14.8031002023
 10
-54.0960480854
 20
-14.5358763318
 10
-53.6341977796
 20
-14.0243188014
 10
-53.4238257019
 20
-13.3463076077
 10
-53.496959094
 20
-12.6050638088
  0
LWPOLYLINE
  5
31E
330
319
100
AcDbEntity
  8
0
  6
Continuous
 62
     7
100
AcDbPolyline
 90
       17
 70
   128
 43
0.0
 10
2.6279017094
 20
-19.6761316173
 10
2.2823967435
 20
-18.9845028622
 10
1.7171202027
 20
-18.4477833591
 10
1.0181303162
 20
-18.1476837872
 10
0.2918419579
 20
-18.1298915857
 10
-0.3511740535
 20
-18.3971154561
 10
-0.8130243592
 20
-18.9086729866
 10
-1.023396437
 20
-19.5866841803
 10
-0.9502630448
 20
-20.3279279792
 10
-0.6047580789
 20
-21.0195567344
 10
-0.0394815381
 20
-21.5562762374
 10
0.6595083483
 20
-21.8563758094
 10
1.3857967066
 20
-21.8741680108
 10
2.0288127181
 20
-21.6069441404
 10
2.4906630238
 20
-21.09538661
 10
2.7010351015
 20
-20.4173754163
 10
2.6279017094
 20
-19.6761316173
  0
POINT
  5
31F
330
319
100
AcDbEntity
  8
0
  6
Continuous
 62
     7
100
AcDbPoint
 10
-55.2860414712
 20
-12.9309619897
 30
0.0
  0
POINT
  5
320
330
319
100
AcDbEntity
  8
0
  6
Continuous
 62
     7
100
AcDbPoint
 10
0.8388193323
 20
-20.0020297983
 30
0.0
  0
SPLINE
  5
321
330
319
100
AcDbEntity
  8
0
  6
Continuous
 62
     7
370
    15
100
AcDbSpline
210
0.0
220
0.0
230
1.0
 70
     8
 71
     3
 72
    21
 73
    17
 74
     0
 42
0.00000001
 43
0.00000001
 12
1.0
 22
0.0
 32
0.0
 13
1.0
 23
0.0
 33
0.0
 40
0.0
 40
0.0
 40
0.0
 40
0.0
 40
0.0344674402620305
 40
0.113395786950868
 40
0.1920997340846447
 40
0.2697487116647355
 40
0.3463643451430714
 40
0.4222807856092856
 40
0.4977841149898914
 40
0.5730430082917601
 40
0.64815330320137
 40
0.7232144444673912
 40
0.7984262028305836
 40
0.8741329236619855
 40
0.9507984720185377
 40
1.0
 40
1.0
 40
1.0
 40
1.0
 10
-0.520667806463343
 20
-18.22522866993573
 30
0.0
 10
-0.4741281034297828
 20
-18.17477726557057
 30
0.0
 10
-0.3210153045149038
 20
-18.0087952066398
 30
0.0
 10
0.0311546990846637
 20
-17.83478540796879
 30
0.0
 10
0.5068266219772737
 20
-17.71947359897293
 30
0.0
 10
1.019728536028462
 20
-17.73799925366598
 30
0.0
 10
1.529582416229677
 20
-17.8818290174148
 30
0.0
 10
2.00701708343607
 20
-18.14294172444013
 30
0.0
 10
2.423593213466062
 20
-18.50444681788633
 30
0.0
 10
2.755333023934222
 20
-18.94425110538326
 30
0.0
 10
2.983583162264269
 20
-19.43546917515506
 30
0.0
 10
3.096129118329908
 20
-19.94794436243456
 30
0.0
 10
3.089679503960732
 20
-20.45280112367002
 30
0.0
 10
2.962040357076506
 20
-20.91715192129057
 30
0.0
 10
2.765341886144458
 20
-21.28322723587533
 30
0.0
 10
2.577336367222602
 20
-21.44849767223604
 30
0.0
 10
2.503844878669534
 20
-21.51310200114946
 30
0.0
  0
SPLINE
  5
322
330
319
100
AcDbEntity
  8
0
  6
Continuous
 62
     7
370
    15
100
AcDbSpline
210
0.0
220
0.0
230
1.0
 70
     8
 71
     3
 72
    21
 73
    17
 74
     0
 42
0.00000001
 43
0.00000001
 12
1.0
 22
0.0
 32
0.0
 13
1.0
 23
0.0
 33
0.0
 40
0.0
 40
0.0
 40
0.0
 40
0.0
 40
0.0344674402620385
 40
0.11339578695088
 40
0.1920997340846583
 40
0.2697487116647482
 40
0.3463643451430842
 40
0.4222807856092996
 40
0.4977841149899049
 40
0.573043008291774
 40
0.6481533032013846
 40
0.7232144444674062
 40
0.7984262028305973
 40
0.8741329236619947
 40
0.9507984720185539
 40
1.0
 40
1.0
 40
1.0
 40
1.0
 10
-56.6455286099118
 20
-11.15416086137485
 30
0.0
 10
-56.59898890687824
 20
-11.10370945700967
 30
0.0
 10
-56.44587610796336
 20
-10.9377273980789
 30
0.0
 10
-56.09370610436373
 20
-10.76371759940788
 30
0.0
 10
-55.61803418147111
 20
-10.64840579041205
 30
0.0
 10
-55.1051322674199
 20
-10.66693144510511
 30
0.0
 10
-54.59527838721873
 20
-10.81076120885396
 30
0.0
 10
-54.11784372001234
 20
-11.07187391587932
 30
0.0
 10
-53.70126758998232
 20
-11.43337900932553
 30
0.0
 10
-53.36952777951421
 20
-11.87318329682246
 30
0.0
 10
-53.14127764118417
 20
-12.36440136659428
 30
0.0
 10
-53.02873168511857
 20
-12.87687655387377
 30
0.0
 10
-53.03518129948775
 20
-13.38173331510922
 30
0.0
 10
-53.162820446372
 20
-13.84608411272977
 30
0.0
 10
-53.35951891730402
 20
-14.21215942731448
 30
0.0
 10
-53.54752443622588
 20
-14.37742986367519
 30
0.0
 10
-53.62101592477894
 20
-14.44203419258857
 30
0.0
  0
LWPOLYLINE
  5
32B
330
319
100
AcDbEntity
  8
0
  6
Continuous
 62
     7
370
    15
100
AcDbPolyline
 90
       12
 70
   128
 43
0.0
 10
47.6317207524
 20
-13.1470997207
 10
47.1530242493
 20
-13.4924988613
 10
46.5317339179
 20
-13.8116737982
 10
45.7804974376
 20
-14.09812705
 10
44.9146078169
 20
-14.3460272548
 10
43.9516920713
 20
-14.5503278791
 10
42.9113523886
 20
-14.7068699515
 10
41.8147670847
 20
-14.8124667267
 10
40.6842594741
 20
-14.864968559
 10
39.5428434315
 20
-14.8633066624
 10
38.4137548962
 20
-14.8075148684
 10
37.3199788545
 20
-14.6987289369
  0
LWPOLYLINE
  5
32C
330
319
100
AcDbEntity
  8
0
  6
Continuous
 62
     7
370
    15
100
AcDbPolyline
 90
       11
 70
   128
 43
0.0
 10
46.5593181462
 20
-11.9311094631
 10
46.1013332902
 20
-12.2554612197
 10
45.4967676072
 20
-12.5519381292
 10
44.7605075106
 20
-12.8132399463
 10
43.9106821677
 20
-13.032932553
 10
42.9682170987
 20
-13.2056063882
 10
41.9563189215
 20
-13.327009649
 10
40.8999039275
 20
-13.3941529842
 10
39.82498456
 20
-13.4053831021
 10
38.7580289011
 20
-13.3604234798
 10
37.7253089403
 20
-13.2603811725
  0
LWPOLYLINE
  5
32D
330
319
100
AcDbEntity
  8
0
  6
Continuous
 62
     7
370
    15
100
AcDbPolyline
 90
       12
 70
   128
 43
0.0
 10
37.3199788545
 20
-30.7264826443
 10
38.4137548962
 20
-30.8352685757
 10
39.5428434315
 20
-30.8910603698
 10
40.6842594741
 20
-30.8927222664
 10
41.8147670847
 20
-30.8402204341
 10
42.9113523886
 20
-30.7346236589
 10
43.9516920713
 20
-30.5780815865
 10
44.9146078169
 20
-30.3737809622
 10
45.7804974376
 20
-30.1258807574
 10
46.5317339179
 20
-29.8394275055
 10
47.1530242493
 20
-29.5202525687
 10
47.6317207524
 20
-29.1748534281
  0
LWPOLYLINE
  5
32F
330
319
100
AcDbEntity
  8
0
  6
Continuous
 62
     7
370
    15
100
AcDbPolyline
 90
       10
 70
   128
 43
0.0
 10
-94.5512599497
 20
6.1804856234
 10
-94.8343570867
 20
5.8448770892
 10
-94.938319911
 20
5.4979807689
 10
-94.8599895648
 20
5.1503369314
 10
-94.6017460759
 20
4.812508559
 10
-94.1714360422
 20
4.4947603957
 10
-93.5821342161
 20
4.2067470587
 10
-92.8517462356
 20
3.9572196875
 10
-92.0024645698
 20
3.753760045
 10
-91.0600942124
 20
3.6025501495
  0
LWPOLYLINE
  5
333
330
319
100
AcDbEntity
  8
0
  6
Continuous
 62
     7
370
    15
100
AcDbPolyline
 90
       10
 70
   128
 43
0.0
 10
94.5512599497
 20
31.531876041
 10
94.8343570867
 20
31.8674845752
 10
94.938319911
 20
32.2143808955
 10
94.8599895648
 20
32.562024733
 10
94.6017460759
 20
32.8998531054
 10
94.1714360422
 20
33.2176012687
 10
93.5821342161
 20
33.5056146057
 10
92.8517462356
 20
33.7551419769
 10
92.0024645698
 20
33.9586016194
 10
91.0600942124
 20
34.1098115149
  0
LWPOLYLINE
  5
337
330
319
100
AcDbEntity
  8
0
  6
Continuous
 62
     7
370
    15
100
AcDbPolyline
 90
       20
 70
   128
 43
0.0
 10
-18.9772135577
 20
-3.5370026345
 10
-18.7046026998
 20
-3.2194303375
 10
-18.592521945
 20
-2.8912325551
 10
-18.6440285643
 20
-2.5613616675
 10
-18.8577175912
 20
-2.2388156924
 10
-19.2277601462
 20
-1.9323928433
 10
-19.744062433
 20
-1.6504515367
 10
-20.3925410712
 20
-1.4006823965
 10
-21.1555072538
 20
-1.1898984737
 10
-22.0121492524
 20
-1.0238494043
 10
-22.9391001064
 20
-0.907064574
 10
-23.9110750128
 20
-0.8427295686
 10
-24.90156103
 20
-0.8325992793
 10
-25.8835402813
 20
-0.8769500339
 10
-26.8302269327
 20
-0.9745720596
 10
-27.7157978401
 20
-1.1228024819
 10
-28.5160969376
 20
-1.3175979613
 10
-29.2092941522
 20
-1.553644985
 10
-29.7764808708
 20
-1.8245048054
 10
-30.2021857184
 20
-2.1227890728
  0
LWPOLYLINE
  5
33A
330
319
100
AcDbEntity
  8
0
  6
Continuous
 62
     7
370
    15
100
AcDbPolyline
 90
       35
 70
   128
 43
0.0
 10
87.9518286521
 20
33.2541970376
 10
88.6982077279
 20
33.1328583298
 10
89.3649904944
 20
32.9678700457
 10
89.9294704642
 20
32.7648506634
 10
90.372424949
 20
32.5307137645
 10
90.678769665
 20
32.2734326002
 10
90.8380724105
 20
32.001768572
 10
90.8449083213
 20
31.7249728727
 10
90.6990446089
 20
31.4524714476
 10
90.405448487
 20
31.1935440061
 10
89.9741180194
 20
30.9570080116
 10
89.4197416478
 20
30.7509184137
 10
88.7611979946
 20
30.5822933465
 10
88.0209129742
 20
30.4568751344
 10
87.2240961051
 20
30.3789347442
 10
86.39788203
 20
30.3511263424
 10
85.5704064783
 20
30.3743969108
 10
84.7698481375
 20
30.4479539981
 10
84.0234690618
 20
30.5692927059
 10
83.3566862953
 20
30.73428099
 10
82.7922063255
 20
30.9373003723
 10
82.3492518407
 20
31.1714372712
 10
82.0429071246
 20
31.4287184355
 10
81.8836043792
 20
31.7003824636
 10
81.8767684683
 20
31.977178163
 10
82.0226321807
 20
32.2496795881
 10
82.3162283027
 20
32.5086070296
 10
82.7475587703
 20
32.7451430241
 10
83.3019351419
 20
32.951232622
 10
83.960478795
 20
33.1198576892
 10
84.7007638154
 20
33.2452759013
 10
85.4975806846
 20
33.3232162915
 10
86.3237947597
 20
33.3510246933
 10
87.1512703114
 20
33.3277541249
 10
87.9518286521
 20
33.2541970376
  0
LWPOLYLINE
  5
33B
330
319
100
AcDbEntity
  8
0
  6
Continuous
 62
     7
370
    15
100
AcDbPolyline
 90
       35
 70
   128
 43
0.0
 10
40.5756743235
 20
-8.5276437728
 10
41.3220533993
 20
-8.6489824806
 10
41.9888361657
 20
-8.8139707647
 10
42.5533161355
 20
-9.016990147
 10
42.9962706203
 20
-9.2511270459
 10
43.3026153364
 20
-9.5084082102
 10
43.4619180818
 20
-9.7800722384
 10
43.4687539927
 20
-10.0568679377
 10
43.3228902803
 20
-10.3293693628
 10
43.0292941584
 20
-10.5882968043
 10
42.5979636907
 20
-10.8248327988
 10
42.0435873191
 20
-11.0309223967
 10
41.385043666
 20
-11.1995474639
 10
40.6447586456
 20
-11.324965676
 10
39.8479417765
 20
-11.4029060662
 10
39.0217277013
 20
-11.430714468
 10
38.1942521497
 20
-11.4074438996
 10
37.3936938089
 20
-11.3338868123
 10
36.6473147332
 20
-11.2125481045
 10
35.9805319667
 20
-11.0475598204
 10
35.4160519969
 20
-10.8445404381
 10
34.9730975121
 20
-10.6104035392
 10
34.666752796
 20
-10.3531223749
 10
34.5074500506
 20
-10.0814583468
 10
34.5006141397
 20
-9.8046626474
 10
34.6464778521
 20
-9.5321612223
 10
34.940073974
 20
-9.2732337808
 10
35.3714044417
 20
-9.0366977863
 10
35.9257808133
 20
-8.8306081884
 10
36.5843244664
 20
-8.6619831212
 10
37.3246094868
 20
-8.5365649091
 10
38.1214263559
 20
-8.4586245189
 10
38.9476404311
 20
-8.4308161171
 10
39.7751159827
 20
-8.4540866855
 10
40.5756743235
 20
-8.5276437728
  0
LWPOLYLINE
  5
33C
330
319
100
AcDbEntity
  8
0
  6
Continuous
 62
     7
370
    15
100
AcDbPolyline
 90
       35
 70
   128
 43
0.0
 10
-84.7698481375
 20
7.2644076663
 10
-84.0234690618
 20
7.1430689585
 10
-83.3566862953
 20
6.9780806744
 10
-82.7922063255
 20
6.7750612921
 10
-82.3492518407
 20
6.5409243932
 10
-82.0429071246
 20
6.2836432289
 10
-81.8836043792
 20
6.0119792008
 10
-81.8767684683
 20
5.7351835014
 10
-82.0226321807
 20
5.4626820763
 10
-82.3162283027
 20
5.2037546348
 10
-82.7475587703
 20
4.9672186403
 10
-83.3019351419
 20
4.7611290424
 10
-83.960478795
 20
4.5925039752
 10
-84.7007638154
 20
4.4670857631
 10
-85.4975806846
 20
4.3891453729
 10
-86.3237947597
 20
4.3613369711
 10
-87.1512703114
 20
4.3846075395
 10
-87.9518286521
 20
4.4581646268
 10
-88.6982077279
 20
4.5795033346
 10
-89.3649904944
 20
4.7444916187
 10
-89.9294704642
 20
4.947511001
 10
-90.372424949
 20
5.1816478999
 10
-90.678769665
 20
5.4389290642
 10
-90.8380724105
 20
5.7105930924
 10
-90.8449083213
 20
5.9873887917
 10
-90.6990446089
 20
6.2598902168
 10
-90.405448487
 20
6.5188176583
 10
-89.9741180194
 20
6.7553536528
 10
-89.4197416478
 20
6.9614432507
 10
-88.7611979946
 20
7.1300683179
 10
-88.0209129742
 20
7.25548653
 10
-87.2240961051
 20
7.3334269202
 10
-86.39788203
 20
7.361235322
 10
-85.5704064783
 20
7.3379647536
 10
-84.7698481375
 20
7.2644076663
  0
LWPOLYLINE
  5
33D
330
319
100
AcDbEntity
  8
0
  6
Continuous
 62
     7
370
    15
100
AcDbPolyline
 90
       35
 70
   128
 43
0.0
 10
-37.3936938089
 20
49.0462484767
 10
-36.6473147332
 20
48.9249097689
 10
-35.9805319667
 20
48.7599214848
 10
-35.4160519969
 20
48.5569021025
 10
-34.9730975121
 20
48.3227652036
 10
-34.666752796
 20
48.0654840393
 10
-34.5074500506
 20
47.7938200112
 10
-34.5006141397
 20
47.5170243118
 10
-34.6464778521
 20
47.2445228867
 10
-34.940073974
 20
46.9855954452
 10
-35.3714044417
 20
46.7490594507
 10
-35.9257808133
 20
46.5429698528
 10
-36.5843244664
 20
46.3743447856
 10
-37.3246094868
 20
46.2489265735
 10
-38.1214263559
 20
46.1709861833
 10
-38.9476404311
 20
46.1431777815
 10
-39.7751159827
 20
46.1664483499
 10
-40.5756743235
 20
46.2400054372
 10
-41.3220533993
 20
46.361344145
 10
-41.9888361657
 20
46.5263324291
 10
-42.5533161355
 20
46.7293518114
 10
-42.9962706203
 20
46.9634887103
 10
-43.3026153364
 20
47.2207698746
 10
-43.4619180818
 20
47.4924339028
 10
-43.4687539927
 20
47.7692296022
 10
-43.3228902803
 20
48.0417310272
 10
-43.0292941584
 20
48.3006584687
 10
-42.5979636907
 20
48.5371944632
 10
-42.0435873191
 20
48.7432840611
 10
-41.385043666
 20
48.9119091283
 10
-40.6447586456
 20
49.0373273404
 10
-39.8479417765
 20
49.1152677306
 10
-39.0217277013
 20
49.1430761324
 10
-38.1942521497
 20
49.119805564
 10
-37.3936938089
 20
49.0462484767
  0
LWPOLYLINE
  5
33E
330
319
100
AcDbEntity
  8
0
  6
Continuous
 62
     7
370
    15
100
AcDbPolyline
 90
       90
 70
   128
 43
0.0
 10
10.7833784106
 20
28.3662266883
 10
12.7690034921
 20
28.088987974
 10
14.6910140405
 20
27.7657518789
 10
16.5398346959
 20
27.398128749
 10
18.3062547268
 20
26.9879500643
 10
19.9814739175
 20
26.5372593143
 10
21.5571464103
 20
26.0483018177
 10
23.025422284
 20
25.5235135361
 10
24.378986662
 20
24.9655089383
 10
25.6110961549
 20
24.3770679752
 10
26.715612455
 20
23.7611222301
 10
27.6870329176
 20
23.1207403137
 10
28.520517975
 20
22.4591125764
 10
29.2119152464
 20
21.7795352145
 10
29.7577802255
 20
21.085393848
 10
30.1553934404
 20
20.3801466545
 10
30.402774002
 20
19.6673071398
 10
30.4986894728
 20
18.9504266347
 10
30.4426620068
 20
18.2330766018
 10
30.23497073
 20
17.5188308428
 10
29.8766503499
 20
16.8112476942
 10
29.3694860006
 20
16.1138522996
 10
28.7160043494
 20
15.4301190478
 10
27.9194610089
 20
14.7634542634
 10
26.9838243181
 20
14.117179237
 10
25.9137555719
 20
13.4945136782
 10
24.7145857989
 20
12.8985596754
 10
23.3922892027
 20
12.3322862415
 10
21.9534533983
 20
11.7985145223
 10
20.4052465933
 20
11.2999037417
 10
18.7553818763
 20
10.8389379534
 10
17.0120787902
 20
10.4179136659
 10
15.1840223833
 20
10.0389284009
 10
13.2803199406
 20
9.7038702441
 10
11.310455612
 20
9.4144084382
 10
9.2842431625
 20
9.1719850674
 10
7.2117770806
 20
8.9778078728
 10
5.103382288
 20
8.8328442354
 10
2.9695627016
 20
8.7378163567
 10
0.8209489031
 20
8.6931976609
 10
-1.3317548215
 20
8.6992104361
 10
-3.4778238105
 20
8.7558247268
 10
-5.6065664563
 20
8.8627584836
 10
-7.70737747
 20
9.0194789678
 10
-9.7697907168
 20
9.2252054059
 10
-11.7835313577
 20
9.4789128792
 10
-13.7385670382
 20
9.7793374297
 10
-15.6251578687
 20
10.1249823574
 10
-17.4339049486
 20
10.5141256768
 10
-19.1557971911
 20
10.9448286953
 10
-20.7822562156
 20
11.4149456722
 10
-22.3051790849
 20
11.9221345084
 10
-23.716978674
 20
12.4638684146
 10
-25.0106214684
 20
13.0374484997
 10
-26.1796626047
 20
13.6400172166
 10
-27.2182779788
 20
14.2685725982
 10
-28.1212932611
 20
14.9199832133
 10
-28.8842096749
 20
15.5910037669
 10
-29.5032264091
 20
16.2782912685
 10
-29.9752595533
 20
16.9784216861
 10
-30.2979574623
 20
17.6879070054
 10
-30.4697124711
 20
18.4032126061
 10
-30.4896689052
 20
19.1207748717
 10
-30.3577273424
 20
19.8370189432
 10
-30.0745451091
 20
20.5483765285
 10
-29.6415330048
 20
21.25130368
 10
-29.0608482741
 20
21.9422984499
 10
-28.3353838591
 20
22.6179183371
 10
-27.468753987
 20
23.2747974372
 10
-26.4652761643
 20
23.9096632117
 10
-25.329949667
 20
24.5193527912
 10
-24.0684306345
 20
25.1008287328
 10
-22.6870038914
 20
25.6511941527
 10
-21.192551636
 20
26.1677071581
 10
-19.5925191544
 20
26.6477945071
 10
-17.8948777279
 20
27.0890644286
 10
-16.1080849207
 20
27.4893185383
 10
-14.2410424447
 20
27.8465627901
 10
-12.3030518116
 20
28.1590174113
 10
-10.3037679932
 20
28.4251257685
 10
-8.253151321
 20
28.6435621235
 10
-6.161417864
 20
28.8132382371
 10
-4.0389885332
 20
28.9333087916
 10
-1.8964371646
 20
29.0031756015
 10
0.2555621585
 20
29.0224905939
 10
2.4062882838
 20
28.9911575425
 10
4.5450264019
 20
28.9093325468
 10
6.661121427
 20
28.777423255
 10
8.7440310803
 20
28.5960868325
 10
10.7833784106
 20
28.3662266883
  0
LWPOLYLINE
  5
34A
330
319
100
AcDbEntity
  8
0
  6
Continuous
 62
     7
370
    15
100
AcDbPolyline
 90
       12
 70
   128
 43
0.0
 10
40.3988976283
 20
-9.1549506847
 10
39.6417627667
 20
-9.0869491908
 10
38.8593767392
 20
-9.0694908879
 10
38.081806202
 20
-9.1032466887
 10
37.3389327548
 20
-9.1869193767
 10
36.6593046076
 20
-9.3172934575
 10
36.0690394888
 20
-9.4893587282
 10
35.590820956
 20
-9.696502817
 10
35.2430266793
 20
-9.9307652928
 10
35.0390221976
 20
-10.1831435799
 10
34.9866472888
 20
-10.4439389223
 10
35.0645836209
 20
-10.667334856
  0
LWPOLYLINE
  5
34B
330
319
100
AcDbEntity
  8
0
  6
Continuous
 62
     7
370
    15
100
AcDbPolyline
 90
        9
 70
   128
 43
0.0
 10
42.9047845115
 20
-10.667334856
 10
42.9303459348
 20
-10.6211960468
 10
42.9827208436
 20
-10.3604007044
 10
42.8814534413
 20
-10.1012105254
 10
42.6304353771
 20
-9.853586043
 10
42.2393131347
 20
-9.6270433273
 10
41.7231173223
 20
-9.4302882878
 10
41.1016850557
 20
-9.2708821102
 10
40.3988976283
 20
-9.1549506847
  0
LWPOLYLINE
  5
357
330
319
100
AcDbEntity
  8
0
  6
Continuous
 62
     7
370
    15
100
AcDbPolyline
 90
       12
 70
   128
 43
0.0
 10
-91.7672009934
 20
1.5647270228
 10
-92.8033984153
 20
1.7242925237
 10
-93.7609232261
 20
1.9313893008
 10
-94.620282982
 20
2.1818014609
 10
-95.3639835964
 20
2.4704313344
 10
-95.9768854695
 20
2.7914032495
 10
-96.4465116868
 20
3.1381831437
 10
-96.7633020125
 20
3.5037115782
 10
-96.9208075094
 20
3.8805474483
 10
-96.9158218196
 20
4.2610194624
 10
-96.7484464375
 20
4.6373823074
 10
-96.4220886431
 20
5.0019743212
  0
LWPOLYLINE
  5
359
330
319
100
AcDbEntity
  8
0
  6
Continuous
 62
     7
370
    15
100
AcDbPolyline
 90
       11
 70
   128
 43
0.0
 10
-91.3618709076
 20
3.0030747871
 10
-92.3349261775
 20
3.1557364058
 10
-93.2243569064
 20
3.3572583001
 10
-94.0082623579
 20
3.6026783322
 10
-94.6673401782
 20
3.8859534465
 10
-95.1853616839
 20
4.2001084694
 10
-95.5495714663
 20
4.5374078617
 10
-95.751001472
 20
4.8895461929
 10
-95.7846918256
 20
5.2478526487
 10
-95.6498129588
 20
5.6035045349
 10
-95.3496860369
 20
5.9477445217
  0
LWPOLYLINE
  5
35A
330
319
100
AcDbEntity
  8
0
  6
Continuous
 62
     7
370
    15
100
AcDbPolyline
 90
       10
 70
   128
 43
0.0
 10
-96.9387738693
 20
-11.9685884273
 10
-96.9208075094
 20
-12.147206259
 10
-96.7633020125
 20
-12.5240421292
 10
-96.4465116868
 20
-12.8895705637
 10
-95.9768854695
 20
-13.2363504579
 10
-95.3639835964
 20
-13.557322373
 10
-94.620282982
 20
-13.8459522465
 10
-93.7609232261
 20
-14.0963644065
 10
-92.8033984153
 20
-14.3034611836
 10
-91.7672009934
 20
-14.4630266846
  0
LWPOLYLINE
  5
35B
330
319
100
AcDbEntity
  8
0
  6
Continuous
 62
     7
370
    15
100
AcDbPolyline
 90
       12
 70
   128
 43
0.0
 10
-84.9466248328
 20
6.6371007544
 10
-85.7037596943
 20
6.7051022483
 10
-86.4861457218
 20
6.7225605513
 10
-87.263716259
 20
6.6888047505
 10
-88.0065897062
 20
6.6051320624
 10
-88.6862178535
 20
6.4747579817
 10
-89.2764829722
 20
6.3026927109
 10
-89.754701505
 20
6.0955486221
 10
-90.1024957817
 20
5.8612861463
 10
-90.3065002634
 20
5.6089078592
 10
-90.3588751723
 20
5.3481125168
 10
-90.2809388406
 20
5.124716584
  0
LWPOLYLINE
  5
35C
330
319
100
AcDbEntity
  8
0
  6
Continuous
 62
     7
370
    15
100
AcDbPolyline
 90
        9
 70
   128
 43
0.0
 10
-82.4407379491
 20
5.1247165838
 10
-82.4151765262
 20
5.1708553923
 10
-82.3628016174
 20
5.4316507347
 10
-82.4640690198
 20
5.6908409137
 10
-82.7150870839
 20
5.9384653961
 10
-83.1062093264
 20
6.1650081118
 10
-83.6224051387
 20
6.3617631513
 10
-84.2438374053
 20
6.5211693289
 10
-84.9466248328
 20
6.6371007544
  0
LWPOLYLINE
  5
35E
330
319
100
AcDbEntity
  8
0
  6
Continuous
 62
     7
370
    15
100
AcDbPolyline
 90
       34
 70
   128
 43
0.0
 10
10.6066017154
 20
27.7389197764
 10
8.6006863085
 20
27.9650117216
 10
6.5519227151
 20
28.1433754158
 10
4.4705177723
 20
28.2731222602
 10
2.3668409348
 20
28.3536058625
 10
0.2513726149
 20
28.3844252573
 10
-1.8653480308
 20
28.3654269042
 10
-3.9727756064
 20
28.2967054518
 10
-6.0604110138
 20
28.178603267
 10
-8.1178537583
 20
28.011708729
 10
-10.1348537638
 20
27.7968532979
 10
-12.1013624376
 20
27.5351073728
 10
-14.0075827325
 20
27.2277749585
 10
-15.8440179548
 20
26.8763871698
 10
-17.6015190766
 20
26.482694603
 10
-19.2713303158
 20
26.0486586145
 10
-20.8451327567
 20
25.57644155
 10
-22.3150857948
 20
25.0683959709
 10
-23.6738661979
 20
24.527052935
 10
-24.9147045904
 20
23.9551093858
 10
-26.031419178
 20
23.3554147175
 10
-27.0184465446
 20
22.7309565786
 10
-27.8708693696
 20
22.0848459883
 10
-28.5844409253
 20
21.420301837
 10
-29.1556062342
 20
20.7406348502
 10
-29.5815197794
 20
20.0492310946
 10
-29.8600596811
 20
19.3495351091
 10
-29.9898382674
 20
18.6450327437
 10
-29.970208988
 20
17.9392337939
 10
-29.801269635
 20
17.2356545145
 10
-29.4838618557
 20
16.5378001021
 10
-29.0195669598
 20
15.8491472323
 10
-28.4106980409
 20
15.173126739
 10
-28.2885522352
 20
15.0554818851
  0
LWPOLYLINE
  5
35F
330
319
100
AcDbEntity
  8
0
  6
Continuous
 62
     7
370
    15
100
AcDbPolyline
 90
       23
 70
   128
 43
0.0
 10
28.2885522352
 20
15.0554818851
 10
28.888019017
 20
15.6874039842
 10
29.3868691966
 20
16.3733666674
 10
29.7393154721
 20
17.0693500923
 10
29.9436019739
 20
17.7718869044
 10
29.9987109569
 20
18.4774771008
 10
29.9043678708
 20
19.1826054665
 10
29.6610427282
 20
19.8837590874
 10
29.2699477628
 20
20.5774448516
 10
28.7330313899
 20
21.2602068513
 10
28.0529685
 20
21.9286436008
 10
27.2331471321
 20
22.5794249817
 10
26.277651595
 20
23.2093088339
 10
25.1912421196
 20
23.8151571078
 10
23.979331143
 20
24.3939514977
 10
22.6479563449
 20
24.9428084791
 10
21.2037505675
 20
25.4589936741
 10
19.6539087713
 20
25.9399354741
 10
18.0061521903
 20
26.3832378511
 10
16.2686898648
 20
26.7866922951
 10
14.4501777447
 20
27.1482888163
 10
12.559675566
 20
27.466225959
 10
10.6066017154
 20
27.7389197764
  0
LWPOLYLINE
  5
360
330
319
100
AcDbEntity
  8
0
  6
Continuous
 62
     7
370
    15
100
AcDbPolyline
 90
       13
 70
   128
 43
0.0
 10
28.9741263883
 20
15.792051447
 10
28.4106980409
 20
16.4109761549
 10
27.6602884536
 20
17.0709963716
 10
26.7720767005
 20
17.7117281242
 10
25.7504878079
 20
18.3299793192
 10
24.6006112804
 20
18.9226698604
 10
23.328175745
 20
19.4868469933
 10
21.9395204114
 20
20.0197000158
 10
20.4415634907
 20
20.5185742809
 10
18.841767729
 20
20.9809844221
 10
17.1481032282
 20
21.4046267354
 10
15.3690077397
 20
21.7873906561
 10
15.0033832309
 20
21.8589294173
  0
LWPOLYLINE
  5
361
330
319
100
AcDbEntity
  8
0
  6
Continuous
 62
     7
370
    15
100
AcDbPolyline
 90
       13
 70
   128
 43
0.0
 10
-15.0033832309
 20
21.8589294173
 10
-16.7331922526
 20
21.4992615002
 10
-18.4479165996
 20
21.0851392502
 10
-20.0707343541
 20
20.6317302781
 10
-21.5935607196
 20
20.1412934447
 10
-23.0088090518
 20
19.6162720816
 10
-24.3094286547
 20
19.0592818188
 10
-25.4889399068
 20
18.4730975537
 10
-26.5414665424
 20
17.860639627
 10
-27.4617649268
 20
17.2249592731
 10
-28.2452501797
 20
16.5692234197
 10
-28.888019017
 20
15.8966989097
 10
-28.9741263883
 20
15.792051447
  0
LWPOLYLINE
  5
363
330
319
100
AcDbEntity
  8
0
  6
Continuous
 62
     7
370
    15
100
AcDbPolyline
 90
        8
 70
   128
 43
0.0
 10
14.4308696946
 20
9.8994949402
 10
14.95413281
 20
10.1694033738
 10
15.7290392473
 20
10.6422595924
 10
16.3697510677
 20
11.136931805
 10
16.8708019437
 20
11.6491996427
 10
17.2279170861
 20
12.1746926169
 10
17.4380497142
 20
12.7089274068
 10
17.5
 20
13.1993265825
  0
LWPOLYLINE
  5
364
330
319
100
AcDbEntity
  8
0
  6
Continuous
 62
     7
370
    15
100
AcDbPolyline
 90
        9
 70
   128
 43
0.0
 10
-17.5
 20
13.1993265825
 10
-17.4994070507
 20
13.1513070555
 10
-17.4114656163
 20
12.6132980384
 10
-17.1749756964
 20
12.0802888103
 10
-16.7919549396
 20
11.5568268178
 10
-16.2656711439
 20
11.0473780542
 10
-15.6006143772
 20
10.5562889567
 10
-14.8024586691
 20
10.0877493243
 10
-14.4308696946
 20
9.8994949402
  0
LWPOLYLINE
  5
365
330
319
100
AcDbEntity
  8
0
  6
Continuous
 62
     7
370
    15
100
AcDbPolyline
 90
       69
 70
   128
 43
0.0
 10
-6.187184334
 20
13.3995971443
 10
-4.6503808205
 20
13.2325801856
 10
-3.0739018976
 20
13.1135418049
 10
-1.4711975275
 20
13.0434975955
 10
0.1440585811
 20
13.02304515
 10
1.7580856328
 20
13.0523589615
 10
3.3571133177
 20
13.1311889348
 10
4.9274992954
 20
13.2588625203
 10
6.4558455866
 20
13.4342904522
 10
7.9291128795
 20
13.6559760411
 10
9.334731777
 20
13.9220279437
 10
10.6607100343
 20
14.230176299
 10
11.8957348725
 20
14.5777920939
 10
13.0292694951
 20
14.961909593
 10
14.0516429843
 20
15.3792516412
 10
14.95413281
 20
15.8262576234
 10
15.7290392473
 20
16.2991138421
 10
16.3697510677
 20
16.7937860547
 10
16.8708019437
 20
17.3060538924
 10
17.2279170861
 20
17.8315468666
 10
17.4380497142
 20
18.3657816565
 10
17.4994070507
 20
18.9042003592
 10
17.4114656163
 20
19.4422093763
 10
17.1749756964
 20
19.9752186045
 10
16.7919549396
 20
20.498680597
 10
16.2656711439
 20
21.0081293606
 10
15.6006143772
 20
21.4992184581
 10
14.8024586691
 20
21.9677580905
 10
13.878013603
 20
22.4097508428
 10
12.835166218
 20
22.8214257888
 10
11.6828137204
 20
23.1992706629
 10
10.4307875754
 20
23.5400618258
 10
9.0897696285
 20
23.8408917677
 10
7.6712009722
 20
24.0991939134
 10
6.187184334
 20
24.3127645201
 10
4.6503808205
 20
24.4797814788
 10
3.0739018976
 20
24.5988198595
 10
1.4711975275
 20
24.6688640689
 10
-0.1440585811
 20
24.6893165144
 10
-1.7580856328
 20
24.6600027029
 10
-3.3571133177
 20
24.5811727296
 10
-4.9274992954
 20
24.4534991441
 10
-6.4558455866
 20
24.2780712122
 10
-7.9291128795
 20
24.0563856234
 10
-9.334731777
 20
23.7903337207
 10
-10.6607100343
 20
23.4821853654
 10
-11.8957348725
 20
23.1345695705
 10
-13.0292694951
 20
22.7504520714
 10
-14.0516429843
 20
22.3331100232
 10
-14.95413281
 20
21.886104041
 10
-15.7290392473
 20
21.4132478223
 10
-16.3697510677
 20
20.9185756097
 10
-16.8708019437
 20
20.406307772
 10
-17.2279170861
 20
19.8808147978
 10
-17.4380497142
 20
19.3465800079
 10
-17.4994070507
 20
18.8081613052
 10
-17.4114656163
 20
18.2701522881
 10
-17.1749756964
 20
17.7371430599
 10
-16.7919549396
 20
17.2136810675
 10
-16.2656711439
 20
16.7042323039
 10
-15.6006143772
 20
16.2131432063
 10
-14.8024586691
 20
15.7446035739
 10
-13.878013603
 20
15.3026108216
 10
-12.835166218
 20
14.8909358756
 10
-11.6828137204
 20
14.5130910015
 10
-10.4307875754
 20
14.1722998386
 10
-9.0897696285
 20
13.8714698967
 10
-7.6712009722
 20
13.613167751
 10
-6.187184334
 20
13.3995971443
  0
LWPOLYLINE
  5
366
330
319
100
AcDbEntity
  8
0
  6
Continuous
 62
     7
370
    15
100
AcDbPolyline
 90
       60
 70
   128
 43
0.0
 10
4.7729707719
 20
23.0655453915
 10
6.0882150333
 20
22.8725866002
 10
7.3344773857
 20
22.6341203267
 10
8.4976371785
 20
22.3528484892
 10
9.5645153466
 20
22.0319580099
 10
10.5230237341
 20
21.6750847062
 10
11.3623020579
 20
21.2862720952
 10
12.0728409592
 20
20.8699255792
 10
12.6465897484
 20
20.4307625306
 10
13.0770476224
 20
19.9737588422
 10
13.3593373216
 20
19.5040925483
 10
13.4902603907
 20
19.0270851558
 10
13.4683334192
 20
18.5481413491
 10
13.2938048484
 20
18.0726877527
 10
12.9686521567
 20
17.6061114461
 10
12.4965594541
 20
17.153698925
 10
11.8828757395
 20
16.7205762043
 10
11.1345542946
 20
16.3116507373
 10
10.2600739004
 20
15.9315558131
 10
9.2693427692
 20
15.5845980589
 10
8.1735862805
 20
15.2747086448
 10
6.9852197934
 20
15.0053987417
 10
5.7177079748
 20
14.7797197384
 10
4.3854122401
 20
14.6002286681
 10
3.0034280325
 20
14.4689592365
 10
1.5874137852
 20
14.3873987785
 10
0.1534135053
 20
14.3564714069
 10
-1.2823250108
 20
14.376527541
 10
-2.7035342722
 20
14.447339937
 10
-4.09411141
 20
14.5681062619
 10
-5.4383006296
 20
14.7374581852
 10
-6.72087173
 20
14.9534768818
 10
-7.9272926683
 20
15.2137147736
 10
-9.0438942129
 20
15.5152232613
 10
-10.0580248224
 20
15.8545861332
 10
-10.9581939917
 20
16.2279582725
 10
-11.7342024444
 20
16.6311092236
 10
-12.3772576947
 20
17.059471125
 10
-12.8800736695
 20
17.5081904654
 10
-13.2369532631
 20
17.9721830753
 10
-13.443852887
 20
18.446191733
 10
-13.4984282857
 20
18.924845731
 10
-13.4000610983
 20
19.4027217283
 10
-13.1498658643
 20
19.8744051988
 10
-12.7506773956
 20
20.3345517804
 10
-12.2070186571
 20
20.7779478284
 10
-11.5250495195
 20
21.1995694885
 10
-10.7124969657
 20
21.5946396187
 10
-9.7785675408
 20
21.9586819166
 10
-8.7338430384
 20
22.2875716375
 10
-7.5901606044
 20
22.5775823296
 10
-6.3604786179
 20
22.8254280556
 10
-5.0587298672
 20
23.0283006246
 10
-3.6996636857
 20
23.1839014092
 10
-2.2986788363
 20
23.2904673904
 10
-0.8716490372
 20
23.3467911331
 10
0.5652568938
 20
23.3522344667
 10
1.9957582383
 20
23.3067357161
 10
3.4036468445
 20
23.2108104003
 10
4.7729707719
 20
23.0655453915
  0
LWPOLYLINE
  5
367
330
319
100
AcDbEntity
  8
0
  6
Continuous
 62
     7
370
    15
100
AcDbPolyline
 90
       22
 70
   128
 43
0.0
 10
4.5961940767
 20
22.4382384796
 10
3.2544819372
 20
22.5801222413
 10
1.8746139727
 20
22.6728194079
 10
0.4727678733
 20
22.7152431897
 10
-0.9346209972
 20
22.7068962068
 10
-2.331052291
 20
22.6478763199
 10
-3.700154128
 20
22.5388754831
 10
-5.0258750409
 20
22.3811716317
 10
-6.2926721642
 20
22.1766136991
 10
-7.4856934598
 20
21.92759994
 10
-8.5909518438
 20
21.6370498132
 10
-9.5954891722
 20
21.3083697531
 10
-10.4875281634
 20
20.9454132329
 10
-11.2566104756
 20
20.5524355861
 10
-11.893719322
 20
20.1340441162
 10
-12.391385184
 20
19.6951440806
 10
-12.7437733841
 20
19.2408811811
 10
-12.9467524931
 20
18.7765812346
 10
-12.9979427665
 20
18.3076877337
 10
-12.896744045
 20
17.8396980259
 10
-12.6443427912
 20
17.3780988626
 10
-12.3765781827
 20
17.0589510975
  0
LWPOLYLINE
  5
368
330
319
100
AcDbEntity
  8
0
  6
Continuous
 62
     7
370
    15
100
AcDbPolyline
 90
       16
 70
   128
 43
0.0
 10
12.3765781827
 20
17.0589510975
 10
12.391385184
 20
17.0744085422
 10
12.7437733841
 20
17.5286714417
 10
12.9467524931
 20
17.9929713882
 10
12.9979427665
 20
18.4618648891
 10
12.896744045
 20
18.9298545969
 10
12.6443427912
 20
19.3914537602
 10
12.2436981791
 20
19.8412505508
 10
11.6995074003
 20
20.2739715127
 10
11.0181505941
 20
20.6845433881
 10
10.2076160463
 20
21.0681525972
 10
9.2774065332
 20
21.4203016728
 10
8.238427911
 20
21.736861989
 10
7.1028612539
 20
22.0141221654
 10
5.8840200429
 20
22.24883158
 10
4.5961940767
 20
22.4382384796
  0
LWPOLYLINE
  5
36A
330
319
100
AcDbEntity
  8
0
  6
Continuous
 62
     7
370
    15
100
AcDbPolyline
 90
       12
 70
   128
 43
0.0
 10
87.7750519569
 20
32.6268901257
 10
87.0179170954
 20
32.6948916196
 10
86.2355310679
 20
32.7123499225
 10
85.4579605307
 20
32.6785941218
 10
84.7150870835
 20
32.5949214337
 10
84.0354589362
 20
32.4645473529
 10
83.4451938174
 20
32.2924820822
 10
82.9669752847
 20
32.0853379934
 10
82.6191810079
 20
31.8510755176
 10
82.4151765262
 20
31.5986972305
 10
82.3628016174
 20
31.3379018881
 10
82.4407379495
 20
31.1145059544
  0
LWPOLYLINE
  5
36B
330
319
100
AcDbEntity
  8
0
  6
Continuous
 62
     7
370
    15
100
AcDbPolyline
 90
        9
 70
   128
 43
0.0
 10
90.2809388401
 20
31.1145059544
 10
90.3065002634
 20
31.1606447636
 10
90.3588751723
 20
31.421440106
 10
90.2576077699
 20
31.680630285
 10
90.0065897058
 20
31.9282547674
 10
89.6154674633
 20
32.1547974831
 10
89.099271651
 20
32.3515525226
 10
88.4778393843
 20
32.5109587002
 10
87.7750519569
 20
32.6268901257
  0
LWPOLYLINE
  5
36C
330
319
100
AcDbEntity
  8
0
  6
Continuous
 62
     7
370
    15
100
AcDbPolyline
 90
        7
 70
   128
 43
0.0
 10
96.4220886431
 20
31.7675783006
 10
96.4465116868
 20
31.7457513959
 10
96.7633020125
 20
31.3802229614
 10
96.9208075094
 20
31.0033870913
 10
96.9158218196
 20
30.6229150772
 10
96.7484464375
 20
30.2465522321
 10
96.4220886431
 20
29.8819602183
  0
LWPOLYLINE
  5
36D
330
319
100
AcDbEntity
  8
0
  6
Continuous
 62
     7
370
    15
100
AcDbPolyline
 90
       10
 70
   128
 43
0.0
 10
92.509512083
 20
33.8556073989
 10
93.2243569064
 20
33.6884366976
 10
94.0082623579
 20
33.4430166655
 10
94.6673401782
 20
33.1597415513
 10
95.1853616839
 20
32.8455865283
 10
95.5495714663
 20
32.508287136
 10
95.751001472
 20
32.1561488048
 10
95.7846918256
 20
31.797842349
 10
95.6498129588
 20
31.4421904628
 10
95.3496860369
 20
31.097950476
  0
LWPOLYLINE
  5
36F
330
319
100
AcDbEntity
  8
0
  6
Continuous
 62
     7
370
    15
100
AcDbPolyline
 90
       12
 70
   128
 43
0.0
 10
-37.5704705042
 20
48.4189415648
 10
-38.3276053657
 20
48.4869430587
 10
-39.1099913932
 20
48.5044013617
 10
-39.8875619304
 20
48.4706455609
 10
-40.6304353776
 20
48.3869728728
 10
-41.3100635248
 20
48.2565987921
 10
-41.9003286436
 20
48.0845335213
 10
-42.3785471764
 20
47.8773894325
 10
-42.7263414531
 20
47.6431269567
 10
-42.9303459348
 20
47.3907486696
 10
-42.9827208436
 20
47.1299533272
 10
-42.9047845115
 20
46.9065573935
  0
LWPOLYLINE
  5
370
330
319
100
AcDbEntity
  8
0
  6
Continuous
 62
     7
370
    15
100
AcDbPolyline
 90
        9
 70
   128
 43
0.0
 10
-35.0645836209
 20
46.9065573935
 10
-35.0390221976
 20
46.9526962027
 10
-34.9866472888
 20
47.2134915451
 10
-35.0879146911
 20
47.4726817241
 10
-35.3389327553
 20
47.7203062065
 10
-35.7300549977
 20
47.9468489222
 10
-36.2462508101
 20
48.1436039617
 10
-36.8676830767
 20
48.3030101393
 10
-37.5704705042
 20
48.4189415648
  0
LINE
  5
372
330
319
100
AcDbEntity
  8
0
  6
Continuous
 62
     7
370
    15
100
AcDbLine
 10
-96.9387738693
 20
4.0591652801
 30
0.0
 11
-96.9387738693
 21
-11.9685884273
 31
0.0
  0
LINE
  5
373
330
319
100
AcDbEntity
  8
0
  6
Continuous
 62
     7
370
    15
100
AcDbLine
 10
-96.4220886431
 20
-12.9113974684
 30
0.0
 11
-95.018967123
 21
-14.1488343356
 31
0.0
  0
LINE
  5
374
330
319
100
AcDbEntity
  8
0
  6
Continuous
 62
     7
370
    15
100
AcDbLine
 10
-17.5
 20
18.8561808322
 30
0.0
 11
-17.5
 21
13.1993265825
 31
0.0
  0
LINE
  5
375
330
319
100
AcDbEntity
  8
0
  6
Continuous
 62
     7
370
    15
100
AcDbLine
 10
17.5
 20
13.1993265825
 30
0.0
 11
17.5
 21
18.8561808322
 31
0.0
  0
LINE
  5
376
330
319
100
AcDbEntity
  8
0
  6
Continuous
 62
     7
370
    15
100
AcDbLine
 10
96.4220886431
 20
31.7675783006
 30
0.0
 11
95.3496860369
 21
32.7133485011
 31
0.0
  0
LINE
  5
377
330
319
100
AcDbEntity
  8
0
  6
Continuous
 62
     7
370
    15
100
AcDbLine
 10
92.509512083
 20
33.8556073989
 30
0.0
 11
92.0648061712
 21
33.9460896022
 31
0.0
  0
LINE
  5
378
330
319
100
AcDbEntity
  8
0
  6
Continuous
 62
     7
370
    15
100
AcDbLine
 10
96.9387738693
 20
14.7970155521
 30
0.0
 11
96.9387738693
 21
30.8247692595
 31
0.0
  0
LINE
  5
379
330
319
100
AcDbEntity
  8
0
  6
Continuous
 62
     7
370
    15
100
AcDbLine
 10
-43.2744382806
 20
50.2095455619
 30
0.0
 11
-43.7191441923
 21
50.1190633586
 31
0.0
  0
LINE
  5
37A
330
319
100
AcDbEntity
  8
0
  6
Continuous
 62
     7
370
    15
100
AcDbLine
 10
-45.760892059
 20
49.2095455624
 30
0.0
 11
-94.5512599497
 21
6.1804856234
 31
0.0
  0
LINE
  5
37B
330
319
100
AcDbEntity
  8
0
  6
Continuous
 62
     7
370
    15
100
AcDbLine
 10
91.0600942124
 20
34.1098115149
 30
0.0
 11
-38.0270856356
 21
50.3732674746
 31
0.0
  0
LINE
  5
37C
330
319
100
AcDbEntity
  8
0
  6
Continuous
 62
     7
370
    15
100
AcDbLine
 10
45.760892059
 20
-11.497183898
 30
0.0
 11
94.5512599497
 21
31.531876041
 31
0.0
  0
LINE
  5
37D
330
319
100
AcDbEntity
  8
0
  6
Continuous
 62
     7
370
    15
100
AcDbLine
 10
-20.9040182081
 20
-5.2362846112
 30
0.0
 11
38.0270856356
 21
-12.6609058102
 31
0.0
  0
LINE
  5
37E
330
319
100
AcDbEntity
  8
0
  6
Continuous
 62
     7
370
    15
100
AcDbLine
 10
-20.9040182081
 20
-5.2362846112
 30
0.0
 11
-18.9772135577
 21
-3.5370026345
 31
0.0
  0
LINE
  5
37F
330
319
100
AcDbEntity
  8
0
  6
Continuous
 62
     7
370
    15
100
AcDbLine
 10
-30.2021857184
 20
-2.1227890728
 30
0.0
 11
-32.1289903688
 21
-3.8220710495
 31
0.0
  0
LINE
  5
380
330
319
100
AcDbEntity
  8
0
  6
Continuous
 62
     7
370
    15
100
AcDbLine
 10
-91.0600942124
 20
3.6025501495
 30
0.0
 11
-32.1289903688
 21
-3.8220710495
 31
0.0
  0
LINE
  5
381
330
319
100
AcDbEntity
  8
0
  6
Continuous
 62
     7
370
    15
100
AcDbLine
 10
37.7253089403
 20
-13.2603811725
 30
0.0
 11
-21.2057949033
 21
-5.8357599736
 31
0.0
  0
LINE
  5
382
330
319
100
AcDbEntity
  8
0
  6
Continuous
 62
     7
370
    15
100
AcDbLine
 10
37.3199788545
 20
-14.6987289369
 30
0.0
 11
-21.6111249891
 21
-7.2741077379
 31
0.0
  0
LINE
  5
383
330
319
100
AcDbEntity
  8
0
  6
Continuous
 62
     7
370
    15
100
AcDbLine
 10
-21.6111249891
 20
-7.2741077379
 30
0.0
 11
-21.2057949033
 21
-5.8357599736
 31
0.0
  0
LINE
  5
384
330
319
100
AcDbEntity
  8
0
  6
Continuous
 62
     7
370
    15
100
AcDbLine
 10
-21.6111249891
 20
-7.2741077379
 30
0.0
 11
-21.6111249891
 21
-13.4023665084
 31
0.0
  0
LINE
  5
385
330
319
100
AcDbEntity
  8
0
  6
Continuous
 62
     7
370
    15
100
AcDbLine
 10
-91.7672009934
 20
-14.4630266846
 30
0.0
 11
37.3199788545
 21
-30.7264826443
 31
0.0
  0
LINE
  5
386
330
319
100
AcDbEntity
  8
0
  6
Continuous
 62
     7
370
    15
100
AcDbLine
 10
-32.8360971498
 20
-5.8598941762
 30
0.0
 11
-91.7672009934
 21
1.5647270228
 31
0.0
  0
LINE
  5
387
330
319
100
AcDbEntity
  8
0
  6
Continuous
 62
     7
370
    15
100
AcDbLine
 10
-32.8360971498
 20
-11.9881529467
 30
0.0
 11
-32.8360971498
 21
-5.8598941762
 31
0.0
  0
LINE
  5
388
330
319
100
AcDbEntity
  8
0
  6
Continuous
 62
     7
370
    15
100
AcDbLine
 10
-21.6111249891
 20
-13.4023665084
 30
0.0
 11
-32.8360971498
 21
-11.9881529467
 31
0.0
  0
LINE
  5
389
330
319
100
AcDbEntity
  8
0
  6
Continuous
 62
     7
370
    15
100
AcDbLine
 10
-21.2057949033
 20
-5.8357599736
 30
0.0
 11
-20.9040182081
 21
-5.2362846112
 31
0.0
  0
LINE
  5
38A
330
319
100
AcDbEntity
  8
0
  6
Continuous
 62
     7
370
    15
100
AcDbLine
 10
46.2285992323
 20
-30.4122902953
 30
0.0
 11
96.4220886431
 21
13.854206511
 31
0.0
  0
LINE
  5
38B
330
319
100
AcDbEntity
  8
0
  6
Continuous
 62
     7
370
    15
100
AcDbLine
 10
96.4220886431
 20
29.8819602183
 30
0.0
 11
47.6317207524
 21
-13.1470997207
 31
0.0
  0
LINE
  5
38C
330
319
100
AcDbEntity
  8
0
  6
Continuous
 62
     7
370
    15
100
AcDbLine
 10
95.3496860369
 20
31.097950476
 30
0.0
 11
46.5593181462
 21
-11.9311094631
 31
0.0
  0
LINE
  5
38D
330
319
100
AcDbEntity
  8
0
  6
Continuous
 62
     7
370
    15
100
AcDbLine
 10
37.8503089403
 20
-31.6729890335
 30
0.0
 11
-91.2368709076
 21
-15.4095330738
 31
0.0
  0
LINE
  5
38E
330
319
100
AcDbEntity
  8
0
  6
Continuous
 62
     7
370
    15
100
AcDbLine
 10
-0.472639085
 20
-18.1586274072
 30
0.0
 11
-0.5351484054
 21
-18.2165204215
 31
0.0
  0
LINE
  5
38F
330
319
100
AcDbEntity
  8
0
  6
Continuous
 62
     7
370
    15
100
AcDbLine
 10
-30.2021857184
 20
-9.6652614057
 30
0.0
 11
-32.8360971498
 21
-11.9881529467
 31
0.0
  0
LINE
  5
390
330
319
100
AcDbEntity
  8
0
  6
Continuous
 62
     7
370
    15
100
AcDbLine
 10
-32.430767064
 20
-4.4215464118
 30
0.0
 11
-32.8360971498
 21
-5.8598941762
 31
0.0
  0
LINE
  5
391
330
319
100
AcDbEntity
  8
0
  6
Continuous
 62
     7
370
    15
100
AcDbLine
 10
-32.1289903688
 20
-3.8220710495
 30
0.0
 11
-32.430767064
 21
-4.4215464118
 31
0.0
  0
LINE
  5
392
330
319
100
AcDbEntity
  8
0
  6
Continuous
 62
     7
370
    15
100
AcDbLine
 10
-32.430767064
 20
-4.4215464118
 30
0.0
 11
-91.3618709076
 21
3.0030747871
 31
0.0
  0
LINE
  5
393
330
319
100
AcDbEntity
  8
0
  6
Continuous
 62
     7
370
    15
100
AcDbLine
 10
-56.5974998884
 20
-11.0875595987
 30
0.0
 11
-56.6600092088
 21
-11.1454526129
 31
0.0
  0
LINE
  5
394
330
319
100
AcDbEntity
  8
0
  6
Continuous
 62
     7
370
    15
100
AcDbLine
 10
-96.4220886431
 20
5.0019743212
 30
0.0
 11
-46.5593181462
 21
48.9768044608
 31
0.0
  0
ARC
  5
395
330
319
100
AcDbEntity
  8
0
  6
Continuous
 62
     7
370
    15
100
AcDbCircle
 10
40.2686678974
 20
-1.2775660206
 30
0.0
 40
11.60194448361533
100
AcDbArc
 50
258.8599724295
 51
298.2544607343
  0
ARC
  5
396
330
319
100
AcDbEntity
  8
0
  6
Continuous
 62
     7
370
    15
100
AcDbCircle
 10
-40.2686678974
 20
38.989927685
 30
0.0
 40
11.60194448361525
100
AcDbArc
 50
78.8599724295
 51
118.2544607343
  0
ARC
  5
397
330
319
100
AcDbEntity
  8
0
  6
Continuous
 62
     7
370
    15
100
AcDbCircle
 10
40.2598139492
 20
-19.21559389
 30
0.0
 40
12.68827837603273
100
AcDbArc
 50
259.0530472796
 51
298.0613858842
  0
ARC
  5
398
330
319
100
AcDbEntity
  8
0
  6
Continuous
 62
     7
370
    15
100
AcDbCircle
 10
-24.5557273498
 20
-20.4290329288
 30
0.0
 40
12.15488665145097
100
AcDbArc
 50
75.9802308023
 51
117.6806011467
  0
ARC
  5
399
330
319
100
AcDbEntity
  8
0
  6
Continuous
 62
     7
370
    15
100
AcDbCircle
 10
-90.8938689579
 20
-8.0770335308
 30
0.0
 40
7.340517685106241
100
AcDbArc
 50
235.8083498152
 51
267.3217525466
  0
ARC
  5
39A
330
319
100
AcDbEntity
  8
0
  6
Continuous
 62
     7
370
    15
100
AcDbCircle
 10
0.0
 20
-20.0660025088
 30
0.0
 40
35.72501563299821
100
AcDbArc
 50
78.8721768621
 51
101.1278231379
  0
ARC
  5
39B
330
319
100
AcDbEntity
  8
0
  6
Continuous
 62
     7
370
    15
100
AcDbCircle
 10
95.6824499212
 20
14.8725321888
 30
0.0
 40
1.258591524269413
100
AcDbArc
 50
305.9919641635
 51
356.5601350049
  0
ARC
  5
39C
330
319
100
AcDbEntity
  8
0
  6
Continuous
 62
     7
370
    15
100
AcDbCircle
 10
-42.5916254094
 20
43.2134299388
 30
0.0
 40
6.997075927463722
100
AcDbArc
 50
99.2731547854
 51
124.5447766808
  0
VIEWPORT
  5
3A6
330
319
100
AcDbEntity
  8
0
100
AcDbViewport
 10
0.0
 20
0.0
 30
0.0
 40
243.84
 41
204.216
 68
     1
 69
     1
 12
0.0
 22
0.0
 13
0.0
 23
0.0
 14
10.0
 24
10.0
 15
10.0
 25
10.0
 16
0.0
 26
0.0
 36
1.0
 17
0.0
 27
0.0
 37
0.0
 42
50.0
 43
0.0
 44
0.0
 45
157.08
 50
0.0
 51
0.0
 72
   100
 90
   557152
  1

281
     0
 71
     1
 74
     0
110
0.0
120
0.0
130
0.0
111
1.0
121
0.0
131
0.0
112
0.0
122
1.0
132
0.0
 79
     0
146
0.0
  0
ENDBLK
  5
31C
330
319
100
AcDbEntity
  8
0
100
AcDbBlockEnd
  0
ENDSEC
  0
SECTION
  2
ENTITIES
  0
CIRCLE
  5
49
330
1F
100
AcDbEntity
  8
0
  6
Continuous
 62
     7
370
    15
100
AcDbCircle
 10
0.0
 20
0.0
 30
0.0
 40
17.5
  0
CIRCLE
  5
4A
330
1F
100
AcDbEntity
  8
0
  6
Continuous
 62
     7
370
    15
100
AcDbCircle
 10
0.0
 20
0.0
 30
0.0
 40
13.50000000000008
  0
CIRCLE
  5
54
330
1F
100
AcDbEntity
  8
0
  6
Continuous
 62
     7
370
    15
100
AcDbCircle
 10
0.0
 20
0.0
 30
0.0
 40
30.0
  0
CIRCLE
  5
55
330
1F
100
AcDbEntity
  8
0
  6
Continuous
 62
     7
370
    15
100
AcDbCircle
 10
0.0
 20
0.0
 30
0.0
 40
30.49999999999998
  0
CIRCLE
  5
56
330
1F
100
AcDbEntity
  8
0
  6
Continuous
 62
     7
370
    15
100
AcDbCircle
 10
-67.0
 20
67.0
 30
0.0
 40
4.000000000000014
  0
CIRCLE
  5
57
330
1F
100
AcDbEntity
  8
0
  6
Continuous
 62
     7
370
    15
100
AcDbCircle
 10
-67.0
 20
67.0
 30
0.0
 40
4.500000000000028
  0
CIRCLE
  5
58
330
1F
100
AcDbEntity
  8
0
  6
Continuous
 62
     7
370
    15
100
AcDbCircle
 10
-67.0
 20
-67.0
 30
0.0
 40
4.000000000000007
  0
CIRCLE
  5
59
330
1F
100
AcDbEntity
  8
0
  6
Continuous
 62
     7
370
    15
100
AcDbCircle
 10
-67.0
 20
-67.0
 30
0.0
 40
4.500000000000064
  0
CIRCLE
  5
5F
330
1F
100
AcDbEntity
  8
0
  6
Continuous
 62
     7
370
    15
100
AcDbCircle
 10
67.0
 20
67.0
 30
0.0
 40
4.500000000000071
  0
CIRCLE
  5
60
330
1F
100
AcDbEntity
  8
0
  6
Continuous
 62
     7
370
    15
100
AcDbCircle
 10
67.0
 20
-67.0
 30
0.0
 40
4.499999999999943
  0
CIRCLE
  5
62
330
1F
100
AcDbEntity
  8
0
  6
Continuous
 62
     7
370
    15
100
AcDbCircle
 10
67.0
 20
67.0
 30
0.0
 40
4.000000000000014
  0
CIRCLE
  5
63
330
1F
100
AcDbEntity
  8
0
  6
Continuous
 62
     7
370
    15
100
AcDbCircle
 10
0.0
 20
0.0
 30
0.0
 40
13.00000000000001
  0
CIRCLE
  5
66
330
1F
100
AcDbEntity
  8
0
  6
Continuous
 62
     7
370
    15
100
AcDbCircle
 10
67.0
 20
-67.0
 30
0.0
 40
4.000000000000028
  0
CIRCLE
  5
74
330
1F
100
AcDbEntity
  8
0
  6
Continuous
 62
     7
370
    15
100
AcDbCircle
 10
0.0
 20
0.0
 30
0.0
 40
7.999999999999998
  0
LINE
  5
75
330
1F
100
AcDbEntity
  8
0
  6
Continuous
 62
     7
370
    15
100
AcDbLine
 10
-6.0
 20
-75.8535533906
 30
0.0
 11
-69.0
 21
-75.8535533906
 31
0.0
  0
LINE
  5
76
330
1F
100
AcDbEntity
  8
0
  6
Continuous
 62
     7
370
    15
100
AcDbLine
 10
-69.0
 20
-75.0
 30
0.0
 11
-6.0
 21
-75.0
 31
0.0
  0
LINE
  5
77
330
1F
100
AcDbEntity
  8
0
  6
Continuous
 62
     7
370
    15
100
AcDbLine
 10
-6.0
 20
-69.5501734615
 30
0.0
 11
-6.0
 21
-77.0
 31
0.0
  0
LINE
  5
78
330
1F
100
AcDbEntity
  8
0
  6
Continuous
 62
     7
370
    15
100
AcDbLine
 10
-69.0
 20
75.8535533906
 30
0.0
 11
69.0
 21
75.8535533906
 31
0.0
  0
LINE
  5
79
330
1F
100
AcDbEntity
  8
0
  6
Continuous
 62
     7
370
    15
100
AcDbLine
 10
69.0
 20
75.0
 30
0.0
 11
-69.0
 21
75.0
 31
0.0
  0
LINE
  5
7A
330
1F
100
AcDbEntity
  8
0
  6
Continuous
 62
     7
370
    15
100
AcDbLine
 10
6.0
 20
-75.0
 30
0.0
 11
69.0
 21
-75.0
 31
0.0
  0
LINE
  5
7B
330
1F
100
AcDbEntity
  8
0
  6
Continuous
 62
     7
370
    15
100
AcDbLine
 10
69.0
 20
-75.8535533906
 30
0.0
 11
6.0
 21
-75.8535533906
 31
0.0
  0
LINE
  5
7C
330
1F
100
AcDbEntity
  8
0
  6
Continuous
 62
     7
370
    15
100
AcDbLine
 10
6.0
 20
-77.0
 30
0.0
 11
6.0
 21
-69.5501734615
 31
0.0
  0
LINE
  5
7D
330
1F
100
AcDbEntity
  8
0
  6
Continuous
 62
     7
370
    15
100
AcDbLine
 10
-75.0
 20
69.0
 30
0.0
 11
-75.0
 21
-69.0
 31
0.0
  0
LINE
  5
7E
330
1F
100
AcDbEntity
  8
0
  6
Continuous
 62
     7
370
    15
100
AcDbLine
 10
75.0
 20
-69.0
 30
0.0
 11
75.0
 21
69.0
 31
0.0
  0
LINE
  5
7F
330
1F
100
AcDbEntity
  8
0
  6
Continuous
 62
     7
370
    15
100
AcDbLine
 10
75.8535533906
 20
69.0
 30
0.0
 11
75.8535533906
 21
-69.0
 31
0.0
  0
LINE
  5
80
330
1F
100
AcDbEntity
  8
0
  6
Continuous
 62
     7
370
    15
100
AcDbLine
 10
-75.8535533906
 20
-69.0
 30
0.0
 11
-75.8535533906
 21
69.0
 31
0.0
  0
LINE
  5
81
330
1F
100
AcDbEntity
  8
0
  6
Continuous
 62
     7
370
    15
100
AcDbLine
 10
-69.0
 20
77.0
 30
0.0
 11
69.0
 21
77.0
 31
0.0
  0
LINE
  5
82
330
1F
100
AcDbEntity
  8
0
  6
Continuous
 62
     7
370
    15
100
AcDbLine
 10
-77.0
 20
-69.0
 30
0.0
 11
-77.0
 21
69.0
 31
0.0
  0
LINE
  5
83
330
1F
100
AcDbEntity
  8
0
  6
Continuous
 62
     7
370
    15
100
AcDbLine
 10
69.0
 20
-77.0
 30
0.0
 11
-69.0
 21
-77.0
 31
0.0
  0
LINE
  5
84
330
1F
100
AcDbEntity
  8
0
  6
Continuous
 62
     7
370
    15
100
AcDbLine
 10
77.0
 20
69.0
 30
0.0
 11
77.0
 21
-69.0
 31
0.0
  0
ARC
  5
85
330
1F
100
AcDbEntity
  8
0
  6
Continuous
 62
     7
370
    15
100
AcDbCircle
 10
69.0
 20
-69.0
 30
0.0
 40
5.999999999999957
100
AcDbArc
 50
270.0
 51
0.0
  0
ARC
  5
86
330
1F
100
AcDbEntity
  8
0
  6
Continuous
 62
     7
370
    15
100
AcDbCircle
 10
69.0
 20
-69.0
 30
0.0
 40
6.853553390593333
100
AcDbArc
 50
270.0
 51
0.0
  0
ARC
  5
87
330
1F
100
AcDbEntity
  8
0
  6
Continuous
 62
     7
370
    15
100
AcDbCircle
 10
69.0
 20
69.0
 30
0.0
 40
5.999999999999929
100
AcDbArc
 50
0.0
 51
90.0
  0
ARC
  5
88
330
1F
100
AcDbEntity
  8
0
  6
Continuous
 62
     7
370
    15
100
AcDbCircle
 10
69.0
 20
69.0
 30
0.0
 40
6.853553390593348
100
AcDbArc
 50
0.0
 51
90.0
  0
ARC
  5
89
330
1F
100
AcDbEntity
  8
0
  6
Continuous
 62
     7
370
    15
100
AcDbCircle
 10
-69.0
 20
-69.0
 30
0.0
 40
5.999999999999957
100
AcDbArc
 50
180.0
 51
270.0
  0
ARC
  5
8A
330
1F
100
AcDbEntity
  8
0
  6
Continuous
 62
     7
370
    15
100
AcDbCircle
 10
-69.0
 20
-69.0
 30
0.0
 40
6.853553390593348
100
AcDbArc
 50
180.0
 51
270.0
  0
ARC
  5
8B
330
1F
100
AcDbEntity
  8
0
  6
Continuous
 62
     7
370
    15
100
AcDbCircle
 10
-69.0
 20
69.0
 30
0.0
 40
5.999999999999929
100
AcDbArc
 50
90.0
 51
180.0
  0
ARC
  5
8C
330
1F
100
AcDbEntity
  8
0
  6
Continuous
 62
     7
370
    15
100
AcDbCircle
 10
0.0
 20
-69.5501734615
 30
0.0
 40
6.000000000000004
100
AcDbArc
 50
0.0
 51
180.0
  0
ARC
  5
8D
330
1F
100
AcDbEntity
  8
0
  6
Continuous
 62
     7
370
    15
100
AcDbCircle
 10
-69.0
 20
69.0
 30
0.0
 40
6.853553390593348
100
AcDbArc
 50
90.0
 51
180.0
  0
ARC
  5
8E
330
1F
100
AcDbEntity
  8
0
  6
Continuous
 62
     7
370
    15
100
AcDbCircle
 10
-69.0
 20
-69.0
 30
0.0
 40
8.0
100
AcDbArc
 50
180.0
 51
270.0
  0
ARC
  5
8F
330
1F
100
AcDbEntity
  8
0
  6
Continuous
 62
     7
370
    15
100
AcDbCircle
 10
69.0
 20
69.0
 30
0.0
 40
8.000000000000014
100
AcDbArc
 50
0.0
 51
90.0
  0
ARC
  5
90
330
1F
100
AcDbEntity
  8
0
  6
Continuous
 62
     7
370
    15
100
AcDbCircle
 10
-69.0
 20
69.0
 30
0.0
 40
8.000000000000043
100
AcDbArc
 50
90.0
 51
180.0
  0
ARC
  5
91
330
1F
100
AcDbEntity
  8
0
  6
Continuous
 62
     7
370
    15
100
AcDbCircle
 10
69.0
 20
-69.0
 30
0.0
 40
8.000000000000014
100
AcDbArc
 50
270.0
 51
0.0
  0
CIRCLE
  5
97
330
1B
100
AcDbEntity
 67
     1
  8
0
  6
Continuous
 62
     7
370
    15
100
AcDbCircle
 10
0.0
 20
0.0
 30
0.0
 40
17.5
  0
CIRCLE
  5
98
330
1B
100
AcDbEntity
 67
     1
  8
0
  6
Continuous
 62
     7
370
    15
100
AcDbCircle
 10
0.0
 20
0.0
 30
0.0
 40
13.50000000000008
  0
CIRCLE
  5
A2
330
1B
100
AcDbEntity
 67
     1
  8
0
  6
Continuous
 62
     7
370
    15
100
AcDbCircle
 10
0.0
 20
0.0
 30
0.0
 40
30.0
  0
CIRCLE
  5
A3
330
1B
100
AcDbEntity
 67
     1
  8
0
  6
Continuous
 62
     7
370
    15
100
AcDbCircle
 10
0.0
 20
0.0
 30
0.0
 40
30.49999999999998
  0
CIRCLE
  5
A4
330
1B
100
AcDbEntity
 67
     1
  8
0
  6
Continuous
 62
     7
370
    15
100
AcDbCircle
 10
-67.0
 20
67.0
 30
0.0
 40
4.000000000000014
  0
CIRCLE
  5
A5
330
1B
100
AcDbEntity
 67
     1
  8
0
  6
Continuous
 62
     7
370
    15
100
AcDbCircle
 10
-67.0
 20
67.0
 30
0.0
 40
4.500000000000028
  0
CIRCLE
  5
A6
330
1B
100
AcDbEntity
 67
     1
  8
0
  6
Continuous
 62
     7
370
    15
100
AcDbCircle
 10
-67.0
 20
-67.0
 30
0.0
 40
4.000000000000007
  0
CIRCLE
  5
A7
330
1B
100
AcDbEntity
 67
     1
  8
0
  6
Continuous
 62
     7
370
    15
100
AcDbCircle
 10
-67.0
 20
-67.0
 30
0.0
 40
4.500000000000064
  0
CIRCLE
  5
AD
330
1B
100
AcDbEntity
 67
     1
  8
0
  6
Continuous
 62
     7
370
    15
100
AcDbCircle
 10
67.0
 20
67.0
 30
0.0
 40
4.500000000000071
  0
CIRCLE
  5
AE
330
1B
100
AcDbEntity
 67
     1
  8
0
  6
Continuous
 62
     7
370
    15
100
AcDbCircle
 10
67.0
 20
-67.0
 30
0.0
 40
4.499999999999943
  0
CIRCLE
  5
B0
330
1B
100
AcDbEntity
 67
     1
  8
0
  6
Continuous
 62
     7
370
    15
100
AcDbCircle
 10
67.0
 20
67.0
 30
0.0
 40
4.000000000000014
  0
CIRCLE
  5
B1
330
1B
100
AcDbEntity
 67
     1
  8
0
  6
Continuous
 62
     7
370
    15
100
AcDbCircle
 10
0.0
 20
0.0
 30
0.0
 40
13.00000000000001
  0
CIRCLE
  5
B4
330
1B
100
AcDbEntity
 67
     1
  8
0
  6
Continuous
 62
     7
370
    15
100
AcDbCircle
 10
67.0
 20
-67.0
 30
0.0
 40
4.000000000000028
  0
CIRCLE
  5
C2
330
1B
100
AcDbEntity
 67
     1
  8
0
  6
Continuous
 62
     7
370
    15
100
AcDbCircle
 10
0.0
 20
0.0
 30
0.0
 40
7.999999999999998
  0
LINE
  5
C3
330
1B
100
AcDbEntity
 67
     1
  8
0
  6
Continuous
 62
     7
370
    15
100
AcDbLine
 10
-6.0
 20
-75.8535533906
 30
0.0
 11
-69.0
 21
-75.8535533906
 31
0.0
  0
LINE
  5
C4
330
1B
100
AcDbEntity
 67
     1
  8
0
  6
Continuous
 62
     7
370
    15
100
AcDbLine
 10
-69.0
 20
-75.0
 30
0.0
 11
-6.0
 21
-75.0
 31
0.0
  0
LINE
  5
C5
330
1B
100
AcDbEntity
 67
     1
  8
0
  6
Continuous
 62
     7
370
    15
100
AcDbLine
 10
-6.0
 20
-69.5501734615
 30
0.0
 11
-6.0
 21
-77.0
 31
0.0
  0
LINE
  5
C6
330
1B
100
AcDbEntity
 67
     1
  8
0
  6
Continuous
 62
     7
370
    15
100
AcDbLine
 10
-69.0
 20
75.8535533906
 30
0.0
 11
69.0
 21
75.8535533906
 31
0.0
  0
LINE
  5
C7
330
1B
100
AcDbEntity
 67
     1
  8
0
  6
Continuous
 62
     7
370
    15
100
AcDbLine
 10
69.0
 20
75.0
 30
0.0
 11
-69.0
 21
75.0
 31
0.0
  0
LINE
  5
C8
330
1B
100
AcDbEntity
 67
     1
  8
0
  6
Continuous
 62
     7
370
    15
100
AcDbLine
 10
6.0
 20
-75.0
 30
0.0
 11
69.0
 21
-75.0
 31
0.0
  0
LINE
  5
C9
330
1B
100
AcDbEntity
 67
     1
  8
0
  6
Continuous
 62
     7
370
    15
100
AcDbLine
 10
69.0
 20
-75.8535533906
 30
0.0
 11
6.0
 21
-75.8535533906
 31
0.0
  0
LINE
  5
CA
330
1B
100
AcDbEntity
 67
     1
  8
0
  6
Continuous
 62
     7
370
    15
100
AcDbLine
 10
6.0
 20
-77.0
 30
0.0
 11
6.0
 21
-69.5501734615
 31
0.0
  0
LINE
  5
CB
330
1B
100
AcDbEntity
 67
     1
  8
0
  6
Continuous
 62
     7
370
    15
100
AcDbLine
 10
-75.0
 20
69.0
 30
0.0
 11
-75.0
 21
-69.0
 31
0.0
  0
LINE
  5
CC
330
1B
100
AcDbEntity
 67
     1
  8
0
  6
Continuous
 62
     7
370
    15
100
AcDbLine
 10
75.0
 20
-69.0
 30
0.0
 11
75.0
 21
69.0
 31
0.0
  0
LINE
  5
CD
330
1B
100
AcDbEntity
 67
     1
  8
0
  6
Continuous
 62
     7
370
    15
100
AcDbLine
 10
75.8535533906
 20
69.0
 30
0.0
 11
75.8535533906
 21
-69.0
 31
0.0
  0
LINE
  5
CE
330
1B
100
AcDbEntity
 67
     1
  8
0
  6
Continuous
 62
     7
370
    15
100
AcDbLine
 10
-75.8535533906
 20
-69.0
 30
0.0
 11
-75.8535533906
 21
69.0
 31
0.0
  0
LINE
  5
CF
330
1B
100
AcDbEntity
 67
     1
  8
0
  6
Continuous
 62
     7
370
    15
100
AcDbLine
 10
-69.0
 20
77.0
 30
0.0
 11
69.0
 21
77.0
 31
0.0
  0
LINE
  5
D0
330
1B
100
AcDbEntity
 67
     1
  8
0
  6
Continuous
 62
     7
370
    15
100
AcDbLine
 10
-77.0
 20
-69.0
 30
0.0
 11
-77.0
 21
69.0
 31
0.0
  0
LINE
  5
D1
330
1B
100
AcDbEntity
 67
     1
  8
0
  6
Continuous
 62
     7
370
    15
100
AcDbLine
 10
69.0
 20
-77.0
 30
0.0
 11
-69.0
 21
-77.0
 31
0.0
  0
LINE
  5
D2
330
1B
100
AcDbEntity
 67
     1
  8
0
  6
Continuous
 62
     7
370
    15
100
AcDbLine
 10
77.0
 20
69.0
 30
0.0
 11
77.0
 21
-69.0
 31
0.0
  0
ARC
  5
D3
330
1B
100
AcDbEntity
 67
     1
  8
0
  6
Continuous
 62
     7
370
    15
100
AcDbCircle
 10
69.0
 20
-69.0
 30
0.0
 40
5.999999999999957
100
AcDbArc
 50
270.0
 51
0.0
  0
ARC
  5
D4
330
1B
100
AcDbEntity
 67
     1
  8
0
  6
Continuous
 62
     7
370
    15
100
AcDbCircle
 10
69.0
 20
-69.0
 30
0.0
 40
6.853553390593333
100
AcDbArc
 50
270.0
 51
0.0
  0
ARC
  5
D5
330
1B
100
AcDbEntity
 67
     1
  8
0
  6
Continuous
 62
     7
370
    15
100
AcDbCircle
 10
69.0
 20
69.0
 30
0.0
 40
5.999999999999929
100
AcDbArc
 50
0.0
 51
90.0
  0
ARC
  5
D6
330
1B
100
AcDbEntity
 67
     1
  8
0
  6
Continuous
 62
     7
370
    15
100
AcDbCircle
 10
69.0
 20
69.0
 30
0.0
 40
6.853553390593348
100
AcDbArc
 50
0.0
 51
90.0
  0
ARC
  5
D7
330
1B
100
AcDbEntity
 67
     1
  8
0
  6
Continuous
 62
     7
370
    15
100
AcDbCircle
 10
-69.0
 20
-69.0
 30
0.0
 40
5.999999999999957
100
AcDbArc
 50
180.0
 51
270.0
  0
ARC
  5
D8
330
1B
100
AcDbEntity
 67
     1
  8
0
  6
Continuous
 62
     7
370
    15
100
AcDbCircle
 10
-69.0
 20
-69.0
 30
0.0
 40
6.853553390593348
100
AcDbArc
 50
180.0
 51
270.0
  0
ARC
  5
D9
330
1B
100
AcDbEntity
 67
     1
  8
0
  6
Continuous
 62
     7
370
    15
100
AcDbCircle
 10
-69.0
 20
69.0
 30
0.0
 40
5.999999999999929
100
AcDbArc
 50
90.0
 51
180.0
  0
ARC
  5
DA
330
1B
100
AcDbEntity
 67
     1
  8
0
  6
Continuous
 62
     7
370
    15
100
AcDbCircle
 10
0.0
 20
-69.5501734615
 30
0.0
 40
6.000000000000004
100
AcDbArc
 50
0.0
 51
180.0
  0
ARC
  5
DB
330
1B
100
AcDbEntity
 67
     1
  8
0
  6
Continuous
 62
     7
370
    15
100
AcDbCircle
 10
-69.0
 20
69.0
 30
0.0
 40
6.853553390593348
100
AcDbArc
 50
90.0
 51
180.0
  0
ARC
  5
DC
330
1B
100
AcDbEntity
 67
     1
  8
0
  6
Continuous
 62
     7
370
    15
100
AcDbCircle
 10
-69.0
 20
-69.0
 30
0.0
 40
8.0
100
AcDbArc
 50
180.0
 51
270.0
  0
ARC
  5
DD
330
1B
100
AcDbEntity
 67
     1
  8
0
  6
Continuous
 62
     7
370
    15
100
AcDbCircle
 10
69.0
 20
69.0
 30
0.0
 40
8.000000000000014
100
AcDbArc
 50
0.0
 51
90.0
  0
ARC
  5
DE
330
1B
100
AcDbEntity
 67
     1
  8
0
  6
Continuous
 62
     7
370
    15
100
AcDbCircle
 10
-69.0
 20
69.0
 30
0.0
 40
8.000000000000043
100
AcDbArc
 50
90.0
 51
180.0
  0
ARC
  5
DF
330
1B
100
AcDbEntity
 67
     1
  8
0
  6
Continuous
 62
     7
370
    15
100
AcDbCircle
 10
69.0
 20
-69.0
 30
0.0
 40
8.000000000000014
100
AcDbArc
 50
270.0
 51
0.0
  0
VIEWPORT
  5
39D
330
1B
100
AcDbEntity
 67
     1
  8
0
100
AcDbViewport
 10
0.0
 20
0.0
 30
0.0
 40
243.84
 41
204.216
 68
     1
 69
     1
 12
0.0
 22
0.0
 13
0.0
 23
0.0
 14
10.0
 24
10.0
 15
10.0
 25
10.0
 16
0.0
 26
0.0
 36
1.0
 17
0.0
 27
0.0
 37
0.0
 42
50.0
 43
0.0
 44
0.0
 45
157.08
 50
0.0
 51
0.0
 72
   100
 90
   557152
  1

281
     0
 71
     1
 74
     0
110
0.0
120
0.0
130
0.0
111
1.0
121
0.0
131
0.0
112
0.0
122
1.0
132
0.0
 79
     0
146
0.0
  0
ENDSEC
  0
SECTION
  2
OBJECTS
  0
DICTIONARY
  5
C
330
0
100
AcDbDictionary
281
     1
  3
ACAD_GROUP
350
D
  3
ACAD_LAYOUT
350
1A
  3
ACAD_MLINESTYLE
350
17
  3
ACAD_PLOTSETTINGS
350
19
  3
ACAD_PLOTSTYLENAME
350
E
  0
DICTIONARY
  5
D
102
{ACAD_REACTORS
330
C
102
}
330
C
100
AcDbDictionary
281
     1
  0
DICTIONARY
  5
1A
102
{ACAD_REACTORS
330
C
102
}
330
C
100
AcDbDictionary
281
     1
  3
_Arrière
350
181
  3
_Dessous
350
1D5
  3
_Dessus
350
1E
  3
_Dimétrique
350
31A
  3
_Droite
350
11B
  3
_Face
350
26
  3
_Gauche
350
1AD
  3
_Isométrique
350
201
  3
_Normal à
350
143
  3
_Trimétrique
350
293
  3
Model
350
22
  0
DICTIONARY
  5
17
102
{ACAD_REACTORS
330
C
102
}
330
C
100
AcDbDictionary
281
     1
  3
Standard
350
18
  0
DICTIONARY
  5
19
102
{ACAD_REACTORS
330
C
102
}
330
C
100
AcDbDictionary
281
     1
  0
ACDBDICTIONARYWDFLT
  5
E
102
{ACAD_REACTORS
330
C
102
}
330
C
100
AcDbDictionary
281
     1
  3
Normal
350
F
100
AcDbDictionaryWithDefault
340
F
  0
LAYOUT
  5
181
102
{ACAD_REACTORS
330
1A
102
}
330
1A
100
AcDbPlotSettings
  1

  2
none_device
  4

  6

 40
0.0
 41
0.0
 42
0.0
 43
0.0
 44
0.0
 45
0.0
 46
0.0
 47
0.0
 48
0.0
 49
0.0
140
0.0
141
0.0
142
1.0
143
1.0
 70
   688
 72
     0
 73
     0
 74
     5
  7

 75
    16
147
1.0
148
0.0
149
0.0
100
AcDbLayout
  1
_Arrière
 70
     1
 71
     5
 10
0.0
 20
0.0
 11
0.0
 21
0.0
 12
0.0
 22
0.0
 32
0.0
 14
0.0
 24
0.0
 34
0.0
 15
0.0
 25
0.0
 35
0.0
146
0.0
 13
0.0
 23
0.0
 33
0.0
 16
1.0
 26
0.0
 36
0.0
 17
0.0
 27
1.0
 37
0.0
 76
     0
330
180
331
3A1
  0
LAYOUT
  5
1D5
102
{ACAD_REACTORS
330
1A
102
}
330
1A
100
AcDbPlotSettings
  1

  2
none_device
  4

  6

 40
0.0
 41
0.0
 42
0.0
 43
0.0
 44
0.0
 45
0.0
 46
0.0
 47
0.0
 48
0.0
 49
0.0
140
0.0
141
0.0
142
1.0
143
1.0
 70
   688
 72
     0
 73
     0
 74
     5
  7

 75
    16
147
1.0
148
0.0
149
0.0
100
AcDbLayout
  1
_Dessous
 70
     1
 71
     7
 10
0.0
 20
0.0
 11
0.0
 21
0.0
 12
0.0
 22
0.0
 32
0.0
 14
0.0
 24
0.0
 34
0.0
 15
0.0
 25
0.0
 35
0.0
146
0.0
 13
0.0
 23
0.0
 33
0.0
 16
1.0
 26
0.0
 36
0.0
 17
0.0
 27
1.0
 37
0.0
 76
     0
330
1D4
331
3A3
  0
LAYOUT
  5
1E
102
{ACAD_REACTORS
330
1A
102
}
330
1A
100
AcDbPlotSettings
  1

  2
none_device
  4

  6

 40
0.0
 41
0.0
 42
0.0
 43
0.0
 44
0.0
 45
0.0
 46
0.0
 47
0.0
 48
0.0
 49
0.0
140
0.0
141
0.0
142
1.0
143
1.0
 70
   688
 72
     0
 73
     0
 74
     5
  7

 75
    16
147
1.0
148
0.0
149
0.0
100
AcDbLayout
  1
_Dessus
 70
     1
 71
     1
 10
0.0
 20
0.0
 11
420.0
 21
297.0
 12
0.0
 22
0.0
 32
0.0
 14
-77.0
 24
-77.0
 34
0.0
 15
77.0
 25
77.0
 35
0.0
146
0.0
 13
0.0
 23
0.0
 33
0.0
 16
1.0
 26
0.0
 36
0.0
 17
0.0
 27
1.0
 37
0.0
 76
     0
330
1B
331
39D
  0
LAYOUT
  5
31A
102
{ACAD_REACTORS
330
1A
102
}
330
1A
100
AcDbPlotSettings
  1

  2
none_device
  4

  6

 40
0.0
 41
0.0
 42
0.0
 43
0.0
 44
0.0
 45
0.0
 46
0.0
 47
0.0
 48
0.0
 49
0.0
140
0.0
141
0.0
142
1.0
143
1.0
 70
   688
 72
     0
 73
     0
 74
     5
  7

 75
    16
147
1.0
148
0.0
149
0.0
100
AcDbLayout
  1
_Dimétrique
 70
     1
 71
    10
 10
0.0
 20
0.0
 11
0.0
 21
0.0
 12
0.0
 22
0.0
 32
0.0
 14
0.0
 24
0.0
 34
0.0
 15
0.0
 25
0.0
 35
0.0
146
0.0
 13
0.0
 23
0.0
 33
0.0
 16
1.0
 26
0.0
 36
0.0
 17
0.0
 27
1.0
 37
0.0
 76
     0
330
319
331
3A6
  0
LAYOUT
  5
11B
102
{ACAD_REACTORS
330
1A
102
}
330
1A
100
AcDbPlotSettings
  1

  2
none_device
  4

  6

 40
0.0
 41
0.0
 42
0.0
 43
0.0
 44
0.0
 45
0.0
 46
0.0
 47
0.0
 48
0.0
 49
0.0
140
0.0
141
0.0
142
1.0
143
1.0
 70
   688
 72
     0
 73
     0
 74
     5
  7

 75
    16
147
1.0
148
0.0
149
0.0
100
AcDbLayout
  1
_Droite
 70
     1
 71
     3
 10
0.0
 20
0.0
 11
0.0
 21
0.0
 12
0.0
 22
0.0
 32
0.0
 14
0.0
 24
0.0
 34
0.0
 15
0.0
 25
0.0
 35
0.0
146
0.0
 13
0.0
 23
0.0
 33
0.0
 16
1.0
 26
0.0
 36
0.0
 17
0.0
 27
1.0
 37
0.0
 76
     0
330
11A
331
39F
  0
LAYOUT
  5
26
102
{ACAD_REACTORS
330
1A
102
}
330
1A
100
AcDbPlotSettings
  1

  2
none_device
  4

  6

 40
0.0
 41
0.0
 42
0.0
 43
0.0
 44
0.0
 45
0.0
 46
0.0
 47
0.0
 48
0.0
 49
0.0
140
0.0
141
0.0
142
1.0
143
1.0
 70
   688
 72
     0
 73
     0
 74
     5
  7

 75
    16
147
1.0
148
0.0
149
0.0
100
AcDbLayout
  1
_Face
 70
     1
 71
     2
 10
0.0
 20
0.0
 11
0.0
 21
0.0
 12
0.0
 22
0.0
 32
0.0
 14
0.0
 24
0.0
 34
0.0
 15
0.0
 25
0.0
 35
0.0
146
0.0
 13
0.0
 23
0.0
 33
0.0
 16
1.0
 26
0.0
 36
0.0
 17
0.0
 27
1.0
 37
0.0
 76
     0
330
23
331
39E
  0
LAYOUT
  5
1AD
102
{ACAD_REACTORS
330
1A
102
}
330
1A
100
AcDbPlotSettings
  1

  2
none_device
  4

  6

 40
0.0
 41
0.0
 42
0.0
 43
0.0
 44
0.0
 45
0.0
 46
0.0
 47
0.0
 48
0.0
 49
0.0
140
0.0
141
0.0
142
1.0
143
1.0
 70
   688
 72
     0
 73
     0
 74
     5
  7

 75
    16
147
1.0
148
0.0
149
0.0
100
AcDbLayout
  1
_Gauche
 70
     1
 71
     6
 10
0.0
 20
0.0
 11
0.0
 21
0.0
 12
0.0
 22
0.0
 32
0.0
 14
0.0
 24
0.0
 34
0.0
 15
0.0
 25
0.0
 35
0.0
146
0.0
 13
0.0
 23
0.0
 33
0.0
 16
1.0
 26
0.0
 36
0.0
 17
0.0
 27
1.0
 37
0.0
 76
     0
330
1AC
331
3A2
  0
LAYOUT
  5
201
102
{ACAD_REACTORS
330
1A
102
}
330
1A
100
AcDbPlotSettings
  1

  2
none_device
  4

  6

 40
0.0
 41
0.0
 42
0.0
 43
0.0
 44
0.0
 45
0.0
 46
0.0
 47
0.0
 48
0.0
 49
0.0
140
0.0
141
0.0
142
1.0
143
1.0
 70
   688
 72
     0
 73
     0
 74
     5
  7

 75
    16
147
1.0
148
0.0
149
0.0
100
AcDbLayout
  1
_Isométrique
 70
     1
 71
     8
 10
0.0
 20
0.0
 11
0.0
 21
0.0
 12
0.0
 22
0.0
 32
0.0
 14
0.0
 24
0.0
 34
0.0
 15
0.0
 25
0.0
 35
0.0
146
0.0
 13
0.0
 23
0.0
 33
0.0
 16
1.0
 26
0.0
 36
0.0
 17
0.0
 27
1.0
 37
0.0
 76
     0
330
200
331
3A4
  0
LAYOUT
  5
143
102
{ACAD_REACTORS
330
1A
102
}
330
1A
100
AcDbPlotSettings
  1

  2
none_device
  4

  6

 40
0.0
 41
0.0
 42
0.0
 43
0.0
 44
0.0
 45
0.0
 46
0.0
 47
0.0
 48
0.0
 49
0.0
140
0.0
141
0.0
142
1.0
143
1.0
 70
   688
 72
     0
 73
     0
 74
     5
  7

 75
    16
147
1.0
148
0.0
149
0.0
100
AcDbLayout
  1
_Normal à
 70
     1
 71
     4
 10
0.0
 20
0.0
 11
0.0
 21
0.0
 12
0.0
 22
0.0
 32
0.0
 14
0.0
 24
0.0
 34
0.0
 15
0.0
 25
0.0
 35
0.0
146
0.0
 13
0.0
 23
0.0
 33
0.0
 16
1.0
 26
0.0
 36
0.0
 17
0.0
 27
1.0
 37
0.0
 76
     0
330
142
331
3A0
  0
LAYOUT
  5
293
102
{ACAD_REACTORS
330
1A
102
}
330
1A
100
AcDbPlotSettings
  1

  2
none_device
  4

  6

 40
0.0
 41
0.0
 42
0.0
 43
0.0
 44
0.0
 45
0.0
 46
0.0
 47
0.0
 48
0.0
 49
0.0
140
0.0
141
0.0
142
1.0
143
1.0
 70
   688
 72
     0
 73
     0
 74
     5
  7

 75
    16
147
1.0
148
0.0
149
0.0
100
AcDbLayout
  1
_Trimétrique
 70
     1
 71
     9
 10
0.0
 20
0.0
 11
0.0
 21
0.0
 12
0.0
 22
0.0
 32
0.0
 14
0.0
 24
0.0
 34
0.0
 15
0.0
 25
0.0
 35
0.0
146
0.0
 13
0.0
 23
0.0
 33
0.0
 16
1.0
 26
0.0
 36
0.0
 17
0.0
 27
1.0
 37
0.0
 76
     0
330
292
331
3A5
  0
LAYOUT
  5
22
102
{ACAD_REACTORS
330
1A
102
}
330
1A
100
AcDbPlotSettings
  1

  2
none_device
  4
ANSI_A_(11.00_x_8.50_Inches)
  6

 40
6.35
 41
19.05
 42
6.35000508
 43
19.05000254
 44
279.4
 45
215.9
 46
133.34999746
 47
88.89999873
 48
0.0
 49
0.0
140
0.0
141
0.0
142
0.0546428571
143
1.0
 70
  1696
 72
     0
 73
     0
 74
     0
  7

 75
     0
147
0.0179189148
148
0.0
149
0.0
100
AcDbLayout
  1
Model
 70
     1
 71
     0
 10
0.0
 20
0.0
 11
420.0
 21
297.0
 12
0.0
 22
0.0
 32
0.0
 14
-77.0
 24
-77.0
 34
0.0
 15
77.0
 25
77.0
 35
0.0
146
0.0
 13
0.0
 23
0.0
 33
0.0
 16
1.0
 26
0.0
 36
0.0
 17
0.0
 27
1.0
 37
0.0
 76
     0
330
1F
331
29
  0
MLINESTYLE
  5
18
102
{ACAD_REACTORS
330
17
102
}
330
17
100
AcDbMlineStyle
  2
Standard
 70
     0
  3

 62
   256
 51
90.0
 52
90.0
 71
     2
 49
0.5
 62
   256
  6
BYLAYER
 49
-0.5
 62
   256
  6
BYLAYER
  0
ACDBPLACEHOLDER
  5
F
102
{ACAD_REACTORS
330
E
102
}
330
E
  0
ENDSEC
  0
EOF
