ISO-10303-21;
HEADER;
/* Generated by software containing ST-Developer
 * from STEP Tools, Inc. (www.steptools.com) 
 */

FILE_DESCRIPTION(
/* description */ (''),
/* implementation_level */ '2;1');

FILE_NAME(
/* name */ 'C:/Users/jonathan/Desktop/Tulipe avant endurance v1.step',
/* time_stamp */ '2019-11-05T18:28:37+01:00',
/* author */ (''),
/* organization */ (''),
/* preprocessor_version */ 'ST-DEVELOPER v18',
/* originating_system */ 'Autodesk Translation Framework v8.6.0.1094',
/* authorisation */ '');

FILE_SCHEMA (('AUTOMOTIVE_DESIGN { 1 0 10303 214 3 1 1 }'));
ENDSEC;

DATA;
#10=MECHANICAL_DESIGN_GEOMETRIC_PRESENTATION_REPRESENTATION('',(#13),#320);
#11=SHAPE_REPRESENTATION_RELATIONSHIP('SRR','None',#327,#12);
#12=ADVANCED_BREP_SHAPE_REPRESENTATION('',(#14),#319);
#13=STYLED_ITEM('',(#337),#14);
#14=MANIFOLD_SOLID_BREP('Body1',#170);
#15=CONICAL_SURFACE('',#191,25.4728666052385,0.270994707604122);
#16=CONICAL_SURFACE('',#205,20.4493773500568,0.269249378352127);
#17=FACE_BOUND('',#39,.T.);
#18=FACE_BOUND('',#43,.T.);
#19=FACE_BOUND('',#46,.T.);
#20=FACE_BOUND('',#49,.T.);
#21=FACE_BOUND('',#51,.T.);
#22=PLANE('',#187);
#23=PLANE('',#196);
#24=PLANE('',#202);
#25=PLANE('',#208);
#26=PLANE('',#209);
#27=FACE_OUTER_BOUND('',#37,.T.);
#28=FACE_OUTER_BOUND('',#38,.T.);
#29=FACE_OUTER_BOUND('',#40,.T.);
#30=FACE_OUTER_BOUND('',#41,.T.);
#31=FACE_OUTER_BOUND('',#42,.T.);
#32=FACE_OUTER_BOUND('',#44,.T.);
#33=FACE_OUTER_BOUND('',#45,.T.);
#34=FACE_OUTER_BOUND('',#47,.T.);
#35=FACE_OUTER_BOUND('',#48,.T.);
#36=FACE_OUTER_BOUND('',#50,.T.);
#37=EDGE_LOOP('',(#115,#116,#117,#118));
#38=EDGE_LOOP('',(#119));
#39=EDGE_LOOP('',(#120));
#40=EDGE_LOOP('',(#121,#122,#123,#124));
#41=EDGE_LOOP('',(#125,#126,#127,#128,#129,#130));
#42=EDGE_LOOP('',(#131,#132));
#43=EDGE_LOOP('',(#133,#134));
#44=EDGE_LOOP('',(#135,#136,#137,#138,#139,#140));
#45=EDGE_LOOP('',(#141,#142));
#46=EDGE_LOOP('',(#143,#144));
#47=EDGE_LOOP('',(#145,#146,#147,#148,#149,#150));
#48=EDGE_LOOP('',(#151,#152));
#49=EDGE_LOOP('',(#153));
#50=EDGE_LOOP('',(#154,#155));
#51=EDGE_LOOP('',(#156));
#52=LINE('',#274,#57);
#53=LINE('',#281,#58);
#54=LINE('',#289,#59);
#55=LINE('',#303,#60);
#56=LINE('',#311,#61);
#57=VECTOR('',#216,13.);
#58=VECTOR('',#225,10.);
#59=VECTOR('',#234,25.4728666052385);
#60=VECTOR('',#251,33.8987547001135);
#61=VECTOR('',#260,20.4493773500568);
#62=CIRCLE('',#185,13.);
#63=CIRCLE('',#186,13.);
#64=CIRCLE('',#188,10.);
#65=CIRCLE('',#190,10.);
#66=CIRCLE('',#192,28.9457332104769);
#67=CIRCLE('',#193,28.9457332104769);
#68=CIRCLE('',#194,22.);
#69=CIRCLE('',#195,22.);
#70=CIRCLE('',#197,33.8987547001135);
#71=CIRCLE('',#198,33.8987547001135);
#72=CIRCLE('',#200,33.8987547001135);
#73=CIRCLE('',#201,33.8987547001135);
#74=CIRCLE('',#203,23.8987547001135);
#75=CIRCLE('',#204,23.8987547001135);
#76=CIRCLE('',#206,17.);
#77=CIRCLE('',#207,17.);
#78=VERTEX_POINT('',#271);
#79=VERTEX_POINT('',#273);
#80=VERTEX_POINT('',#277);
#81=VERTEX_POINT('',#280);
#82=VERTEX_POINT('',#284);
#83=VERTEX_POINT('',#285);
#84=VERTEX_POINT('',#288);
#85=VERTEX_POINT('',#290);
#86=VERTEX_POINT('',#294);
#87=VERTEX_POINT('',#295);
#88=VERTEX_POINT('',#299);
#89=VERTEX_POINT('',#300);
#90=VERTEX_POINT('',#305);
#91=VERTEX_POINT('',#306);
#92=VERTEX_POINT('',#310);
#93=VERTEX_POINT('',#312);
#94=EDGE_CURVE('',#78,#78,#62,.T.);
#95=EDGE_CURVE('',#78,#79,#52,.T.);
#96=EDGE_CURVE('',#79,#79,#63,.T.);
#97=EDGE_CURVE('',#80,#80,#64,.T.);
#98=EDGE_CURVE('',#80,#81,#53,.T.);
#99=EDGE_CURVE('',#81,#81,#65,.T.);
#100=EDGE_CURVE('',#82,#83,#66,.T.);
#101=EDGE_CURVE('',#83,#82,#67,.T.);
#102=EDGE_CURVE('',#83,#84,#54,.T.);
#103=EDGE_CURVE('',#84,#85,#68,.T.);
#104=EDGE_CURVE('',#85,#84,#69,.T.);
#105=EDGE_CURVE('',#86,#87,#70,.T.);
#106=EDGE_CURVE('',#87,#86,#71,.T.);
#107=EDGE_CURVE('',#88,#89,#72,.T.);
#108=EDGE_CURVE('',#89,#88,#73,.T.);
#109=EDGE_CURVE('',#89,#87,#55,.T.);
#110=EDGE_CURVE('',#90,#91,#74,.T.);
#111=EDGE_CURVE('',#91,#90,#75,.T.);
#112=EDGE_CURVE('',#91,#92,#56,.T.);
#113=EDGE_CURVE('',#93,#92,#76,.T.);
#114=EDGE_CURVE('',#92,#93,#77,.T.);
#115=ORIENTED_EDGE('',*,*,#94,.F.);
#116=ORIENTED_EDGE('',*,*,#95,.T.);
#117=ORIENTED_EDGE('',*,*,#96,.T.);
#118=ORIENTED_EDGE('',*,*,#95,.F.);
#119=ORIENTED_EDGE('',*,*,#96,.F.);
#120=ORIENTED_EDGE('',*,*,#97,.F.);
#121=ORIENTED_EDGE('',*,*,#97,.T.);
#122=ORIENTED_EDGE('',*,*,#98,.T.);
#123=ORIENTED_EDGE('',*,*,#99,.F.);
#124=ORIENTED_EDGE('',*,*,#98,.F.);
#125=ORIENTED_EDGE('',*,*,#100,.F.);
#126=ORIENTED_EDGE('',*,*,#101,.F.);
#127=ORIENTED_EDGE('',*,*,#102,.T.);
#128=ORIENTED_EDGE('',*,*,#103,.T.);
#129=ORIENTED_EDGE('',*,*,#104,.T.);
#130=ORIENTED_EDGE('',*,*,#102,.F.);
#131=ORIENTED_EDGE('',*,*,#105,.F.);
#132=ORIENTED_EDGE('',*,*,#106,.F.);
#133=ORIENTED_EDGE('',*,*,#100,.T.);
#134=ORIENTED_EDGE('',*,*,#101,.T.);
#135=ORIENTED_EDGE('',*,*,#107,.F.);
#136=ORIENTED_EDGE('',*,*,#108,.F.);
#137=ORIENTED_EDGE('',*,*,#109,.T.);
#138=ORIENTED_EDGE('',*,*,#106,.T.);
#139=ORIENTED_EDGE('',*,*,#105,.T.);
#140=ORIENTED_EDGE('',*,*,#109,.F.);
#141=ORIENTED_EDGE('',*,*,#107,.T.);
#142=ORIENTED_EDGE('',*,*,#108,.T.);
#143=ORIENTED_EDGE('',*,*,#110,.F.);
#144=ORIENTED_EDGE('',*,*,#111,.F.);
#145=ORIENTED_EDGE('',*,*,#110,.T.);
#146=ORIENTED_EDGE('',*,*,#112,.T.);
#147=ORIENTED_EDGE('',*,*,#113,.F.);
#148=ORIENTED_EDGE('',*,*,#114,.F.);
#149=ORIENTED_EDGE('',*,*,#112,.F.);
#150=ORIENTED_EDGE('',*,*,#111,.T.);
#151=ORIENTED_EDGE('',*,*,#113,.T.);
#152=ORIENTED_EDGE('',*,*,#114,.T.);
#153=ORIENTED_EDGE('',*,*,#94,.T.);
#154=ORIENTED_EDGE('',*,*,#104,.F.);
#155=ORIENTED_EDGE('',*,*,#103,.F.);
#156=ORIENTED_EDGE('',*,*,#99,.T.);
#157=CYLINDRICAL_SURFACE('',#184,13.);
#158=CYLINDRICAL_SURFACE('',#189,10.);
#159=CYLINDRICAL_SURFACE('',#199,33.8987547001135);
#160=ADVANCED_FACE('',(#27),#157,.F.);
#161=ADVANCED_FACE('',(#28,#17),#22,.T.);
#162=ADVANCED_FACE('',(#29),#158,.F.);
#163=ADVANCED_FACE('',(#30),#15,.T.);
#164=ADVANCED_FACE('',(#31,#18),#23,.T.);
#165=ADVANCED_FACE('',(#32),#159,.T.);
#166=ADVANCED_FACE('',(#33,#19),#24,.T.);
#167=ADVANCED_FACE('',(#34),#16,.F.);
#168=ADVANCED_FACE('',(#35,#20),#25,.T.);
#169=ADVANCED_FACE('',(#36,#21),#26,.T.);
#170=CLOSED_SHELL('',(#160,#161,#162,#163,#164,#165,#166,#167,#168,#169));
#171=DERIVED_UNIT_ELEMENT(#173,1.);
#172=DERIVED_UNIT_ELEMENT(#322,3.);
#173=(
MASS_UNIT()
NAMED_UNIT(*)
SI_UNIT(.KILO.,.GRAM.)
);
#174=DERIVED_UNIT((#171,#172));
#175=MEASURE_REPRESENTATION_ITEM('density measure',
POSITIVE_RATIO_MEASURE(7850.),#174);
#176=PROPERTY_DEFINITION_REPRESENTATION(#181,#178);
#177=PROPERTY_DEFINITION_REPRESENTATION(#182,#179);
#178=REPRESENTATION('material name',(#180),#319);
#179=REPRESENTATION('density',(#175),#319);
#180=DESCRIPTIVE_REPRESENTATION_ITEM('Steel','Steel');
#181=PROPERTY_DEFINITION('material property','material name',#329);
#182=PROPERTY_DEFINITION('material property','density of part',#329);
#183=AXIS2_PLACEMENT_3D('placement',#269,#210,#211);
#184=AXIS2_PLACEMENT_3D('',#270,#212,#213);
#185=AXIS2_PLACEMENT_3D('',#272,#214,#215);
#186=AXIS2_PLACEMENT_3D('',#275,#217,#218);
#187=AXIS2_PLACEMENT_3D('',#276,#219,#220);
#188=AXIS2_PLACEMENT_3D('',#278,#221,#222);
#189=AXIS2_PLACEMENT_3D('',#279,#223,#224);
#190=AXIS2_PLACEMENT_3D('',#282,#226,#227);
#191=AXIS2_PLACEMENT_3D('',#283,#228,#229);
#192=AXIS2_PLACEMENT_3D('',#286,#230,#231);
#193=AXIS2_PLACEMENT_3D('',#287,#232,#233);
#194=AXIS2_PLACEMENT_3D('',#291,#235,#236);
#195=AXIS2_PLACEMENT_3D('',#292,#237,#238);
#196=AXIS2_PLACEMENT_3D('',#293,#239,#240);
#197=AXIS2_PLACEMENT_3D('',#296,#241,#242);
#198=AXIS2_PLACEMENT_3D('',#297,#243,#244);
#199=AXIS2_PLACEMENT_3D('',#298,#245,#246);
#200=AXIS2_PLACEMENT_3D('',#301,#247,#248);
#201=AXIS2_PLACEMENT_3D('',#302,#249,#250);
#202=AXIS2_PLACEMENT_3D('',#304,#252,#253);
#203=AXIS2_PLACEMENT_3D('',#307,#254,#255);
#204=AXIS2_PLACEMENT_3D('',#308,#256,#257);
#205=AXIS2_PLACEMENT_3D('',#309,#258,#259);
#206=AXIS2_PLACEMENT_3D('',#313,#261,#262);
#207=AXIS2_PLACEMENT_3D('',#314,#263,#264);
#208=AXIS2_PLACEMENT_3D('',#315,#265,#266);
#209=AXIS2_PLACEMENT_3D('',#316,#267,#268);
#210=DIRECTION('axis',(0.,0.,1.));
#211=DIRECTION('refdir',(1.,0.,0.));
#212=DIRECTION('center_axis',(0.,-1.,0.));
#213=DIRECTION('ref_axis',(-1.,0.,0.));
#214=DIRECTION('center_axis',(0.,-1.,0.));
#215=DIRECTION('ref_axis',(-1.,0.,0.));
#216=DIRECTION('',(0.,-1.,0.));
#217=DIRECTION('center_axis',(0.,-1.,0.));
#218=DIRECTION('ref_axis',(-1.,0.,0.));
#219=DIRECTION('center_axis',(0.,1.,0.));
#220=DIRECTION('ref_axis',(-1.,0.,0.));
#221=DIRECTION('center_axis',(0.,1.,0.));
#222=DIRECTION('ref_axis',(-1.,0.,0.));
#223=DIRECTION('center_axis',(0.,-1.,0.));
#224=DIRECTION('ref_axis',(-1.,0.,0.));
#225=DIRECTION('',(0.,-1.,0.));
#226=DIRECTION('center_axis',(0.,1.,0.));
#227=DIRECTION('ref_axis',(-1.,0.,0.));
#228=DIRECTION('center_axis',(0.,1.,0.));
#229=DIRECTION('ref_axis',(0.,0.,1.));
#230=DIRECTION('center_axis',(0.,1.,0.));
#231=DIRECTION('ref_axis',(1.,0.,0.));
#232=DIRECTION('center_axis',(0.,1.,0.));
#233=DIRECTION('ref_axis',(1.,0.,0.));
#234=DIRECTION('',(3.27825670817586E-17,-0.963505099823062,0.267689974812192));
#235=DIRECTION('center_axis',(0.,1.,0.));
#236=DIRECTION('ref_axis',(1.,0.,0.));
#237=DIRECTION('center_axis',(0.,1.,0.));
#238=DIRECTION('ref_axis',(1.,0.,0.));
#239=DIRECTION('center_axis',(0.,-1.,0.));
#240=DIRECTION('ref_axis',(0.,0.,-1.));
#241=DIRECTION('center_axis',(0.,1.,0.));
#242=DIRECTION('ref_axis',(1.,0.,0.));
#243=DIRECTION('center_axis',(0.,1.,0.));
#244=DIRECTION('ref_axis',(1.,0.,0.));
#245=DIRECTION('center_axis',(0.,1.,0.));
#246=DIRECTION('ref_axis',(0.,0.,1.));
#247=DIRECTION('center_axis',(0.,1.,0.));
#248=DIRECTION('ref_axis',(1.,0.,0.));
#249=DIRECTION('center_axis',(0.,1.,0.));
#250=DIRECTION('ref_axis',(1.,0.,0.));
#251=DIRECTION('',(0.,-1.,0.));
#252=DIRECTION('center_axis',(0.,1.,0.));
#253=DIRECTION('ref_axis',(0.,0.,1.));
#254=DIRECTION('center_axis',(0.,1.,0.));
#255=DIRECTION('ref_axis',(1.,0.,0.));
#256=DIRECTION('center_axis',(0.,1.,0.));
#257=DIRECTION('ref_axis',(1.,0.,0.));
#258=DIRECTION('center_axis',(0.,1.,0.));
#259=DIRECTION('ref_axis',(0.,0.,1.));
#260=DIRECTION('',(3.25765765307569E-17,-0.963970839227553,0.266007934315739));
#261=DIRECTION('center_axis',(0.,1.,0.));
#262=DIRECTION('ref_axis',(1.,0.,0.));
#263=DIRECTION('center_axis',(0.,1.,0.));
#264=DIRECTION('ref_axis',(1.,0.,0.));
#265=DIRECTION('center_axis',(0.,1.,0.));
#266=DIRECTION('ref_axis',(0.,0.,1.));
#267=DIRECTION('center_axis',(0.,-1.,0.));
#268=DIRECTION('ref_axis',(0.,0.,-1.));
#269=CARTESIAN_POINT('',(0.,0.,0.));
#270=CARTESIAN_POINT('Origin',(0.,5.,0.));
#271=CARTESIAN_POINT('',(13.,5.,-1.59204083889156E-15));
#272=CARTESIAN_POINT('Origin',(0.,5.,0.));
#273=CARTESIAN_POINT('',(13.,3.,-1.59204083889156E-15));
#274=CARTESIAN_POINT('',(13.,5.,1.59204083889156E-15));
#275=CARTESIAN_POINT('Origin',(0.,3.,0.));
#276=CARTESIAN_POINT('Origin',(0.,3.,0.));
#277=CARTESIAN_POINT('',(10.,3.,-1.22464679914735E-15));
#278=CARTESIAN_POINT('Origin',(0.,3.,0.));
#279=CARTESIAN_POINT('Origin',(0.,5.,0.));
#280=CARTESIAN_POINT('',(10.,0.,-1.22464679914735E-15));
#281=CARTESIAN_POINT('',(10.,5.,1.22464679914735E-15));
#282=CARTESIAN_POINT('Origin',(0.,0.,0.));
#283=CARTESIAN_POINT('Origin',(0.,12.5000000000003,0.));
#284=CARTESIAN_POINT('',(0.,25.0000000000006,28.9457332104769));
#285=CARTESIAN_POINT('',(-3.54482995251838E-15,25.0000000000006,-28.9457332104769));
#286=CARTESIAN_POINT('Origin',(0.,25.0000000000006,0.));
#287=CARTESIAN_POINT('Origin',(0.,25.0000000000006,0.));
#288=CARTESIAN_POINT('',(-2.69422295812418E-15,-4.44089209850063E-15,-22.));
#289=CARTESIAN_POINT('',(-3.11952645532128E-15,12.5000000000003,-25.4728666052385));
#290=CARTESIAN_POINT('',(0.,0.,22.));
#291=CARTESIAN_POINT('Origin',(0.,0.,0.));
#292=CARTESIAN_POINT('Origin',(0.,0.,0.));
#293=CARTESIAN_POINT('Origin',(0.,25.,33.8987547001135));
#294=CARTESIAN_POINT('',(0.,25.,33.8987547001135));
#295=CARTESIAN_POINT('',(-4.15140014385753E-15,25.,-33.8987547001135));
#296=CARTESIAN_POINT('Origin',(0.,25.,0.));
#297=CARTESIAN_POINT('Origin',(0.,25.,0.));
#298=CARTESIAN_POINT('Origin',(0.,27.5,0.));
#299=CARTESIAN_POINT('',(0.,30.,33.8987547001135));
#300=CARTESIAN_POINT('',(-4.15140014385753E-15,30.,-33.8987547001135));
#301=CARTESIAN_POINT('Origin',(0.,30.,0.));
#302=CARTESIAN_POINT('Origin',(0.,30.,0.));
#303=CARTESIAN_POINT('',(-4.15140014385753E-15,27.5,-33.8987547001135));
#304=CARTESIAN_POINT('Origin',(0.,30.,23.8987547001135));
#305=CARTESIAN_POINT('',(0.,30.,23.8987547001135));
#306=CARTESIAN_POINT('',(-2.92675334471018E-15,30.,-23.8987547001135));
#307=CARTESIAN_POINT('Origin',(0.,30.,0.));
#308=CARTESIAN_POINT('Origin',(0.,30.,0.));
#309=CARTESIAN_POINT('Origin',(0.,17.5,0.));
#310=CARTESIAN_POINT('',(-2.0818995585505E-15,5.,-17.));
#311=CARTESIAN_POINT('',(-2.50432645163034E-15,17.5,-20.4493773500568));
#312=CARTESIAN_POINT('',(0.,5.,17.));
#313=CARTESIAN_POINT('Origin',(0.,5.,0.));
#314=CARTESIAN_POINT('Origin',(0.,5.,0.));
#315=CARTESIAN_POINT('Origin',(0.,5.,0.));
#316=CARTESIAN_POINT('Origin',(0.,0.,22.));
#317=UNCERTAINTY_MEASURE_WITH_UNIT(LENGTH_MEASURE(0.01),#321,
'DISTANCE_ACCURACY_VALUE',
'Maximum model space distance between geometric entities at asserted c
onnectivities');
#318=UNCERTAINTY_MEASURE_WITH_UNIT(LENGTH_MEASURE(0.01),#321,
'DISTANCE_ACCURACY_VALUE',
'Maximum model space distance between geometric entities at asserted c
onnectivities');
#319=(
GEOMETRIC_REPRESENTATION_CONTEXT(3)
GLOBAL_UNCERTAINTY_ASSIGNED_CONTEXT((#317))
GLOBAL_UNIT_ASSIGNED_CONTEXT((#321,#323,#324))
REPRESENTATION_CONTEXT('','3D')
);
#320=(
GEOMETRIC_REPRESENTATION_CONTEXT(3)
GLOBAL_UNCERTAINTY_ASSIGNED_CONTEXT((#318))
GLOBAL_UNIT_ASSIGNED_CONTEXT((#321,#323,#324))
REPRESENTATION_CONTEXT('','3D')
);
#321=(
LENGTH_UNIT()
NAMED_UNIT(*)
SI_UNIT(.MILLI.,.METRE.)
);
#322=(
LENGTH_UNIT()
NAMED_UNIT(*)
SI_UNIT($,.METRE.)
);
#323=(
NAMED_UNIT(*)
PLANE_ANGLE_UNIT()
SI_UNIT($,.RADIAN.)
);
#324=(
NAMED_UNIT(*)
SI_UNIT($,.STERADIAN.)
SOLID_ANGLE_UNIT()
);
#325=SHAPE_DEFINITION_REPRESENTATION(#326,#327);
#326=PRODUCT_DEFINITION_SHAPE('',$,#329);
#327=SHAPE_REPRESENTATION('',(#183),#319);
#328=PRODUCT_DEFINITION_CONTEXT('part definition',#333,'design');
#329=PRODUCT_DEFINITION('Tulipe avant endurance',
'Tulipe avant endurance v1',#330,#328);
#330=PRODUCT_DEFINITION_FORMATION('',$,#335);
#331=PRODUCT_RELATED_PRODUCT_CATEGORY('Tulipe avant endurance v1',
'Tulipe avant endurance v1',(#335));
#332=APPLICATION_PROTOCOL_DEFINITION('international standard',
'automotive_design',2009,#333);
#333=APPLICATION_CONTEXT(
'Core Data for Automotive Mechanical Design Process');
#334=PRODUCT_CONTEXT('part definition',#333,'mechanical');
#335=PRODUCT('Tulipe avant endurance','Tulipe avant endurance v1',$,(#334));
#336=PRESENTATION_STYLE_ASSIGNMENT((#338));
#337=PRESENTATION_STYLE_ASSIGNMENT((#339));
#338=SURFACE_STYLE_USAGE(.BOTH.,#340);
#339=SURFACE_STYLE_USAGE(.BOTH.,#341);
#340=SURFACE_SIDE_STYLE('',(#342));
#341=SURFACE_SIDE_STYLE('',(#343));
#342=SURFACE_STYLE_FILL_AREA(#344);
#343=SURFACE_STYLE_FILL_AREA(#345);
#344=FILL_AREA_STYLE('Steel - Satin',(#346));
#345=FILL_AREA_STYLE('Aluminum - Anodized Glossy (Blue)',(#347));
#346=FILL_AREA_STYLE_COLOUR('Steel - Satin',#348);
#347=FILL_AREA_STYLE_COLOUR('Aluminum - Anodized Glossy (Blue)',#349);
#348=COLOUR_RGB('Steel - Satin',0.627450980392157,0.627450980392157,0.627450980392157);
#349=COLOUR_RGB('Aluminum - Anodized Glossy (Blue)',0.349019607843137,0.584313725490196,
0.854901960784314);
ENDSEC;
END-ISO-10303-21;
