  0
SECTION
  2
HEADER
  9
$ACADVER
  1
AC1009
  9
$INSBASE
 10
0.0
 20
0.0
 30
0.0
  9
$EXTMIN
 10
11.01414042031689
 20
6.3004201909959061
 30
-0.00000001
  9
$EXTMAX
 10
147.69986357435189
 20
90.688353419323235
 30
0.00000001
  9
$LIMMIN
 10
0.0
 20
0.0
  9
$LIMMAX
 10
5.8464566929133861
 20
4.1338582677165352
  9
$ORTHOMODE
 70
     0
  9
$REGENMODE
 70
     1
  9
$FILLMODE
 70
     1
  9
$QTEXTMODE
 70
     0
  9
$MIRRTEXT
 70
     0
  9
$DRAGMODE
 70
     2
  9
$LTSCALE
 40
1.0
  9
$OSMODE
 70
     0
  9
$ATTMODE
 70
     1
  9
$TEXTSIZE
 40
1.5
  9
$TRACEWID
 40
0.05
  9
$TEXTSTYLE
  7
STANDARD
  9
$CLAYER
  8
0
  9
$CELTYPE
  6
BYLAYER
  9
$CECOLOR
 62
     6
  9
$DIMSCALE
 40
1.0
  9
$DIMASZ
 40
0.18
  9
$DIMEXO
 40
0.0625
  9
$DIMDLI
 40
0.38
  9
$DIMRND
 40
0.0
  9
$DIMDLE
 40
0.0
  9
$DIMEXE
 40
0.18
  9
$DIMTP
 40
0.0
  9
$DIMTM
 40
0.0
  9
$DIMTXT
 40
0.0393700787401575
  9
$DIMCEN
 40
0.09
  9
$DIMTSZ
 40
0.0
  9
$DIMTOL
 70
     0
  9
$DIMLIM
 70
     0
  9
$DIMTIH
 70
     1
  9
$DIMTOH
 70
     1
  9
$DIMSE1
 70
     0
  9
$DIMSE2
 70
     0
  9
$DIMTAD
 70
     0
  9
$DIMZIN
 70
     0
  9
$DIMBLK
  1

  9
$DIMASO
 70
     1
  9
$DIMSHO
 70
     1
  9
$DIMPOST
  1

  9
$DIMAPOST
  1

  9
$DIMALT
 70
     0
  9
$DIMALTD
 70
     2
  9
$DIMALTF
 40
25.399999999999999
  9
$DIMLFAC
 40
1.0
  9
$DIMTOFL
 70
     0
  9
$DIMTVP
 40
0.0
  9
$DIMTIX
 70
     0
  9
$DIMSOXD
 70
     0
  9
$DIMSAH
 70
     0
  9
$DIMBLK1
  1

  9
$DIMBLK2
  1

  9
$DIMSTYLE
  2
STANDARD
  9
$DIMCLRD
 70
     0
  9
$DIMCLRE
 70
     0
  9
$DIMCLRT
 70
     0
  9
$DIMTFAC
 40
1.0
  9
$DIMGAP
 40
0.09
  9
$LUNITS
 70
     2
  9
$LUPREC
 70
     2
  9
$SKETCHINC
 40
0.1
  9
$FILLETRAD
 40
0.5
  9
$AUNITS
 70
     0
  9
$AUPREC
 70
     2
  9
$MENU
  1
.
  9
$ELEVATION
 40
0.0
  9
$PELEVATION
 40
0.0
  9
$THICKNESS
 40
0.0
  9
$LIMCHECK
 70
     0
  9
$BLIPMODE
 70
     0
  9
$CHAMFERA
 40
0.9999999999999998
  9
$CHAMFERB
 40
0.9999999999999998
  9
$SKPOLY
 70
     0
  9
$TDCREATE
 40
2457461.010427732
  9
$TDUPDATE
 40
2457461.010427732
  9
$TDINDWG
 40
0.0000290394
  9
$TDUSRTIMER
 40
0.0000290394
  9
$USRTIMER
 70
     1
  9
$ANGBASE
 50
0.0
  9
$ANGDIR
 70
     0
  9
$PDMODE
 70
     0
  9
$PDSIZE
 40
0.0
  9
$PLINEWID
 40
0.0
  9
$COORDS
 70
     0
  9
$SPLFRAME
 70
     0
  9
$SPLINETYPE
 70
     6
  9
$SPLINESEGS
 70
     8
  9
$ATTDIA
 70
     0
  9
$ATTREQ
 70
     1
  9
$HANDLING
 70
     1
  9
$HANDSEED
  5
1E4
  9
$SURFTAB1
 70
     6
  9
$SURFTAB2
 70
     6
  9
$SURFTYPE
 70
     6
  9
$SURFU
 70
     6
  9
$SURFV
 70
     6
  9
$UCSNAME
  2

  9
$UCSORG
 10
0.0
 20
0.0
 30
0.0
  9
$UCSXDIR
 10
1.0
 20
0.0
 30
0.0
  9
$UCSYDIR
 10
0.0
 20
1.0
 30
0.0
  9
$PUCSNAME
  2

  9
$PUCSORG
 10
0.0
 20
0.0
 30
0.0
  9
$PUCSXDIR
 10
1.0
 20
0.0
 30
0.0
  9
$PUCSYDIR
 10
0.0
 20
1.0
 30
0.0
  9
$USERI1
 70
     0
  9
$USERI2
 70
     0
  9
$USERI3
 70
     0
  9
$USERI4
 70
     0
  9
$USERI5
 70
     0
  9
$USERR1
 40
0.0
  9
$USERR2
 40
0.0
  9
$USERR3
 40
0.0
  9
$USERR4
 40
0.0
  9
$USERR5
 40
0.0
  9
$WORLDVIEW
 70
     1
  9
$SHADEDGE
 70
     3
  9
$SHADEDIF
 70
    70
  9
$TILEMODE
 70
     1
  9
$MAXACTVP
 70
    64
  9
$PLIMCHECK
 70
     0
  9
$PEXTMIN
 10
1.0000000000000000E+020
 20
1.0000000000000000E+020
 30
1.0000000000000000E+020
  9
$PEXTMAX
 10
-1.0000000000000000E+020
 20
-1.0000000000000000E+020
 30
-1.0000000000000000E+020
  9
$PLIMMIN
 10
0.0
 20
0.0
  9
$PLIMMAX
 10
12.0
 20
9.0
  9
$UNITMODE
 70
     0
  9
$VISRETAIN
 70
     1
  9
$PLINEGEN
 70
     0
  9
$PSLTSCALE
 70
     1
  0
ENDSEC
  0
SECTION
  2
TABLES
  0
TABLE
  2
VPORT
 70
     1
  0
VPORT
  2
*ACTIVE
 70
     0
 10
0.0
 20
0.0
 11
1.0
 21
1.0
 12
73.849931787175976
 22
45.344176709661618
 13
0.0
 23
0.0
 14
1.0
 24
1.0
 15
0.0
 25
0.0
 16
0.0
 26
0.0
 36
1.0
 17
0.0
 27
0.0
 37
0.0
 40
90.688353419323235
 41
1.6286530519682041
 42
50.0
 43
0.0
 44
0.0
 50
0.0
 51
0.0
 71
     0
 72
   100
 73
     1
 74
     1
 75
     0
 76
     0
 77
     0
 78
     0
  0
ENDTAB
  0
TABLE
  2
LTYPE
 70
    40
  0
LTYPE
  2
CONTINUOUS
 70
     0
  3
Solid line
 72
    65
 73
     0
 40
0.0
  0
LTYPE
  2
HIDDEN
 70
     0
  3
_ _ _ _ _ _ _ _ _ _ _ _ _ _ 
 72
    65
 73
     2
 40
9.5249999999999986
 49
6.3499999999999988
 49
-3.1749999999999989
  0
LTYPE
  2
DASHED
 70
     0
  3
__ __ __ __ __ __ __ __ __ 
 72
    65
 73
     2
 40
19.050000000000001
 49
12.699999999999999
 49
-6.3499999999999988
  0
LTYPE
  2
CENTER
 70
     0
  3
____ _ ____ _ ____ _ ____ _ 
 72
    65
 73
     4
 40
50.799999999999997
 49
31.75
 49
-6.3499999999999988
 49
6.3499999999999988
 49
-6.3499999999999988
  0
LTYPE
  2
PHANTOM
 70
     0
  3
_____ _ _ _____ _ _ _____ _ _ 
 72
    65
 73
     6
 40
63.500000000000007
 49
31.75
 49
-6.3499999999999988
 49
6.3499999999999988
 49
-6.3499999999999988
 49
6.3499999999999988
 49
-6.3499999999999988
  0
LTYPE
  2
DOT
 70
     0
  3
...........................
 72
    65
 73
     2
 40
6.3499999999999988
 49
0.0
 49
-6.3499999999999988
  0
LTYPE
  2
DASHDOT
 70
     0
  3
__ . __ . __ . __ . __ . __ . 
 72
    65
 73
     4
 40
25.399999999999999
 49
12.699999999999999
 49
-6.3499999999999988
 49
0.0
 49
-6.3499999999999988
  0
LTYPE
  2
DIVIDE
 70
     0
  3
__ . . __ . . __ . . __ . . 
 72
    65
 73
     6
 40
31.75
 49
12.699999999999999
 49
-6.3499999999999988
 49
0.0
 49
-6.3499999999999988
 49
0.0
 49
-6.3499999999999988
  0
LTYPE
  2
BORDER
 70
     0
  3
__ __ . __ __ . __ __ . __ __ .
 72
    65
 73
     6
 40
44.449999999999989
 49
12.699999999999999
 49
-6.3499999999999988
 49
12.699999999999999
 49
-6.3499999999999988
 49
0.0
 49
-6.3499999999999988
  0
LTYPE
  2
BORDER2
 70
     0
  3
Border (.5x) __.__.__.__.__.__.
 72
    65
 73
     6
 40
0.875
 49
0.25
 49
-0.125
 49
0.25
 49
-0.125
 49
0.0
 49
-0.125
  0
LTYPE
  2
BORDERX2
 70
     0
  3
Border (2x) ____  ____  .  ____
 72
    65
 73
     6
 40
3.5
 49
1.0
 49
-0.5
 49
1.0
 49
-0.5
 49
0.0
 49
-0.5
  0
LTYPE
  2
CENTER2
 70
     0
  3
Center (.5x) ___ _ ___ _ ___ _ 
 72
    65
 73
     4
 40
1.125
 49
0.7500000000000001
 49
-0.125
 49
0.125
 49
-0.125
  0
LTYPE
  2
CENTERX2
 70
     0
  3
Center (2x) ________  __  _____
 72
    65
 73
     4
 40
4.0
 49
2.5
 49
-0.5
 49
0.5
 49
-0.5
  0
LTYPE
  2
DASHDOT2
 70
     0
  3
Dash dot (.5x) _._._._._._._._.
 72
    65
 73
     4
 40
0.5
 49
0.25
 49
-0.125
 49
0.0
 49
-0.125
  0
LTYPE
  2
DASHDOTX2
 70
     0
  3
Dash dot (2x) ____  .  ____  . 
 72
    65
 73
     4
 40
2.0
 49
1.0
 49
-0.5
 49
0.0
 49
-0.5
  0
LTYPE
  2
DASHED2
 70
     0
  3
Dashed (.5x) _ _ _ _ _ _ _ _ _ 
 72
    65
 73
     2
 40
0.375
 49
0.25
 49
-0.125
  0
LTYPE
  2
DASHEDX2
 70
     0
  3
Dashed (2x) ____  ____  ____  _
 72
    65
 73
     2
 40
1.5
 49
1.0
 49
-0.5
  0
LTYPE
  2
DIVIDE2
 70
     0
  3
Divide (.5x) __..__..__..__..__
 72
    65
 73
     6
 40
0.625
 49
0.25
 49
-0.125
 49
0.0
 49
-0.125
 49
0.0
 49
-0.125
  0
LTYPE
  2
DIVIDEX2
 70
     0
  3
Divide (2x) ________  .  .  ___
 72
    65
 73
     6
 40
2.5
 49
1.0
 49
-0.5
 49
0.0
 49
-0.5
 49
0.0
 49
-0.5
  0
LTYPE
  2
DOT2
 70
     0
  3
Dot (.5x) .....................
 72
    65
 73
     2
 40
0.125
 49
0.0
 49
-0.125
  0
LTYPE
  2
DOTX2
 70
     0
  3
Dot (2x) .  .  .  .  .  .  .  .
 72
    65
 73
     2
 40
0.5
 49
0.0
 49
-0.5
  0
LTYPE
  2
HIDDEN2
 70
     0
  3
Hidden (.5x) _ _ _ _ _ _ _ _ _ 
 72
    65
 73
     2
 40
0.1875
 49
0.125
 49
-0.0625
  0
LTYPE
  2
HIDDENX2
 70
     0
  3
Hidden (2x) ____ ____ ____ ____
 72
    65
 73
     2
 40
0.75
 49
0.5
 49
-0.25
  0
LTYPE
  2
PHANTOM2
 70
     0
  3
Phantom (.5x) ___ _ _ ___ _ _ _
 72
    65
 73
     6
 40
1.25
 49
0.6250000000000001
 49
-0.125
 49
0.125
 49
-0.125
 49
0.125
 49
-0.125
  0
LTYPE
  2
PHANTOMX2
 70
     0
  3
Phantom (2x) ____________    __
 72
    65
 73
     6
 40
5.0
 49
2.5
 49
-0.5
 49
0.5
 49
-0.5
 49
0.5
 49
-0.5
  0
LTYPE
  2
DOTS
 70
     0
  3
Dots - - - - - - - - - - - - - 
 72
    65
 73
     2
 40
0.1
 49
0.05
 49
-0.05
  0
LTYPE
  2
ACAD_ISO02W100
 70
     0
  3
__ __ __ __ __ __ __ __ __ __ _
 72
    65
 73
     2
 40
15.0
 49
12.0
 49
-3.0
  0
LTYPE
  2
ACAD_ISO03W100
 70
     0
  3
__    __    __    __    __    _
 72
    65
 73
     2
 40
30.0
 49
12.0
 49
-18.0
  0
LTYPE
  2
ACAD_ISO04W100
 70
     0
  3
____ . ____ . ____ . ____ . ___
 72
    65
 73
     4
 40
30.5
 49
24.0
 49
-3.0
 49
0.5
 49
-3.0
  0
LTYPE
  2
ACAD_ISO05W100
 70
     0
  3
____ .. ____ .. ____ .. ____ ..
 72
    65
 73
     6
 40
34.0
 49
24.0
 49
-3.0
 49
0.5
 49
-3.0
 49
0.5
 49
-3.0
  0
LTYPE
  2
ACAD_ISO06W100
 70
     0
  3
____ ... ____ ... ____ ... ____
 72
    65
 73
     6
 40
34.0
 49
24.0
 49
-3.0
 49
0.5
 49
-3.0
 49
0.5
 49
-3.0
  0
LTYPE
  2
ACAD_ISO07W100
 70
     0
  3
. . . . . . . . . . . . . . . .
 72
    65
 73
     2
 40
3.5
 49
0.5
 49
-3.0
  0
LTYPE
  2
ACAD_ISO08W100
 70
     0
  3
____ __ ____ __ ____ __ ____ __
 72
    65
 73
     4
 40
36.0
 49
24.0
 49
-3.0
 49
6.0
 49
-3.0
  0
LTYPE
  2
ACAD_ISO09W100
 70
     0
  3
____ __ __ ____ __ __ ____ __ _
 72
    65
 73
     6
 40
45.0
 49
24.0
 49
-3.0
 49
6.0
 49
-3.0
 49
6.0
 49
-3.0
  0
LTYPE
  2
ACAD_ISO10W100
 70
     0
  3
__ . __ . __ . __ . __ . __ . _
 72
    65
 73
     4
 40
18.5
 49
12.0
 49
-3.0
 49
0.5
 49
-3.0
  0
LTYPE
  2
ACAD_ISO11W100
 70
     0
  3
__ __ . __ __ . __ __ . __ __ .
 72
    65
 73
     6
 40
33.5
 49
12.0
 49
-3.0
 49
12.0
 49
-3.0
 49
0.5
 49
-3.0
  0
LTYPE
  2
ACAD_ISO12W100
 70
     0
  3
__ . . __ . . __ . . __ . . __ 
 72
    65
 73
     6
 40
22.0
 49
12.0
 49
-3.0
 49
0.5
 49
-3.0
 49
0.5
 49
-3.0
  0
LTYPE
  2
ACAD_ISO13W100
 70
     0
  3
__ __ . . __ __ . . __ __ . . _
 72
    65
 73
     6
 40
33.5
 49
12.0
 49
-3.0
 49
12.0
 49
-3.0
 49
0.5
 49
-3.0
  0
LTYPE
  2
ACAD_ISO14W100
 70
     0
  3
__ . . . __ . . . __ . . . __ .
 72
    65
 73
     6
 40
22.0
 49
12.0
 49
-3.0
 49
0.5
 49
-3.0
 49
0.5
 49
-3.0
  0
LTYPE
  2
ACAD_ISO15W100
 70
     0
  3
__ __ . . . __ __ . . . __ __ .
 72
    65
 73
     6
 40
33.5
 49
12.0
 49
-3.0
 49
12.0
 49
-3.0
 49
0.5
 49
-3.0
  0
ENDTAB
  0
TABLE
  2
LAYER
 70
    10
  0
LAYER
  2
0
 70
     0
 62
     7
  6
CONTINUOUS
  0
LAYER
  2
1
 70
     0
 62
     7
  6
CONTINUOUS
  0
LAYER
  2
AM_4
 70
     0
 62
     7
  6
CONTINUOUS
  0
LAYER
  2
AM_7
 70
     0
 62
     7
  6
CENTER
  0
LAYER
  2
AM_9
 70
     0
 62
     6
  6
DASHED
  0
LAYER
  2
CONNECTIONPOINTS
 70
     0
 62
     7
  6
CONTINUOUS
  0
LAYER
  2
CONSTRUCTION
 70
     0
 62
     5
  6
CONTINUOUS
  0
LAYER
  2
DIMENSIONS
 70
     0
 62
     9
  6
CONTINUOUS
  0
LAYER
  2
GEOMETRY
 70
     0
 62
     7
  6
CONTINUOUS
  0
LAYER
  2
NOTES
 70
     0
 62
     7
  6
CONTINUOUS
  0
ENDTAB
  0
TABLE
  2
STYLE
 70
     6
  0
STYLE
  2
STANDARD
 70
     0
 40
0.0
 41
1.0
 50
0.0
 71
     0
 42
1.5
  3
txt
  4

  0
STYLE
  2
ANNOTATIVE
 70
     0
 40
0.0
 41
1.0
 50
0.0
 71
     0
 42
0.2
  3
txt
  4

  0
STYLE
  2
ITALIC
 70
     0
 40
0.0
 41
1.0
 50
0.0
 71
     0
 42
1.5
  3
ITALIC
  4

  0
STYLE
  2
SIMPLEX
 70
     0
 40
0.0
 41
1.0
 50
0.0
 71
     0
 42
1.5
  3
SIMPLEX
  4

  0
STYLE
  2
COMPLEX
 70
     0
 40
0.0
 41
1.0
 50
0.0
 71
     0
 42
1.5
  3
COMPLEX
  4

  0
STYLE
  2
ARIAL
 70
     0
 40
0.0
 41
1.0
 50
0.0
 71
     0
 42
1.5
  3
txt
  4

  0
ENDTAB
  0
TABLE
  2
VIEW
 70
     0
  0
ENDTAB
  0
TABLE
  2
UCS
 70
     0
  0
ENDTAB
  0
TABLE
  2
APPID
 70
     3
  0
APPID
  2
ACAD
 70
     0
  0
APPID
  2
ACADANNOTATIVE
 70
     0
  0
APPID
  2
ACAD_MLEADERVER
 70
     0
  0
ENDTAB
  0
TABLE
  2
DIMSTYLE
 70
     2
  0
DIMSTYLE
  2
STANDARD
 70
     0
  3

  4

  5

  6

  7

 40
1.0
 41
0.18
 42
0.0625
 43
0.38
 44
0.18
 45
0.0
 46
0.0
 47
0.0
 48
0.0
140
0.18
141
0.09
142
0.0
143
25.399999999999999
144
1.0
145
0.0
146
1.0
147
0.09
 71
     0
 72
     0
 73
     1
 74
     1
 75
     0
 76
     0
 77
     0
 78
     0
170
     0
171
     2
172
     0
173
     0
174
     0
175
     0
176
     0
177
     0
178
     0
  0
DIMSTYLE
  2
ANNOTATIVE
 70
     0
  3

  4

  5

  6

  7

 40
1.0
 41
0.18
 42
0.0625
 43
0.38
 44
0.18
 45
0.0
 46
0.0
 47
0.0
 48
0.0
140
0.18
141
0.09
142
0.0
143
25.399999999999999
144
1.0
145
0.0
146
1.0
147
0.09
 71
     0
 72
     0
 73
     1
 74
     1
 75
     0
 76
     0
 77
     0
 78
     0
170
     0
171
     2
172
     0
173
     0
174
     0
175
     0
176
     0
177
     0
178
     0
  0
ENDTAB
  0
ENDSEC
  0
SECTION
  2
BLOCKS
  0
BLOCK
  8
0
  2
$MODEL_SPACE
 70
     0
 10
0.0
 20
0.0
 30
0.0
  3
$MODEL_SPACE
  1

  0
ENDBLK
  5
77
  8
0
  0
BLOCK
 67
     1
  8
0
  2
$PAPER_SPACE
 70
     0
 10
0.0
 20
0.0
 30
0.0
  3
$PAPER_SPACE
  1

  0
ENDBLK
  5
73
 67
     1
  8
0
  0
BLOCK
  8
0
 62
     6
  2
ARROW
 70
     0
 10
0.0
 20
0.0
 30
0.0
  3
ARROW
  1

  0
POLYLINE
  5
F3
  8
1
  6
CONTINUOUS
 62
     0
 66
     1
 10
0.0
 20
0.0
 30
0.0
 70
     1
  0
VERTEX
  5
1C2
  8
1
  6
CONTINUOUS
 62
     0
 10
0.0
 20
0.0
 30
0.0
  0
VERTEX
  5
1C3
  8
1
  6
CONTINUOUS
 62
     0
 10
12.699999999999999
 20
12.699999999999999
 30
0.0
  0
VERTEX
  5
1C4
  8
1
  6
CONTINUOUS
 62
     0
 10
12.699999999999999
 20
-12.699999999999999
 30
0.0
  0
SEQEND
  5
1C5
  8
1
  6
CONTINUOUS
 62
     0
  0
INSERT
  5
F4
  8
1
  6
CONTINUOUS
 62
     0
  2
*U3
 10
0.0
 20
0.0
 30
0.0
1001
ACAD
1002
{
1000
R14_HATCH_DATA
1000
F4
1011
1.0
1021
0.0
1031
0.0
1021
0.0
1031
0.0
1011
0.0
1021
0.0
1031
0.0
1021
1.0
1031
0.0
1011
0.0
1021
0.0
1031
0.0
1021
0.0
1031
1.0
1040
0.0
1010
0.0
1020
0.0
1030
1.0
1000
SOLID
1070
     1
1070
     1
1071
        1
1071
        1
1071
        3
1070
     1
1040
0.0
1040
0.0
1040
12.699999999999999
1040
12.699999999999999
1070
     1
1040
12.699999999999999
1040
12.699999999999999
1040
12.699999999999999
1040
-12.699999999999999
1070
     1
1040
12.699999999999999
1040
-12.699999999999999
1040
0.0
1040
0.0
1071
        1
1005
F3
1070
     0
1070
     1
1071
        1
1040
0.0
1040
0.0
1040
0.0
1002
}
  0
ENDBLK
  5
F6
  8
0
 62
     6
  0
BLOCK
  8
0
 62
     6
  2
LONGARROW
 70
     0
 10
0.0
 20
0.0
 30
0.0
  3
LONGARROW
  1

  0
POLYLINE
  5
196
  8
1
  6
CONTINUOUS
 62
     0
 66
     1
 10
0.0
 20
0.0
 30
0.0
 70
     1
  0
VERTEX
  5
1CF
  8
1
  6
CONTINUOUS
 62
     0
 10
0.0
 20
0.0
 30
0.0
  0
VERTEX
  5
1D0
  8
1
  6
CONTINUOUS
 62
     0
 10
50.799999999999997
 20
-6.3499999999999988
 30
0.0
  0
VERTEX
  5
1D1
  8
1
  6
CONTINUOUS
 62
     0
 10
50.799999999999997
 20
6.3499999999999988
 30
0.0
  0
SEQEND
  5
1D2
  8
1
  6
CONTINUOUS
 62
     0
  0
INSERT
  5
197
  8
1
  6
CONTINUOUS
 62
     0
  2
*U4
 10
0.0
 20
0.0
 30
0.0
1001
ACAD
1002
{
1000
R14_HATCH_DATA
1000
197
1011
1.0
1021
0.0
1031
0.0
1021
0.0
1031
0.0
1011
0.0
1021
0.0
1031
0.0
1021
1.0
1031
0.0
1011
0.0
1021
0.0
1031
0.0
1021
0.0
1031
1.0
1040
0.0
1010
0.0
1020
0.0
1030
1.0
1000
SOLID
1070
     1
1070
     1
1071
        1
1071
        1
1071
        3
1070
     1
1040
0.0
1040
0.0
1040
50.799999999999997
1040
-6.3499999999999988
1070
     1
1040
50.799999999999997
1040
-6.3499999999999988
1040
50.799999999999997
1040
6.3499999999999988
1070
     1
1040
50.799999999999997
1040
6.3499999999999988
1040
0.0
1040
0.0
1071
        1
1005
196
1070
     0
1070
     1
1071
        1
1040
0.0
1040
0.0
1040
0.0
1002
}
  0
ENDBLK
  5
199
  8
0
 62
     6
  0
BLOCK
  8
0
 62
     6
  2
*U3
 70
     1
 10
0.0
 20
0.0
 30
0.0
  3
*U3
  1

  0
SOLID
  5
1C7
  8
1
  6
CONTINUOUS
 62
     0
 10
12.699999999999999
 20
12.699999999999999
 30
0.0
 11
0.0
 21
0.0
 31
0.0
 12
12.699999999999999
 22
0.0
 32
0.0
 13
12.699999999999999
 23
0.0
 33
0.0
210
0.0
220
0.0
230
1.0
  0
SOLID
  5
1C8
  8
1
  6
CONTINUOUS
 62
     0
 10
0.0
 20
0.0
 30
0.0
 11
-12.699999999999999
 21
0.0
 31
0.0
 12
-12.699999999999999
 22
-12.699999999999999
 32
0.0
 13
-12.699999999999999
 23
-12.699999999999999
 33
0.0
210
0.0
220
0.0
230
-1.0
  0
LINE
  5
1C9
  8
1
  6
CONTINUOUS
 62
     0
 10
12.699999999999999
 20
12.699999999999999
 30
0.0
 11
0.0
 21
0.0
 31
0.0
  0
LINE
  5
1CA
  8
1
  6
CONTINUOUS
 62
     0
 10
12.699999999999999
 20
0.0
 30
0.0
 11
12.699999999999999
 21
12.699999999999999
 31
0.0
  0
LINE
  5
1CB
  8
1
  6
CONTINUOUS
 62
     0
 10
12.699999999999999
 20
0.0
 30
0.0
 11
12.699999999999999
 21
-12.699999999999999
 31
0.0
  0
LINE
  5
1CC
  8
1
  6
CONTINUOUS
 62
     0
 10
12.699999999999999
 20
-12.699999999999999
 30
0.0
 11
0.0
 21
0.0
 31
0.0
  0
ENDBLK
  5
1CE
  8
0
 62
     6
  0
BLOCK
  8
0
 62
     6
  2
*U4
 70
     1
 10
0.0
 20
0.0
 30
0.0
  3
*U4
  1

  0
SOLID
  5
1D4
  8
1
  6
CONTINUOUS
 62
     0
 10
50.799999999999997
 20
6.3499999999999988
 30
0.0
 11
0.0
 21
0.0
 31
0.0
 12
50.799999999999997
 22
0.0
 32
0.0
 13
50.799999999999997
 23
0.0
 33
0.0
210
0.0
220
0.0
230
1.0
  0
SOLID
  5
1D5
  8
1
  6
CONTINUOUS
 62
     0
 10
0.0
 20
0.0
 30
0.0
 11
-50.799999999999997
 21
0.0
 31
0.0
 12
-50.799999999999997
 22
-6.3499999999999988
 32
0.0
 13
-50.799999999999997
 23
-6.3499999999999988
 33
0.0
210
0.0
220
0.0
230
-1.0
  0
LINE
  5
1D6
  8
1
  6
CONTINUOUS
 62
     0
 10
50.799999999999997
 20
6.3499999999999988
 30
0.0
 11
0.0
 21
0.0
 31
0.0
  0
LINE
  5
1D7
  8
1
  6
CONTINUOUS
 62
     0
 10
50.799999999999997
 20
0.0
 30
0.0
 11
50.799999999999997
 21
6.3499999999999988
 31
0.0
  0
LINE
  5
1D8
  8
1
  6
CONTINUOUS
 62
     0
 10
50.799999999999997
 20
0.0
 30
0.0
 11
50.799999999999997
 21
-6.3499999999999988
 31
0.0
  0
LINE
  5
1D9
  8
1
  6
CONTINUOUS
 62
     0
 10
50.799999999999997
 20
-6.3499999999999988
 30
0.0
 11
0.0
 21
0.0
 31
0.0
  0
ENDBLK
  5
1DB
  8
0
 62
     6
  0
ENDSEC
  0
SECTION
  2
ENTITIES
  0
TEXT
  5
B1
  8
1
  6
CONTINUOUS
 62
     7
 10
125.6136923076923
 20
10.826000000000001
 30
0.0
 40
1.5
  1
ESC. 2:1
  7
ARIAL
  0
TEXT
  5
B3
  8
1
  6
CONTINUOUS
 62
     7
 10
125.6136923076923
 20
8.5759999999999987
 30
0.0
 40
1.5
  1
Brass or
  7
ARIAL
  0
TEXT
  5
B4
  8
1
  6
CONTINUOUS
 62
     7
 10
125.6136923076923
 20
6.3259999999999978
 30
0.0
 40
1.5
  1
6061 T6 Aluminum
  7
ARIAL
  0
LINE
  5
B5
  8
1
  6
CONTINUOUS
 62
     7
 10
17.76209403559654
 20
79.184260649882575
 30
0.0
 11
17.76209403559654
 21
85.184260649882575
 31
0.0
  0
LINE
  5
B6
  8
1
  6
CONTINUOUS
 62
     7
 10
61.76209403559654
 20
79.184260649882575
 30
0.0
 11
61.76209403559654
 21
85.184260649882518
 31
0.0
  0
LINE
  5
B7
  8
1
  6
CONTINUOUS
 62
     7
 10
17.76209403559654
 20
85.184260649882575
 30
0.0
 11
61.76209403559654
 21
85.184260649882575
 31
0.0
  0
LINE
  5
B8
  8
1
  6
CONTINUOUS
 62
     7
 10
21.96209403559655
 20
80.684260649882575
 30
0.0
 11
57.562094035596552
 21
80.684260649882575
 31
0.0
  0
LINE
  5
B9
  8
1
  6
CONTINUOUS
 62
     7
 10
17.76209403559654
 20
79.184260649882575
 30
0.0
 11
61.76209403559654
 21
79.184260649882575
 31
0.0
  0
LINE
  5
BA
  8
1
  6
CONTINUOUS
 62
     7
 10
21.96209403559655
 20
80.684260649882575
 30
0.0
 11
21.96209403559655
 21
85.184260649882575
 31
0.0
  0
LINE
  5
BB
  8
1
  6
CONTINUOUS
 62
     7
 10
57.562094035596552
 20
80.184260649882575
 30
0.0
 11
57.562094035596552
 21
85.184260649882518
 31
0.0
  0
LINE
  5
BC
  8
1
  6
CONTINUOUS
 62
     8
 10
57.562094035596552
 20
84.184260649882575
 30
0.0
 11
61.76209403559654
 21
84.184260649882575
 31
0.0
  0
LINE
  5
BD
  8
1
  6
CONTINUOUS
 62
     8
 10
57.562094035596552
 20
80.184260649882575
 30
0.0
 11
61.76209403559654
 21
80.184260649882575
 31
0.0
  0
LINE
  5
BE
  8
1
  6
DOT
 62
     8
 10
58.062094035596552
 20
80.184260649882575
 30
0.0
 11
58.062094035596552
 21
84.184260649882575
 31
0.0
  0
LINE
  5
BF
  8
1
  6
CENTER
 62
     8
 10
52.603478650981259
 20
82.184260649882575
 30
0.0
 11
68.5
 21
82.184260649882575
 31
0.0
  0
LINE
  5
C0
  8
1
  6
DOT
 62
     8
 10
57.562094035596552
 20
83.684260649882575
 30
0.0
 11
61.76209403559654
 21
83.684260649882575
 31
0.0
  0
LINE
  5
C1
  8
1
  6
DOT
 62
     8
 10
57.562094035596552
 20
80.684260649882575
 30
0.0
 11
61.76209403559654
 21
80.684260649882575
 31
0.0
  0
LINE
  5
C2
  8
1
  6
DOT
 62
     8
 10
58.062094035596552
 20
84.184260649882575
 30
0.0
 11
57.562094035596552
 21
83.684260649882575
 31
0.0
  0
LINE
  5
C3
  8
1
  6
DOT
 62
     8
 10
58.062094035596552
 20
80.184260649882575
 30
0.0
 11
57.562094035596552
 21
80.684260649882575
 31
0.0
  0
LINE
  5
C4
  8
1
  6
CONTINUOUS
 62
     7
 10
25.562094035596552
 20
68.684260649882589
 30
0.0
 11
25.562094035596552
 21
80.684260649882575
 31
0.0
  0
LINE
  5
C5
  8
1
  6
CONTINUOUS
 62
     7
 10
53.962094035596543
 20
68.684260649882589
 30
0.0
 11
53.962094035596543
 21
80.684260649882575
 31
0.0
  0
LINE
  5
C6
  8
1
  6
CONTINUOUS
 62
     7
 10
85.141848313724594
 20
85.113556581584689
 30
0.0
 11
129.14184831372461
 21
85.113556581584689
 31
0.0
  0
LINE
  5
C7
  8
1
  6
CONTINUOUS
 62
     7
 10
89.491848313724617
 20
80.113556581584689
 30
0.0
 11
124.7918483137246
 21
80.113556581584689
 31
0.0
  0
LINE
  5
C8
  8
1
  6
CONTINUOUS
 62
     7
 10
85.141848313724594
 20
80.113556581584689
 30
0.0
 11
129.14184831372461
 21
80.113556581584689
 31
0.0
  0
LINE
  5
C9
  8
1
  6
CONTINUOUS
 62
     7
 10
129.14184831372461
 20
85.113556581584689
 30
0.0
 11
129.14184831372461
 21
80.113556581584689
 31
0.0
  0
LINE
  5
CA
  8
1
  6
CONTINUOUS
 62
     7
 10
23.112094035596542
 20
68.684260649882589
 30
0.0
 11
56.412094035596532
 21
68.684260649882589
 31
0.0
  0
LINE
  5
CB
  8
1
  6
CONTINUOUS
 62
     7
 10
22.112094035596549
 20
69.684260649882575
 30
0.0
 11
23.112094035596542
 21
68.684260649882589
 31
0.0
  0
LINE
  5
CC
  8
1
  6
CONTINUOUS
 62
     7
 10
57.412094035596539
 20
69.684260649882575
 30
0.0
 11
56.412094035596539
 21
68.684260649882589
 31
0.0
  0
LINE
  5
CD
  8
1
  6
CONTINUOUS
 62
     7
 10
89.441848313724606
 20
80.113556581584689
 30
0.0
 11
89.441848313724606
 21
85.113556581584689
 31
0.0
  0
LINE
  5
CE
  8
1
  6
CONTINUOUS
 62
     7
 10
124.8418483137246
 20
80.113556581584689
 30
0.0
 11
124.8418483137246
 21
85.113556581584689
 31
0.0
  0
LINE
  5
CF
  8
1
  6
CONTINUOUS
 62
     7
 10
85.141848313724594
 20
85.113556581584689
 30
0.0
 11
85.141848313724594
 21
80.113556581584689
 31
0.0
  0
LINE
  5
D0
  8
1
  6
CENTER
 62
     8
 10
123.64184831372459
 20
82.613556581584689
 30
0.0
 11
134.5
 21
82.613556581584689
 31
0.0
  0
LINE
  5
D1
  8
1
  6
DOT
 62
     8
 10
124.8418483137246
 20
84.113556581584703
 30
0.0
 11
129.14184831372461
 21
84.113556581584703
 31
0.0
  0
LINE
  5
D2
  8
1
  6
DOT
 62
     8
 10
124.8418483137246
 20
81.113556581584703
 30
0.0
 11
129.14184831372461
 21
81.113556581584703
 31
0.0
  0
LINE
  5
D3
  8
1
  6
DOT
 62
     8
 10
124.8418483137246
 20
83.813556581584692
 30
0.0
 11
129.14184831372461
 21
83.813556581584692
 31
0.0
  0
LINE
  5
D4
  8
1
  6
DOT
 62
     8
 10
124.8418483137246
 20
81.4135565815847
 30
0.0
 11
129.14184831372461
 21
81.4135565815847
 31
0.0
  0
LINE
  5
D5
  8
1
  6
CENTER
 62
     8
 10
53.962094035596522
 20
32.999999999999993
 30
0.0
 11
68.5
 21
32.999999999999993
 31
0.0
  0
LINE
  5
D6
  8
1
  6
CENTER
 62
     8
 10
81.0
 20
32.999999999999993
 30
0.0
 11
134.5
 21
32.999999999999993
 31
0.0
  0
CIRCLE
  5
D7
  8
1
  6
CONTINUOUS
 62
     7
 10
39.762094035596519
 20
32.999999999999993
 30
0.0
 40
22.0
  0
CIRCLE
  5
D8
  8
1
  6
CONTINUOUS
 62
     7
 10
107.14184831372459
 20
32.999999999999993
 30
0.0
 40
22.0
  0
CIRCLE
  5
D9
  8
1
  6
CONTINUOUS
 62
     7
 10
39.762094035596519
 20
32.999999999999993
 30
0.0
 40
17.800000000000001
  0
CIRCLE
  5
DA
  8
1
  6
CONTINUOUS
 62
     7
 10
107.14184831372459
 20
32.999999999999993
 30
0.0
 40
17.699999999999999
  0
CIRCLE
  5
DB
  8
1
  6
CONTINUOUS
 62
     7
 10
39.762094035596519
 20
32.999999999999993
 30
0.0
 40
14.199999999999999
  0
CIRCLE
  5
DC
  8
1
  6
DOT
 62
     8
 10
39.762094035596519
 20
32.999999999999993
 30
0.0
 40
17.649999999999999
  0
LINE
  5
DD
  8
1
  6
DOT
 62
     8
 10
57.449377603176927
 20
35.0
 30
0.0
 11
61.67099633580316
 21
35.0
 31
0.0
  0
LINE
  5
DE
  8
1
  6
DOT
 62
     8
 10
57.449377603176927
 20
31.0
 30
0.0
 11
61.67099633580316
 21
31.0
 31
0.0
  0
LINE
  5
DF
  8
1
  6
DOT
 62
     8
 10
57.4900380788295
 20
34.600000000000001
 30
0.0
 11
61.703835078640481
 21
34.600000000000001
 31
0.0
  0
LINE
  5
E0
  8
1
  6
DOT
 62
     8
 10
57.4900380788295
 20
31.399999999999991
 30
0.0
 11
61.703835078640481
 21
31.399999999999991
 31
0.0
  0
LINE
  5
E1
  8
1
  6
CENTER
 62
     8
 10
32.662094035596532
 20
20.702439266260971
 30
0.0
 11
26.26209403559653
 21
9.6173140978201523
 31
0.0
  0
LINE
  5
E2
  8
1
  6
CENTER
 62
     8
 10
32.662094035596532
 20
45.297560733739019
 30
0.0
 11
26.26209403559653
 21
56.38268590217983
 31
0.0
  0
LINE
  5
E3
  8
1
  6
DOT
 62
     8
 10
29.18640144423745
 20
47.317636893463678
 30
0.0
 11
27.07559207792432
 21
50.973665961010269
 31
0.0
  0
LINE
  5
E4
  8
1
  6
DOT
 62
     8
 10
32.650503059375211
 20
49.317636893463678
 30
0.0
 11
30.53969369306208
 21
52.973665961010269
 31
0.0
  0
LINE
  5
E5
  8
1
  6
DOT
 62
     8
 10
29.512481367924931
 20
47.552849898308779
 30
0.0
 11
27.40558286801944
 21
51.20210514653575
 31
0.0
  0
LINE
  5
E6
  8
1
  6
DOT
 62
     8
 10
32.283762660035123
 20
49.152849898308787
 30
0.0
 11
30.176864160129639
 21
52.802105146535752
 31
0.0
  0
LINE
  5
E7
  8
1
  6
DOT
 62
     8
 10
32.650503059375183
 20
16.682363106536322
 30
0.0
 11
30.53969369306207
 21
13.02633403898972
 31
0.0
  0
LINE
  5
E8
  8
1
  6
DOT
 62
     8
 10
29.186401444237429
 20
18.682363106536322
 30
0.0
 11
27.075592077924309
 21
15.026334038989731
 31
0.0
  0
LINE
  5
E9
  8
1
  6
DOT
 62
     8
 10
32.283762660035123
 20
16.847150101691209
 30
0.0
 11
30.176864160129622
 21
13.19789485346425
 31
0.0
  0
LINE
  5
EA
  8
1
  6
DOT
 62
     8
 10
29.51248136792492
 20
18.447150101691211
 30
0.0
 11
27.405582868019419
 21
14.79789485346425
 31
0.0
  0
LINE
  5
EB
  8
1
  6
HIDDEN
 62
     8
 10
124.7781744617635
 20
34.499999999999993
 30
0.0
 11
129.09065238137251
 21
34.499999999999993
 31
0.0
  0
LINE
  5
EC
  8
1
  6
HIDDEN
 62
     8
 10
124.7781744617635
 20
31.5
 30
0.0
 11
129.09065238137251
 21
31.5
 31
0.0
  0
LINE
  5
ED
  8
1
  6
HIDDEN
 62
     8
 10
124.8011234970383
 20
34.200000000000003
 30
0.0
 11
129.10909666211811
 21
34.200000000000003
 31
0.0
  0
LINE
  5
EE
  8
1
  6
HIDDEN
 62
     8
 10
124.8011234970383
 20
31.800000000000001
 30
0.0
 11
129.10909666211811
 21
31.800000000000001
 31
0.0
  0
LINE
  5
EF
  8
1
  6
CONTINUOUS
 62
     1
 10
23.643696754327191
 20
18.026781605707829
 30
0.0
 11
22.911042332451309
 21
17.346180769603642
 31
0.0
  0
LINE
  5
F0
  8
1
  6
CONTINUOUS
 62
     1
 10
55.88049131686585
 20
47.973218394292161
 30
0.0
 11
56.613145738741729
 21
48.653819230396358
 31
0.0
  0
LINE
  5
F1
  8
1
  6
CONTINUOUS
 62
     1
 10
56.613145738741729
 20
48.653819230396358
 30
0.0
 11
57.613145738741729
 21
48.653819230396358
 31
0.0
  0
INSERT
  5
F7
  8
1
  6
CONTINUOUS
 62
     1
  2
ARROW
 10
55.88049131686585
 20
47.973218394292161
 30
0.0
 41
0.0196850393700788
 42
0.0196850393700788
 50
42.890612355255541
  0
INSERT
  5
F8
  8
1
  6
CONTINUOUS
 62
     1
  2
ARROW
 10
23.643696754327191
 20
18.026781605707829
 30
0.0
 41
0.0196850393700788
 42
0.0196850393700788
 50
222.8906123552556
  0
TEXT
  5
F9
  8
1
  6
CONTINUOUS
 62
     1
 10
58.433901753915649
 20
48.153819230396358
 30
0.0
 40
0.9999999999999998
  1
ø 44,00
  7
ARIAL
 72
     1
 11
60.80259206769464
 21
48.653819230396358
 31
0.0
 73
     2
  0
LINE
  5
FA
  8
1
  6
CONTINUOUS
 62
     1
 10
23.440290478589439
 20
25.897977144047541
 30
0.0
 11
22.52333522257781
 21
25.49898709596032
 31
0.0
  0
LINE
  5
FB
  8
1
  6
CONTINUOUS
 62
     1
 10
56.083897592603591
 20
40.102022855952441
 30
0.0
 11
57.000852848615231
 21
40.501012904039669
 31
0.0
  0
LINE
  5
FC
  8
1
  6
CONTINUOUS
 62
     1
 10
57.000852848615231
 20
40.501012904039669
 30
0.0
 11
58.000852848615217
 21
40.501012904039669
 31
0.0
  0
INSERT
  5
FD
  8
1
  6
CONTINUOUS
 62
     1
  2
ARROW
 10
56.083897592603591
 20
40.102022855952441
 30
0.0
 41
0.0196850393700788
 42
0.0196850393700788
 50
23.51505667768771
  0
INSERT
  5
FE
  8
1
  6
CONTINUOUS
 62
     1
  2
ARROW
 10
23.440290478589439
 20
25.897977144047541
 30
0.0
 41
0.0196850393700788
 42
0.0196850393700788
 50
203.51505667768771
  0
TEXT
  5
FF
  8
1
  6
CONTINUOUS
 62
     1
 10
58.821608863789137
 20
40.001012904039669
 30
0.0
 40
0.9999999999999998
  1
ø 35,60
  7
ARIAL
 72
     1
 11
61.190299177568129
 21
40.501012904039669
 31
0.0
 73
     2
  0
LINE
  5
100
  8
1
  6
CONTINUOUS
 62
     1
 10
29.28011946455219
 20
23.420427509957449
 30
0.0
 11
38.941443538253878
 21
32.25
 31
0.0
  0
LINE
  5
101
  8
1
  6
CONTINUOUS
 62
     1
 10
50.244068606640852
 20
42.579572490042537
 30
0.0
 11
40.582744532939159
 21
33.75
 31
0.0
  0
INSERT
  5
102
  8
1
  6
CONTINUOUS
 62
     1
  2
ARROW
 10
50.244068606640852
 20
42.579572490042537
 30
0.0
 41
0.0196850393700788
 42
0.0196850393700788
 50
222.4244757342467
  0
INSERT
  5
103
  8
1
  6
CONTINUOUS
 62
     1
  2
ARROW
 10
29.28011946455219
 20
23.420427509957449
 30
0.0
 41
0.0196850393700788
 42
0.0196850393700788
 50
42.424475734246599
  0
TEXT
  5
104
  8
1
  6
CONTINUOUS
 62
     1
 10
37.393403721817528
 20
32.5
 30
0.0
 40
0.9999999999999998
  1
ø 28,40
  7
ARIAL
 72
     1
 11
39.762094035596519
 21
32.999999999999993
 31
0.0
 73
     2
  0
TEXT
  5
105
  8
1
  6
CONTINUOUS
 62
     1
 10
37.217755699989453
 20
61.184260649882582
 30
0.0
 40
0.9999999999999998
  1
d=35,30
  7
ARIAL
 72
     1
 11
39.76209403559654
 21
61.684260649882582
 31
0.0
 73
     2
  0
LINE
  5
106
  8
1
  6
CONTINUOUS
 62
     1
 10
57.412094035596539
 20
66.184260649882589
 30
0.0
 11
57.412094035596539
 21
61.184260649882582
 31
0.0
  0
LINE
  5
107
  8
1
  6
CONTINUOUS
 62
     1
 10
22.112094035596549
 20
66.184260649882589
 30
0.0
 11
22.112094035596549
 21
61.184260649882582
 31
0.0
  0
LINE
  5
108
  8
1
  6
CONTINUOUS
 62
     1
 10
57.412094035596539
 20
61.684260649882582
 30
0.0
 11
43.188218526952852
 21
61.684260649882582
 31
0.0
  0
LINE
  5
109
  8
1
  6
CONTINUOUS
 62
     1
 10
22.112094035596549
 20
61.684260649882582
 30
0.0
 11
36.335969544240228
 21
61.684260649882582
 31
0.0
  0
INSERT
  5
10A
  8
1
  6
CONTINUOUS
 62
     1
  2
ARROW
 10
57.412094035596539
 20
61.684260649882582
 30
0.0
 41
0.0196850393700788
 42
0.0196850393700788
 50
180.0
  0
INSERT
  5
10B
  8
1
  6
CONTINUOUS
 62
     1
  2
ARROW
 10
22.112094035596549
 20
61.684260649882582
 30
0.0
 41
0.0196850393700788
 42
0.0196850393700788
  0
TEXT
  5
10C
  8
1
  6
CONTINUOUS
 62
     1
 10
11.01414042031689
 20
73.434260649882575
 30
0.0
 40
0.9999999999999998
  1
10,50
  7
ARIAL
 72
     1
 11
12.76209403559656
 21
73.934260649882575
 31
0.0
 73
     2
  0
LINE
  5
10D
  8
1
  6
CONTINUOUS
 62
     1
 10
22.612094035596549
 20
68.684260649882589
 30
0.0
 11
12.26209403559657
 21
68.684260649882589
 31
0.0
  0
LINE
  5
10E
  8
1
  6
CONTINUOUS
 62
     1
 10
17.262094035596551
 20
79.184260649882575
 30
0.0
 11
12.26209403559656
 21
79.184260649882575
 31
0.0
  0
LINE
  5
10F
  8
1
  6
CONTINUOUS
 62
     1
 10
12.76209403559657
 20
68.684260649882589
 30
0.0
 11
12.76209403559656
 21
73.184260649882575
 31
0.0
  0
LINE
  5
110
  8
1
  6
CONTINUOUS
 62
     1
 10
12.76209403559656
 20
79.184260649882575
 30
0.0
 11
12.76209403559656
 21
74.684260649882589
 31
0.0
  0
INSERT
  5
111
  8
1
  6
CONTINUOUS
 62
     1
  2
ARROW
 10
12.76209403559657
 20
68.684260649882589
 30
0.0
 41
0.0196850393700788
 42
0.0196850393700788
 50
90.000000000000057
  0
INSERT
  5
112
  8
1
  6
CONTINUOUS
 62
     1
  2
ARROW
 10
12.76209403559656
 20
79.184260649882575
 30
0.0
 41
0.0196850393700788
 42
0.0196850393700788
 50
270.00000000000011
  0
TEXT
  5
113
  8
1
  6
CONTINUOUS
 62
     1
 10
11.40261245305904
 20
81.684260649882575
 30
0.0
 40
0.9999999999999998
  1
6,00
  7
ARIAL
 72
     1
 11
12.76209403559656
 21
82.184260649882575
 31
0.0
 73
     2
  0
LINE
  5
114
  8
1
  6
CONTINUOUS
 62
     1
 10
17.262094035596551
 20
79.184260649882575
 30
0.0
 11
12.26209403559656
 21
79.184260649882575
 31
0.0
  0
LINE
  5
115
  8
1
  6
CONTINUOUS
 62
     1
 10
17.262094035596551
 20
85.184260649882575
 30
0.0
 11
12.262094035596551
 21
85.184260649882575
 31
0.0
  0
LINE
  5
116
  8
1
  6
CONTINUOUS
 62
     1
 10
12.76209403559656
 20
79.184260649882575
 30
0.0
 11
12.76209403559656
 21
81.434260649882575
 31
0.0
  0
LINE
  5
117
  8
1
  6
CONTINUOUS
 62
     1
 10
12.762094035596551
 20
85.184260649882575
 30
0.0
 11
12.76209403559656
 21
82.934260649882575
 31
0.0
  0
INSERT
  5
118
  8
1
  6
CONTINUOUS
 62
     1
  2
ARROW
 10
12.76209403559656
 20
79.184260649882575
 30
0.0
 41
0.0196850393700788
 42
0.0196850393700788
 50
90.000000000000057
  0
INSERT
  5
119
  8
1
  6
CONTINUOUS
 62
     1
  2
ARROW
 10
12.762094035596551
 20
85.184260649882575
 30
0.0
 41
0.0196850393700788
 42
0.0196850393700788
 50
270.00000000000011
  0
TEXT
  5
11A
  8
1
  6
CONTINUOUS
 62
     1
 10
65.791766614041293
 20
81.684260649882575
 30
0.0
 40
0.9999999999999998
  1
M4
  7
ARIAL
 72
     1
 11
66.762094035596547
 21
82.184260649882575
 31
0.0
 73
     2
  0
LINE
  5
11B
  8
1
  6
CONTINUOUS
 62
     1
 10
62.26209403559654
 20
84.184260649882575
 30
0.0
 11
67.262094035596533
 21
84.184260649882575
 31
0.0
  0
LINE
  5
11C
  8
1
  6
CONTINUOUS
 62
     1
 10
62.26209403559654
 20
80.184260649882575
 30
0.0
 11
67.262094035596533
 21
80.184260649882575
 31
0.0
  0
LINE
  5
11D
  8
1
  6
CONTINUOUS
 62
     1
 10
66.762094035596547
 20
84.184260649882575
 30
0.0
 11
66.762094035596547
 21
82.934260649882575
 31
0.0
  0
LINE
  5
11E
  8
1
  6
CONTINUOUS
 62
     1
 10
66.762094035596547
 20
80.184260649882575
 30
0.0
 11
66.762094035596547
 21
81.434260649882575
 31
0.0
  0
INSERT
  5
11F
  8
1
  6
CONTINUOUS
 62
     1
  2
ARROW
 10
66.762094035596547
 20
84.184260649882575
 30
0.0
 41
0.0196850393700788
 42
0.0196850393700788
 50
270.00000000000011
  0
INSERT
  5
120
  8
1
  6
CONTINUOUS
 62
     1
  2
ARROW
 10
66.762094035596547
 20
80.184260649882575
 30
0.0
 41
0.0196850393700788
 42
0.0196850393700788
 50
90.000000000000057
  0
TEXT
  5
121
  8
1
  6
CONTINUOUS
 62
     1
 10
51.202612453059039
 20
86.434260649882575
 30
0.0
 40
0.9999999999999998
  1
3,00
  7
ARIAL
 72
     1
 11
52.562094035596559
 21
86.934260649882575
 31
0.0
 73
     2
  0
LINE
  5
122
  8
1
  6
CONTINUOUS
 62
     1
 10
57.062094035596552
 20
82.184260649882575
 30
0.0
 11
52.062094035596559
 21
82.184260649882575
 31
0.0
  0
LINE
  5
123
  8
1
  6
CONTINUOUS
 62
     1
 10
57.062094035596552
 20
85.184260649882575
 30
0.0
 11
52.062094035596559
 21
85.184260649882575
 31
0.0
  0
LINE
  5
124
  8
1
  6
CONTINUOUS
 62
     1
 10
52.562094035596559
 20
82.184260649882575
 30
0.0
 11
52.562094035596559
 21
81.184260649882589
 31
0.0
  0
LINE
  5
125
  8
1
  6
CONTINUOUS
 62
     1
 10
52.562094035596559
 20
85.184260649882575
 30
0.0
 11
52.562094035596559
 21
86.184260649882575
 31
0.0
  0
INSERT
  5
126
  8
1
  6
CONTINUOUS
 62
     1
  2
ARROW
 10
52.562094035596559
 20
82.184260649882575
 30
0.0
 41
0.0196850393700788
 42
0.0196850393700788
 50
270.00000000000011
  0
INSERT
  5
127
  8
1
  6
CONTINUOUS
 62
     1
  2
ARROW
 10
52.562094035596559
 20
85.184260649882575
 30
0.0
 41
0.0196850393700788
 42
0.0196850393700788
 50
90.000000000000057
  0
TEXT
  5
128
  8
1
  6
CONTINUOUS
 62
     1
 10
23.433235250704659
 20
89.684260649882575
 30
0.0
 40
0.9999999999999998
  1
4,20
  7
ARIAL
 72
     1
 11
24.792716833242171
 21
90.184260649882575
 31
0.0
 73
     2
  0
LINE
  5
129
  8
1
  6
CONTINUOUS
 62
     1
 10
17.76209403559654
 20
85.684260649882575
 30
0.0
 11
17.76209403559654
 21
90.684260649882575
 31
0.0
  0
LINE
  5
12A
  8
1
  6
CONTINUOUS
 62
     1
 10
21.96209403559655
 20
85.684260649882575
 30
0.0
 11
21.96209403559655
 21
90.684260649882575
 31
0.0
  0
LINE
  5
12B
  8
1
  6
CONTINUOUS
 62
     1
 10
17.76209403559654
 20
90.184260649882575
 30
0.0
 11
16.762094035596551
 21
90.184260649882575
 31
0.0
  0
LINE
  5
12C
  8
1
  6
CONTINUOUS
 62
     1
 10
21.96209403559655
 20
90.184260649882575
 30
0.0
 11
22.96209403559655
 21
90.184260649882575
 31
0.0
  0
INSERT
  5
12D
  8
1
  6
CONTINUOUS
 62
     1
  2
ARROW
 10
17.76209403559654
 20
90.184260649882575
 30
0.0
 41
0.0196850393700788
 42
0.0196850393700788
 50
180.0
  0
INSERT
  5
12E
  8
1
  6
CONTINUOUS
 62
     1
  2
ARROW
 10
21.96209403559655
 20
90.184260649882575
 30
0.0
 41
0.0196850393700788
 42
0.0196850393700788
  0
TEXT
  5
12F
  8
1
  6
CONTINUOUS
 62
     1
 10
61.05261245305902
 20
66.434260649882589
 30
0.0
 40
0.9999999999999998
  1
1,00
  7
ARIAL
 72
     1
 11
62.412094035596539
 21
66.934260649882575
 31
0.0
 73
     2
  0
LINE
  5
130
  8
1
  6
CONTINUOUS
 62
     1
 10
57.912094035596539
 20
69.684260649882575
 30
0.0
 11
62.912094035596539
 21
69.684260649882575
 31
0.0
  0
LINE
  5
131
  8
1
  6
CONTINUOUS
 62
     1
 10
56.912094035596517
 20
68.684260649882589
 30
0.0
 11
62.912094035596539
 21
68.684260649882589
 31
0.0
  0
LINE
  5
132
  8
1
  6
CONTINUOUS
 62
     1
 10
62.412094035596539
 20
69.684260649882575
 30
0.0
 11
62.412094035596539
 21
70.684260649882575
 31
0.0
  0
LINE
  5
133
  8
1
  6
CONTINUOUS
 62
     1
 10
62.412094035596539
 20
68.684260649882589
 30
0.0
 11
62.412094035596539
 21
67.684260649882589
 31
0.0
  0
INSERT
  5
134
  8
1
  6
CONTINUOUS
 62
     1
  2
ARROW
 10
62.412094035596539
 20
69.684260649882575
 30
0.0
 41
0.0196850393700788
 42
0.0196850393700788
 50
90.000000000000071
  0
INSERT
  5
135
  8
1
  6
CONTINUOUS
 62
     1
  2
ARROW
 10
62.412094035596539
 20
68.684260649882589
 30
0.0
 41
0.0196850393700788
 42
0.0196850393700788
 50
270.00000000000011
  0
TEXT
  5
136
  8
1
  6
CONTINUOUS
 62
     1
 10
37.217755699989453
 20
63.684260649882567
 30
0.0
 40
0.9999999999999998
  1
d=33,30
  7
ARIAL
 72
     1
 11
39.76209403559654
 21
64.184260649882575
 31
0.0
 73
     2
  0
LINE
  5
137
  8
1
  6
CONTINUOUS
 62
     1
 10
56.412094035596532
 20
68.684260649882589
 30
0.0
 11
56.412094035596532
 21
63.684260649882582
 31
0.0
  0
LINE
  5
138
  8
1
  6
CONTINUOUS
 62
     1
 10
23.112094035596542
 20
68.684260649882589
 30
0.0
 11
23.112094035596542
 21
63.684260649882582
 31
0.0
  0
LINE
  5
139
  8
1
  6
CONTINUOUS
 62
     1
 10
56.412094035596532
 20
64.184260649882575
 30
0.0
 11
43.188218526952852
 21
64.184260649882575
 31
0.0
  0
LINE
  5
13A
  8
1
  6
CONTINUOUS
 62
     1
 10
23.112094035596542
 20
64.184260649882575
 30
0.0
 11
36.335969544240221
 21
64.184260649882575
 31
0.0
  0
INSERT
  5
13B
  8
1
  6
CONTINUOUS
 62
     1
  2
ARROW
 10
56.412094035596532
 20
64.184260649882575
 30
0.0
 41
0.0196850393700788
 42
0.0196850393700788
 50
180.0
  0
INSERT
  5
13C
  8
1
  6
CONTINUOUS
 62
     1
  2
ARROW
 10
23.112094035596542
 20
64.184260649882575
 30
0.0
 41
0.0196850393700788
 42
0.0196850393700788
  0
TEXT
  5
13D
  8
1
  6
CONTINUOUS
 62
     1
 10
25.602612453059042
 20
82.434260649882575
 30
0.0
 40
0.9999999999999998
  1
4,50
  7
ARIAL
 72
     1
 11
26.96209403559655
 21
82.934260649882575
 31
0.0
 73
     2
  0
LINE
  5
13E
  8
1
  6
CONTINUOUS
 62
     1
 10
22.46209403559655
 20
85.184260649882575
 30
0.0
 11
27.46209403559655
 21
85.184260649882575
 31
0.0
  0
LINE
  5
13F
  8
1
  6
CONTINUOUS
 62
     1
 10
22.46209403559655
 20
80.684260649882575
 30
0.0
 11
27.46209403559655
 21
80.684260649882575
 31
0.0
  0
LINE
  5
140
  8
1
  6
CONTINUOUS
 62
     1
 10
26.96209403559655
 20
85.184260649882575
 30
0.0
 11
26.96209403559655
 21
83.684260649882575
 31
0.0
  0
LINE
  5
141
  8
1
  6
CONTINUOUS
 62
     1
 10
26.96209403559655
 20
80.684260649882575
 30
0.0
 11
26.96209403559655
 21
82.184260649882575
 31
0.0
  0
INSERT
  5
142
  8
1
  6
CONTINUOUS
 62
     1
  2
ARROW
 10
26.96209403559655
 20
85.184260649882575
 30
0.0
 41
0.0196850393700788
 42
0.0196850393700788
 50
270.00000000000011
  0
INSERT
  5
143
  8
1
  6
CONTINUOUS
 62
     1
  2
ARROW
 10
26.96209403559655
 20
80.684260649882575
 30
0.0
 41
0.0196850393700788
 42
0.0196850393700788
 50
90.000000000000057
  0
TEXT
  5
144
  8
1
  6
CONTINUOUS
 62
     1
 10
45.494555532588649
 20
46.129312334189777
 30
0.0
 40
0.9999999999999998
  1
120,00
  7
ARIAL
 72
     1
 11
47.630981180610469
 21
46.629312334189777
 31
0.0
 73
     2
  0
ARC
  5
145
  8
1
  6
CONTINUOUS
 62
     1
 10
39.762094035596512
 20
32.999999999999993
 30
0.0
 40
15.73777429002792
 50
0.0
 51
54.53902008722536
  0
ARC
  5
146
  8
1
  6
CONTINUOUS
 62
     1
 10
39.762094035596512
 20
32.999999999999993
 30
0.0
 40
15.73777429002792
 50
65.460979912774633
 51
120.0
  0
INSERT
  5
147
  8
1
  6
CONTINUOUS
 62
     1
  2
ARROW
 10
55.499868325624441
 20
32.999999999999993
 30
0.0
 41
0.0196850393700788
 42
0.0196850393700788
 50
90.455081659397948
  0
INSERT
  5
148
  8
1
  6
CONTINUOUS
 62
     1
  2
ARROW
 10
31.893206890582562
 20
46.629312334189777
 30
0.0
 41
0.0196850393700788
 42
0.0196850393700788
 50
29.544918340602042
  0
LINE
  5
149
  8
1
  6
CONTINUOUS
 62
     1
 10
117.70296142855889
 20
47.203974435899049
 30
0.0
 11
107.699497503525
 21
33.75
 31
0.0
  0
LINE
  5
14A
  8
1
  6
CONTINUOUS
 62
     1
 10
96.580735198890238
 20
18.79602556410094
 30
0.0
 11
106.58419912392409
 21
32.25
 31
0.0
  0
INSERT
  5
14B
  8
1
  6
CONTINUOUS
 62
     1
  2
ARROW
 10
96.580735198890238
 20
18.79602556410094
 30
0.0
 41
0.0196850393700788
 42
0.0196850393700788
 50
53.368007316927951
  0
INSERT
  5
14C
  8
1
  6
CONTINUOUS
 62
     1
  2
ARROW
 10
117.70296142855889
 20
47.203974435899049
 30
0.0
 41
0.0196850393700788
 42
0.0196850393700788
 50
233.3680073169279
  0
TEXT
  5
14D
  8
1
  6
CONTINUOUS
 62
     1
 10
104.7731579999456
 20
32.5
 30
0.0
 40
0.9999999999999998
  1
ø 35,40
  7
ARIAL
 72
     1
 11
107.14184831372459
 21
32.999999999999993
 31
0.0
 73
     2
  0
LINE
  5
14E
  8
1
  6
CONTINUOUS
 62
     1
 10
94.020072111574294
 20
15.3416028671716
 30
0.0
 11
93.423627738749275
 21
14.538948452043041
 31
0.0
  0
LINE
  5
14F
  8
1
  6
CONTINUOUS
 62
     1
 10
120.26362451587489
 20
50.658397132828391
 30
0.0
 11
120.8600688886999
 21
51.461051547956949
 31
0.0
  0
LINE
  5
150
  8
1
  6
CONTINUOUS
 62
     1
 10
120.8600688886999
 20
51.461051547956949
 30
0.0
 11
121.8600688886999
 21
51.461051547956949
 31
0.0
  0
INSERT
  5
151
  8
1
  6
CONTINUOUS
 62
     1
  2
ARROW
 10
120.26362451587489
 20
50.658397132828391
 30
0.0
 41
0.0196850393700788
 42
0.0196850393700788
 50
53.384333203274231
  0
INSERT
  5
152
  8
1
  6
CONTINUOUS
 62
     1
  2
ARROW
 10
94.020072111574294
 20
15.3416028671716
 30
0.0
 41
0.0196850393700788
 42
0.0196850393700788
 50
233.3843332032742
  0
TEXT
  5
153
  8
1
  6
CONTINUOUS
 62
     1
 10
122.6808249038738
 20
50.961051547956949
 30
0.0
 40
0.9999999999999998
  1
ø 44,00
  7
ARIAL
 72
     1
 11
125.0495152176528
 21
51.461051547956949
 31
0.0
 73
     2
  0
TEXT
  5
154
  8
1
  6
CONTINUOUS
 62
     1
 10
78.782366731187111
 20
82.113556581584703
 30
0.0
 40
0.9999999999999998
  1
5,00
  7
ARIAL
 72
     1
 11
80.141848313724623
 21
82.613556581584689
 31
0.0
 73
     2
  0
LINE
  5
155
  8
1
  6
CONTINUOUS
 62
     1
 10
84.641848313724608
 20
80.113556581584689
 30
0.0
 11
79.641848313724623
 21
80.113556581584689
 31
0.0
  0
LINE
  5
156
  8
1
  6
CONTINUOUS
 62
     1
 10
84.641848313724608
 20
85.113556581584689
 30
0.0
 11
79.641848313724623
 21
85.113556581584689
 31
0.0
  0
LINE
  5
157
  8
1
  6
CONTINUOUS
 62
     1
 10
80.141848313724623
 20
80.113556581584689
 30
0.0
 11
80.141848313724623
 21
81.863556581584703
 31
0.0
  0
LINE
  5
158
  8
1
  6
CONTINUOUS
 62
     1
 10
80.141848313724623
 20
85.113556581584689
 30
0.0
 11
80.141848313724623
 21
83.363556581584703
 31
0.0
  0
INSERT
  5
159
  8
1
  6
CONTINUOUS
 62
     1
  2
ARROW
 10
80.141848313724623
 20
80.113556581584689
 30
0.0
 41
0.0196850393700788
 42
0.0196850393700788
 50
90.000000000000057
  0
INSERT
  5
15A
  8
1
  6
CONTINUOUS
 62
     1
  2
ARROW
 10
80.141848313724623
 20
85.113556581584689
 30
0.0
 41
0.0196850393700788
 42
0.0196850393700788
 50
270.00000000000011
  0
TEXT
  5
15B
  8
1
  6
CONTINUOUS
 62
     1
 10
90.912989528832711
 20
89.613556581584703
 30
0.0
 40
0.9999999999999998
  1
4,30
  7
ARIAL
 72
     1
 11
92.272471111370237
 21
90.113556581584689
 31
0.0
 73
     2
  0
LINE
  5
15C
  8
1
  6
CONTINUOUS
 62
     1
 10
85.141848313724594
 20
85.613556581584675
 30
0.0
 11
85.141848313724594
 21
90.613556581584675
 31
0.0
  0
LINE
  5
15D
  8
1
  6
CONTINUOUS
 62
     1
 10
89.441848313724606
 20
85.613556581584675
 30
0.0
 11
89.441848313724606
 21
90.613556581584675
 31
0.0
  0
LINE
  5
15E
  8
1
  6
CONTINUOUS
 62
     1
 10
85.141848313724594
 20
90.113556581584689
 30
0.0
 11
84.141848313724608
 21
90.113556581584689
 31
0.0
  0
LINE
  5
15F
  8
1
  6
CONTINUOUS
 62
     1
 10
89.441848313724606
 20
90.113556581584689
 30
0.0
 11
90.441848313724606
 21
90.113556581584689
 31
0.0
  0
INSERT
  5
160
  8
1
  6
CONTINUOUS
 62
     1
  2
ARROW
 10
85.141848313724594
 20
90.113556581584689
 30
0.0
 41
0.0196850393700788
 42
0.0196850393700788
 50
180.0
  0
INSERT
  5
161
  8
1
  6
CONTINUOUS
 62
     1
  2
ARROW
 10
89.441848313724606
 20
90.113556581584689
 30
0.0
 41
0.0196850393700788
 42
0.0196850393700788
  0
TEXT
  5
162
  8
1
  6
CONTINUOUS
 62
     1
 10
118.4823667311871
 20
86.363556581584689
 30
0.0
 40
0.9999999999999998
  1
2,50
  7
ARIAL
 72
     1
 11
119.8418483137245
 21
86.863556581584675
 31
0.0
 73
     2
  0
LINE
  5
163
  8
1
  6
CONTINUOUS
 62
     1
 10
124.3418483137246
 20
82.613556581584689
 30
0.0
 11
119.3418483137246
 21
82.613556581584689
 31
0.0
  0
LINE
  5
164
  8
1
  6
CONTINUOUS
 62
     1
 10
124.3418483137246
 20
85.113556581584689
 30
0.0
 11
119.3418483137246
 21
85.113556581584689
 31
0.0
  0
LINE
  5
165
  8
1
  6
CONTINUOUS
 62
     1
 10
119.8418483137245
 20
82.613556581584689
 30
0.0
 11
119.8418483137245
 21
81.613556581584703
 31
0.0
  0
LINE
  5
166
  8
1
  6
CONTINUOUS
 62
     1
 10
119.8418483137245
 20
85.113556581584689
 30
0.0
 11
119.8418483137245
 21
86.113556581584689
 31
0.0
  0
INSERT
  5
167
  8
1
  6
CONTINUOUS
 62
     1
  2
ARROW
 10
119.8418483137245
 20
82.613556581584689
 30
0.0
 41
0.0196850393700788
 42
0.0196850393700788
 50
270.00000000000011
  0
INSERT
  5
168
  8
1
  6
CONTINUOUS
 62
     1
  2
ARROW
 10
119.8418483137245
 20
85.113556581584689
 30
0.0
 41
0.0196850393700788
 42
0.0196850393700788
 50
90.000000000000057
  0
TEXT
  5
169
  8
1
  6
CONTINUOUS
 62
     1
 10
133.1715208921693
 20
78.863556581584703
 30
0.0
 40
0.9999999999999998
  1
M3
  7
ARIAL
 72
     1
 11
134.14184831372449
 21
79.363556581584703
 31
0.0
 73
     2
  0
LINE
  5
16A
  8
1
  6
CONTINUOUS
 62
     1
 10
129.64184831372461
 20
84.113556581584703
 30
0.0
 11
134.64184831372461
 21
84.113556581584703
 31
0.0
  0
LINE
  5
16B
  8
1
  6
CONTINUOUS
 62
     1
 10
129.64184831372461
 20
81.113556581584703
 30
0.0
 11
134.64184831372461
 21
81.113556581584703
 31
0.0
  0
LINE
  5
16C
  8
1
  6
CONTINUOUS
 62
     1
 10
134.14184831372449
 20
84.113556581584703
 30
0.0
 11
134.14184831372449
 21
85.113556581584689
 31
0.0
  0
LINE
  5
16D
  8
1
  6
CONTINUOUS
 62
     1
 10
134.14184831372449
 20
81.113556581584703
 30
0.0
 11
134.14184831372449
 21
80.113556581584689
 31
0.0
  0
INSERT
  5
16E
  8
1
  6
CONTINUOUS
 62
     1
  2
ARROW
 10
134.14184831372449
 20
84.113556581584703
 30
0.0
 41
0.0196850393700788
 42
0.0196850393700788
 50
90.000000000000071
  0
INSERT
  5
16F
  8
1
  6
CONTINUOUS
 62
     1
  2
ARROW
 10
134.14184831372449
 20
81.113556581584703
 30
0.0
 41
0.0196850393700788
 42
0.0196850393700788
 50
270.00000000000011
  0
LINE
  5
170
  8
1
  6
CONTINUOUS
 62
     7
 10
22.612094035596549
 20
71.184260649882575
 30
0.0
 11
22.612094035596549
 21
73.184260649882575
 31
0.0
  0
LINE
  5
171
  8
1
  6
CONTINUOUS
 62
     7
 10
56.912094035596532
 20
71.184260649882575
 30
0.0
 11
56.912094035596532
 21
73.184260649882575
 31
0.0
  0
ARC
  5
172
  8
1
  6
CONTINUOUS
 62
     7
 10
57.412094035596539
 20
73.184260649882575
 30
0.0
 40
0.5
 50
90.0
 51
180.00000000000131
  0
ARC
  5
173
  8
1
  6
CONTINUOUS
 62
     7
 10
57.412094035596539
 20
71.184260649882575
 30
0.0
 40
0.5
 50
180.0
 51
270.0
  0
ARC
  5
174
  8
1
  6
CONTINUOUS
 62
     7
 10
22.112094035596549
 20
73.184260649882575
 30
0.0
 40
0.5
 50
0.0
 51
90.0
  0
ARC
  5
175
  8
1
  6
CONTINUOUS
 62
     7
 10
22.112094035596549
 20
71.184260649882575
 30
0.0
 40
0.5
 50
270.0
 51
0.0
  0
LINE
  5
176
  8
1
  6
CONTINUOUS
 62
     7
 10
22.112094035596549
 20
69.684260649882575
 30
0.0
 11
22.112094035596549
 21
70.684260649882575
 31
0.0
  0
LINE
  5
177
  8
1
  6
CONTINUOUS
 62
     7
 10
22.112094035596549
 20
73.684260649882575
 30
0.0
 11
22.112094035596549
 21
79.184260649882575
 31
0.0
  0
LINE
  5
178
  8
1
  6
CONTINUOUS
 62
     7
 10
57.412094035596539
 20
69.684260649882575
 30
0.0
 11
57.412094035596539
 21
70.684260649882575
 31
0.0
  0
LINE
  5
179
  8
1
  6
CONTINUOUS
 62
     7
 10
57.412094035596539
 20
73.684260649882575
 30
0.0
 11
57.412094035596539
 21
79.184260649882575
 31
0.0
  0
LINE
  5
17A
  8
1
  6
CONTINUOUS
 62
     8
 10
22.112094035596549
 20
73.684260649882575
 30
0.0
 11
57.412094035596539
 21
73.684260649882575
 31
0.0
  0
LINE
  5
17B
  8
1
  6
CONTINUOUS
 62
     8
 10
57.412094035596539
 20
70.684260649882575
 30
0.0
 11
22.112094035596549
 21
70.684260649882575
 31
0.0
  0
TEXT
  5
17C
  8
1
  6
CONTINUOUS
 62
     1
 10
15.752612453059029
 20
74.934260649882575
 30
0.0
 40
0.9999999999999998
  1
3,00
  7
ARIAL
 72
     1
 11
17.112094035596549
 21
75.434260649882575
 31
0.0
 73
     2
  0
LINE
  5
17D
  8
1
  6
CONTINUOUS
 62
     1
 10
21.612094035596549
 20
70.684260649882575
 30
0.0
 11
16.612094035596549
 21
70.684260649882575
 31
0.0
  0
LINE
  5
17E
  8
1
  6
CONTINUOUS
 62
     1
 10
21.612094035596549
 20
73.684260649882575
 30
0.0
 11
16.612094035596549
 21
73.684260649882575
 31
0.0
  0
LINE
  5
17F
  8
1
  6
CONTINUOUS
 62
     1
 10
17.112094035596549
 20
70.684260649882575
 30
0.0
 11
17.112094035596549
 21
69.684260649882575
 31
0.0
  0
LINE
  5
180
  8
1
  6
CONTINUOUS
 62
     1
 10
17.112094035596549
 20
73.684260649882575
 30
0.0
 11
17.112094035596549
 21
74.684260649882575
 31
0.0
  0
INSERT
  5
181
  8
1
  6
CONTINUOUS
 62
     1
  2
ARROW
 10
17.112094035596549
 20
70.684260649882575
 30
0.0
 41
0.0196850393700788
 42
0.0196850393700788
 50
270.00000000000011
  0
INSERT
  5
182
  8
1
  6
CONTINUOUS
 62
     1
  2
ARROW
 10
17.112094035596549
 20
73.684260649882575
 30
0.0
 41
0.0196850393700788
 42
0.0196850393700788
 50
90.000000000000057
  0
TEXT
  5
183
  8
1
  6
CONTINUOUS
 62
     1
 10
61.052612453059041
 20
75.934260649882575
 30
0.0
 40
0.9999999999999998
  1
5,50
  7
ARIAL
 72
     1
 11
62.412094035596553
 21
76.434260649882575
 31
0.0
 73
     2
  0
LINE
  5
184
  8
1
  6
CONTINUOUS
 62
     1
 10
57.912094035596539
 20
79.184260649882575
 30
0.0
 11
62.912094035596539
 21
79.184260649882575
 31
0.0
  0
LINE
  5
185
  8
1
  6
CONTINUOUS
 62
     1
 10
57.912094035596539
 20
73.684260649882575
 30
0.0
 11
62.912094035596553
 21
73.684260649882575
 31
0.0
  0
LINE
  5
186
  8
1
  6
CONTINUOUS
 62
     1
 10
62.412094035596539
 20
79.184260649882575
 30
0.0
 11
62.412094035596539
 21
77.184260649882575
 31
0.0
  0
LINE
  5
187
  8
1
  6
CONTINUOUS
 62
     1
 10
62.412094035596553
 20
73.684260649882575
 30
0.0
 11
62.412094035596553
 21
75.684260649882575
 31
0.0
  0
INSERT
  5
188
  8
1
  6
CONTINUOUS
 62
     1
  2
ARROW
 10
62.412094035596539
 20
79.184260649882575
 30
0.0
 41
0.0196850393700788
 42
0.0196850393700788
 50
270.00000000000011
  0
INSERT
  5
189
  8
1
  6
CONTINUOUS
 62
     1
  2
ARROW
 10
62.412094035596553
 20
73.684260649882575
 30
0.0
 41
0.0196850393700788
 42
0.0196850393700788
 50
90.000000000000057
  0
TEXT
  5
18A
  8
1
  6
CONTINUOUS
 62
     1
 10
24.083235250704661
 20
78.184260649882575
 30
0.0
 40
0.9999999999999998
  1
0,50
  7
ARIAL
 72
     1
 11
25.442716833242169
 21
78.684260649882575
 31
0.0
 73
     2
  0
LINE
  5
18B
  8
1
  6
CONTINUOUS
 62
     1
 10
22.112094035596549
 20
74.184260649882575
 30
0.0
 11
22.112094035596549
 21
79.184260649882575
 31
0.0
  0
LINE
  5
18C
  8
1
  6
CONTINUOUS
 62
     1
 10
22.612094035596549
 20
73.684260649882575
 30
0.0
 11
22.612094035596549
 21
79.184260649882575
 31
0.0
  0
LINE
  5
18D
  8
1
  6
CONTINUOUS
 62
     1
 10
22.112094035596549
 20
78.684260649882575
 30
0.0
 11
21.112094035596549
 21
78.684260649882575
 31
0.0
  0
LINE
  5
18E
  8
1
  6
CONTINUOUS
 62
     1
 10
22.612094035596549
 20
78.684260649882575
 30
0.0
 11
23.612094035596549
 21
78.684260649882575
 31
0.0
  0
INSERT
  5
18F
  8
1
  6
CONTINUOUS
 62
     1
  2
ARROW
 10
22.112094035596549
 20
78.684260649882575
 30
0.0
 41
0.0196850393700788
 42
0.0196850393700788
 50
180.0
  0
INSERT
  5
190
  8
1
  6
CONTINUOUS
 62
     1
  2
ARROW
 10
22.612094035596549
 20
78.684260649882575
 30
0.0
 41
0.0196850393700788
 42
0.0196850393700788
  0
LINE
  5
191
  8
1
  6
CONTINUOUS
 62
     1
 10
57.012858327460989
 20
73.485277010483628
 30
0.0
 11
56.214386911189877
 21
74.087309731685735
 31
0.0
  0
LINE
  5
192
  8
1
  6
CONTINUOUS
 62
     1
 10
56.214386911189877
 20
74.087309731685735
 30
0.0
 11
55.214386911189877
 21
74.087309731685735
 31
0.0
  0
INSERT
  5
193
  8
1
  6
CONTINUOUS
 62
     1
  2
ARROW
 10
57.012858327460989
 20
73.485277010483628
 30
0.0
 41
0.0196850393700788
 42
0.0196850393700788
 50
142.98438028263001
  0
TEXT
  5
194
  8
1
  6
CONTINUOUS
 62
     1
 10
50.385298773739599
 20
73.587309731685735
 30
0.0
 40
0.9999999999999998
  1
R 0,50
  7
ARIAL
 72
     1
 11
52.443279674148883
 21
74.087309731685735
 31
0.0
 73
     2
  0
INSERT
  5
19A
  8
1
  6
CONTINUOUS
 62
     6
  2
LONGARROW
 10
29.462094035596522
 20
15.15987668204056
 30
0.0
 41
0.0196850393700788
 42
0.0196850393700788
 50
240.0
  0
POLYLINE
  5
19B
  8
1
  6
CONTINUOUS
 62
     6
 66
     1
 10
0.0
 20
0.0
 30
0.0
  0
VERTEX
  5
1DC
  8
1
  6
CONTINUOUS
 62
     6
 10
29.462094035596522
 20
15.15987668204056
 30
0.0
  0
VERTEX
  5
1DD
  8
1
  6
CONTINUOUS
 62
     6
 10
26.26209403559653
 20
9.6173140978201523
 30
0.0
  0
VERTEX
  5
1DE
  8
1
  6
CONTINUOUS
 62
     6
 10
31.5
 20
9.6173140978201523
 30
0.0
  0
SEQEND
  5
1DF
  8
1
  6
CONTINUOUS
 62
     6
  0
TEXT
  5
19C
  8
1
  6
CONTINUOUS
 62
     6
 10
32.0
 20
9.1173140978201523
 30
0.0
 40
0.9999999999999998
  1
3 M4x4 set screws to fix the Vixen Polarie Polar Finder
  7
ARIAL
 11
32.0
 21
9.6173140978201523
 31
0.0
 73
     2
  0
INSERT
  5
19D
  8
1
  6
CONTINUOUS
 62
     6
  2
LONGARROW
 10
126.9551100795782
 20
34.200000000000003
 30
0.0
 41
0.0196850393700788
 42
0.0196850393700788
 50
59.771577453706279
  0
POLYLINE
  5
19E
  8
1
  6
CONTINUOUS
 62
     6
 66
     1
 10
0.0
 20
0.0
 30
0.0
  0
VERTEX
  5
1E0
  8
1
  6
CONTINUOUS
 62
     6
 10
126.9551100795782
 20
34.200000000000003
 30
0.0
  0
VERTEX
  5
1E1
  8
1
  6
CONTINUOUS
 62
     6
 10
131.49999999999989
 20
41.999999999999993
 30
0.0
  0
VERTEX
  5
1E2
  8
1
  6
CONTINUOUS
 62
     6
 10
134.49999999999989
 20
41.999999999999993
 30
0.0
  0
SEQEND
  5
1E3
  8
1
  6
CONTINUOUS
 62
     6
  0
TEXT
  5
19F
  8
1
  6
CONTINUOUS
 62
     6
 10
134.49999999999989
 20
43.75
 30
0.0
 40
0.9999999999999998
  1
1 M3 thumb screw
  7
ARIAL
 11
134.49999999999989
 21
44.249999999999993
 31
0.0
 73
     2
  0
TEXT
  5
1A0
  8
1
  6
CONTINUOUS
 62
     6
 10
134.49999999999989
 20
42.25
 30
0.0
 40
0.9999999999999998
  1
to fix this retention
  7
ARIAL
 11
134.49999999999989
 21
42.75
 31
0.0
 73
     2
  0
TEXT
  5
1A1
  8
1
  6
CONTINUOUS
 62
     6
 10
134.49999999999989
 20
40.750000000000007
 30
0.0
 40
0.9999999999999998
  1
ring against Astrotrac
  7
ARIAL
 11
134.49999999999989
 21
41.25
 31
0.0
 73
     2
  0
TEXT
  5
1A2
  8
1
  6
CONTINUOUS
 62
     6
 10
134.49999999999989
 20
39.250000000000007
 30
0.0
 40
0.9999999999999998
  1
PF Arm
  7
ARIAL
 11
134.49999999999989
 21
39.750000000000007
 31
0.0
 73
     2
  0
ENDSEC
  0
EOF
