ISO-10303-21;
HEADER;
/* Generated by software containing ST-Developer
 * from STEP Tools, Inc. (www.steptools.com) 
 */
/* OPTION: using custom schema-name function */

FILE_DESCRIPTION(
/* description */ (''),
/* implementation_level */ '2;1');

FILE_NAME(
/* name */ 'bol_disque-AP.stp',
/* time_stamp */ '2019-11-08T14:36:28+01:00',
/* author */ (''),
/* organization */ (''),
/* preprocessor_version */ 'ST-DEVELOPER v16',
/* originating_system */ 'SIEMENS PLM Software NX 11.0',
/* authorisation */ '');

FILE_SCHEMA (('AUTOMOTIVE_DESIGN { 1 0 10303 214 3 1 1 1 }'));
ENDSEC;

DATA;
#10=SHAPE_REPRESENTATION_RELATIONSHIP('None',
'relationship between bol_disque-AP-None and bol_disque-AP-None',#22,#11);
#11=ADVANCED_BREP_SHAPE_REPRESENTATION('bol_disque-AP-None',(#32),#667);
#12=SHAPE_DEFINITION_REPRESENTATION(#13,#22);
#13=PRODUCT_DEFINITION_SHAPE('','',#14);
#14=PRODUCT_DEFINITION(' ','',#16,#15);
#15=PRODUCT_DEFINITION_CONTEXT('part definition',#21,'design');
#16=PRODUCT_DEFINITION_FORMATION_WITH_SPECIFIED_SOURCE(' ',' ',#18,
 .NOT_KNOWN.);
#17=PRODUCT_RELATED_PRODUCT_CATEGORY('part','',(#18));
#18=PRODUCT('bol_disque-AP','bol_disque-AP',' ',(#19));
#19=PRODUCT_CONTEXT(' ',#21,'mechanical');
#20=APPLICATION_PROTOCOL_DEFINITION('international standard',
'automotive_design',2010,#21);
#21=APPLICATION_CONTEXT(
'core data for automotive mechanical design processes');
#22=SHAPE_REPRESENTATION('bol_disque-AP-None',(#395),#667);
#23=PRESENTATION_LAYER_ASSIGNMENT('1','Layer 1',(#32));
#24=STYLED_ITEM('',(#25),#32);
#25=PRESENTATION_STYLE_ASSIGNMENT((#26));
#26=SURFACE_STYLE_USAGE(.BOTH.,#27);
#27=SURFACE_SIDE_STYLE('',(#28));
#28=SURFACE_STYLE_FILL_AREA(#29);
#29=FILL_AREA_STYLE('',(#30));
#30=FILL_AREA_STYLE_COLOUR('',#31);
#31=COLOUR_RGB('Medium Steel',0.596063172350652,0.666666666666667,0.686259250782025);
#32=MANIFOLD_SOLID_BREP('',#33);
#33=CLOSED_SHELL('',(#53,#54,#55,#56,#57,#58,#59,#60,#61,#62,#63,#64,#65,
#66,#67,#68,#69,#70,#71,#72,#73,#74,#75));
#34=CONICAL_SURFACE('',#453,28.5,45.);
#35=TOROIDAL_SURFACE('',#451,65.,5.);
#36=TOROIDAL_SURFACE('',#452,82.,5.);
#37=CYLINDRICAL_SURFACE('',#404,27.);
#38=CYLINDRICAL_SURFACE('',#414,70.);
#39=CYLINDRICAL_SURFACE('',#426,96.);
#40=CYLINDRICAL_SURFACE('',#438,77.);
#41=CYLINDRICAL_SURFACE('',#439,6.);
#42=CYLINDRICAL_SURFACE('',#440,6.);
#43=CYLINDRICAL_SURFACE('',#441,6.);
#44=CYLINDRICAL_SURFACE('',#442,6.);
#45=CYLINDRICAL_SURFACE('',#443,3.2);
#46=CYLINDRICAL_SURFACE('',#444,3.2);
#47=CYLINDRICAL_SURFACE('',#445,3.2);
#48=CYLINDRICAL_SURFACE('',#446,3.2);
#49=CYLINDRICAL_SURFACE('',#447,3.2);
#50=CYLINDRICAL_SURFACE('',#448,3.2);
#51=CYLINDRICAL_SURFACE('',#449,3.2);
#52=CYLINDRICAL_SURFACE('',#450,3.2);
#53=ADVANCED_FACE('',(#80,#81,#82,#83,#84,#85),#76,.F.);
#54=ADVANCED_FACE('',(#86,#87),#37,.F.);
#55=ADVANCED_FACE('',(#88,#89,#90,#91,#92,#93),#77,.F.);
#56=ADVANCED_FACE('',(#94,#95),#38,.F.);
#57=ADVANCED_FACE('',(#96,#97,#98,#99,#100,#101,#102,#103,#104,#105),#78,
 .F.);
#58=ADVANCED_FACE('',(#106,#107),#39,.T.);
#59=ADVANCED_FACE('',(#108,#109,#110,#111,#112,#113,#114,#115,#116,#117),
#79,.F.);
#60=ADVANCED_FACE('',(#118,#119),#40,.T.);
#61=ADVANCED_FACE('',(#120,#121),#41,.F.);
#62=ADVANCED_FACE('',(#122,#123),#42,.F.);
#63=ADVANCED_FACE('',(#124,#125),#43,.F.);
#64=ADVANCED_FACE('',(#126,#127),#44,.F.);
#65=ADVANCED_FACE('',(#128,#129),#45,.F.);
#66=ADVANCED_FACE('',(#130,#131),#46,.F.);
#67=ADVANCED_FACE('',(#132,#133),#47,.F.);
#68=ADVANCED_FACE('',(#134,#135),#48,.F.);
#69=ADVANCED_FACE('',(#136,#137),#49,.F.);
#70=ADVANCED_FACE('',(#138,#139),#50,.F.);
#71=ADVANCED_FACE('',(#140,#141),#51,.F.);
#72=ADVANCED_FACE('',(#142,#143),#52,.F.);
#73=ADVANCED_FACE('',(#144,#145),#35,.F.);
#74=ADVANCED_FACE('',(#146,#147),#36,.F.);
#75=ADVANCED_FACE('',(#148,#149),#34,.F.);
#76=PLANE('',#402);
#77=PLANE('',#411);
#78=PLANE('',#424);
#79=PLANE('',#436);
#80=FACE_BOUND('',#150,.T.);
#81=FACE_BOUND('',#151,.T.);
#82=FACE_BOUND('',#152,.T.);
#83=FACE_BOUND('',#153,.T.);
#84=FACE_BOUND('',#154,.T.);
#85=FACE_BOUND('',#155,.T.);
#86=FACE_BOUND('',#156,.T.);
#87=FACE_BOUND('',#157,.T.);
#88=FACE_BOUND('',#158,.T.);
#89=FACE_BOUND('',#159,.T.);
#90=FACE_BOUND('',#160,.T.);
#91=FACE_BOUND('',#161,.T.);
#92=FACE_BOUND('',#162,.T.);
#93=FACE_BOUND('',#163,.T.);
#94=FACE_BOUND('',#164,.T.);
#95=FACE_BOUND('',#165,.T.);
#96=FACE_BOUND('',#166,.T.);
#97=FACE_BOUND('',#167,.T.);
#98=FACE_BOUND('',#168,.T.);
#99=FACE_BOUND('',#169,.T.);
#100=FACE_BOUND('',#170,.T.);
#101=FACE_BOUND('',#171,.T.);
#102=FACE_BOUND('',#172,.T.);
#103=FACE_BOUND('',#173,.T.);
#104=FACE_BOUND('',#174,.T.);
#105=FACE_BOUND('',#175,.T.);
#106=FACE_BOUND('',#176,.T.);
#107=FACE_BOUND('',#177,.T.);
#108=FACE_BOUND('',#178,.T.);
#109=FACE_BOUND('',#179,.T.);
#110=FACE_BOUND('',#180,.T.);
#111=FACE_BOUND('',#181,.T.);
#112=FACE_BOUND('',#182,.T.);
#113=FACE_BOUND('',#183,.T.);
#114=FACE_BOUND('',#184,.T.);
#115=FACE_BOUND('',#185,.T.);
#116=FACE_BOUND('',#186,.T.);
#117=FACE_BOUND('',#187,.T.);
#118=FACE_BOUND('',#188,.T.);
#119=FACE_BOUND('',#189,.T.);
#120=FACE_BOUND('',#190,.T.);
#121=FACE_BOUND('',#191,.T.);
#122=FACE_BOUND('',#192,.T.);
#123=FACE_BOUND('',#193,.T.);
#124=FACE_BOUND('',#194,.T.);
#125=FACE_BOUND('',#195,.T.);
#126=FACE_BOUND('',#196,.T.);
#127=FACE_BOUND('',#197,.T.);
#128=FACE_BOUND('',#198,.T.);
#129=FACE_BOUND('',#199,.T.);
#130=FACE_BOUND('',#200,.T.);
#131=FACE_BOUND('',#201,.T.);
#132=FACE_BOUND('',#202,.T.);
#133=FACE_BOUND('',#203,.T.);
#134=FACE_BOUND('',#204,.T.);
#135=FACE_BOUND('',#205,.T.);
#136=FACE_BOUND('',#206,.T.);
#137=FACE_BOUND('',#207,.T.);
#138=FACE_BOUND('',#208,.T.);
#139=FACE_BOUND('',#209,.T.);
#140=FACE_BOUND('',#210,.T.);
#141=FACE_BOUND('',#211,.T.);
#142=FACE_BOUND('',#212,.T.);
#143=FACE_BOUND('',#213,.T.);
#144=FACE_BOUND('',#214,.T.);
#145=FACE_BOUND('',#215,.T.);
#146=FACE_BOUND('',#216,.T.);
#147=FACE_BOUND('',#217,.T.);
#148=FACE_BOUND('',#218,.T.);
#149=FACE_BOUND('',#219,.T.);
#150=EDGE_LOOP('',(#220));
#151=EDGE_LOOP('',(#221));
#152=EDGE_LOOP('',(#222));
#153=EDGE_LOOP('',(#223));
#154=EDGE_LOOP('',(#224));
#155=EDGE_LOOP('',(#225));
#156=EDGE_LOOP('',(#226));
#157=EDGE_LOOP('',(#227));
#158=EDGE_LOOP('',(#228));
#159=EDGE_LOOP('',(#229));
#160=EDGE_LOOP('',(#230));
#161=EDGE_LOOP('',(#231));
#162=EDGE_LOOP('',(#232));
#163=EDGE_LOOP('',(#233));
#164=EDGE_LOOP('',(#234));
#165=EDGE_LOOP('',(#235));
#166=EDGE_LOOP('',(#236));
#167=EDGE_LOOP('',(#237));
#168=EDGE_LOOP('',(#238));
#169=EDGE_LOOP('',(#239));
#170=EDGE_LOOP('',(#240));
#171=EDGE_LOOP('',(#241));
#172=EDGE_LOOP('',(#242));
#173=EDGE_LOOP('',(#243));
#174=EDGE_LOOP('',(#244));
#175=EDGE_LOOP('',(#245));
#176=EDGE_LOOP('',(#246));
#177=EDGE_LOOP('',(#247));
#178=EDGE_LOOP('',(#248));
#179=EDGE_LOOP('',(#249));
#180=EDGE_LOOP('',(#250));
#181=EDGE_LOOP('',(#251));
#182=EDGE_LOOP('',(#252));
#183=EDGE_LOOP('',(#253));
#184=EDGE_LOOP('',(#254));
#185=EDGE_LOOP('',(#255));
#186=EDGE_LOOP('',(#256));
#187=EDGE_LOOP('',(#257));
#188=EDGE_LOOP('',(#258));
#189=EDGE_LOOP('',(#259));
#190=EDGE_LOOP('',(#260));
#191=EDGE_LOOP('',(#261));
#192=EDGE_LOOP('',(#262));
#193=EDGE_LOOP('',(#263));
#194=EDGE_LOOP('',(#264));
#195=EDGE_LOOP('',(#265));
#196=EDGE_LOOP('',(#266));
#197=EDGE_LOOP('',(#267));
#198=EDGE_LOOP('',(#268));
#199=EDGE_LOOP('',(#269));
#200=EDGE_LOOP('',(#270));
#201=EDGE_LOOP('',(#271));
#202=EDGE_LOOP('',(#272));
#203=EDGE_LOOP('',(#273));
#204=EDGE_LOOP('',(#274));
#205=EDGE_LOOP('',(#275));
#206=EDGE_LOOP('',(#276));
#207=EDGE_LOOP('',(#277));
#208=EDGE_LOOP('',(#278));
#209=EDGE_LOOP('',(#279));
#210=EDGE_LOOP('',(#280));
#211=EDGE_LOOP('',(#281));
#212=EDGE_LOOP('',(#282));
#213=EDGE_LOOP('',(#283));
#214=EDGE_LOOP('',(#284));
#215=EDGE_LOOP('',(#285));
#216=EDGE_LOOP('',(#286));
#217=EDGE_LOOP('',(#287));
#218=EDGE_LOOP('',(#288));
#219=EDGE_LOOP('',(#289));
#220=ORIENTED_EDGE('',*,*,#325,.T.);
#221=ORIENTED_EDGE('',*,*,#326,.T.);
#222=ORIENTED_EDGE('',*,*,#327,.T.);
#223=ORIENTED_EDGE('',*,*,#328,.T.);
#224=ORIENTED_EDGE('',*,*,#329,.F.);
#225=ORIENTED_EDGE('',*,*,#330,.T.);
#226=ORIENTED_EDGE('',*,*,#331,.T.);
#227=ORIENTED_EDGE('',*,*,#329,.T.);
#228=ORIENTED_EDGE('',*,*,#332,.T.);
#229=ORIENTED_EDGE('',*,*,#333,.T.);
#230=ORIENTED_EDGE('',*,*,#334,.T.);
#231=ORIENTED_EDGE('',*,*,#335,.T.);
#232=ORIENTED_EDGE('',*,*,#336,.T.);
#233=ORIENTED_EDGE('',*,*,#337,.T.);
#234=ORIENTED_EDGE('',*,*,#338,.T.);
#235=ORIENTED_EDGE('',*,*,#339,.F.);
#236=ORIENTED_EDGE('',*,*,#340,.T.);
#237=ORIENTED_EDGE('',*,*,#341,.T.);
#238=ORIENTED_EDGE('',*,*,#342,.T.);
#239=ORIENTED_EDGE('',*,*,#343,.T.);
#240=ORIENTED_EDGE('',*,*,#344,.T.);
#241=ORIENTED_EDGE('',*,*,#345,.T.);
#242=ORIENTED_EDGE('',*,*,#346,.T.);
#243=ORIENTED_EDGE('',*,*,#347,.T.);
#244=ORIENTED_EDGE('',*,*,#348,.F.);
#245=ORIENTED_EDGE('',*,*,#339,.T.);
#246=ORIENTED_EDGE('',*,*,#349,.F.);
#247=ORIENTED_EDGE('',*,*,#348,.T.);
#248=ORIENTED_EDGE('',*,*,#350,.T.);
#249=ORIENTED_EDGE('',*,*,#351,.T.);
#250=ORIENTED_EDGE('',*,*,#352,.T.);
#251=ORIENTED_EDGE('',*,*,#353,.T.);
#252=ORIENTED_EDGE('',*,*,#354,.T.);
#253=ORIENTED_EDGE('',*,*,#355,.T.);
#254=ORIENTED_EDGE('',*,*,#356,.T.);
#255=ORIENTED_EDGE('',*,*,#357,.T.);
#256=ORIENTED_EDGE('',*,*,#358,.T.);
#257=ORIENTED_EDGE('',*,*,#349,.T.);
#258=ORIENTED_EDGE('',*,*,#359,.T.);
#259=ORIENTED_EDGE('',*,*,#330,.F.);
#260=ORIENTED_EDGE('',*,*,#328,.F.);
#261=ORIENTED_EDGE('',*,*,#337,.F.);
#262=ORIENTED_EDGE('',*,*,#327,.F.);
#263=ORIENTED_EDGE('',*,*,#336,.F.);
#264=ORIENTED_EDGE('',*,*,#326,.F.);
#265=ORIENTED_EDGE('',*,*,#335,.F.);
#266=ORIENTED_EDGE('',*,*,#325,.F.);
#267=ORIENTED_EDGE('',*,*,#334,.F.);
#268=ORIENTED_EDGE('',*,*,#358,.F.);
#269=ORIENTED_EDGE('',*,*,#347,.F.);
#270=ORIENTED_EDGE('',*,*,#357,.F.);
#271=ORIENTED_EDGE('',*,*,#346,.F.);
#272=ORIENTED_EDGE('',*,*,#356,.F.);
#273=ORIENTED_EDGE('',*,*,#345,.F.);
#274=ORIENTED_EDGE('',*,*,#355,.F.);
#275=ORIENTED_EDGE('',*,*,#344,.F.);
#276=ORIENTED_EDGE('',*,*,#354,.F.);
#277=ORIENTED_EDGE('',*,*,#343,.F.);
#278=ORIENTED_EDGE('',*,*,#353,.F.);
#279=ORIENTED_EDGE('',*,*,#342,.F.);
#280=ORIENTED_EDGE('',*,*,#352,.F.);
#281=ORIENTED_EDGE('',*,*,#341,.F.);
#282=ORIENTED_EDGE('',*,*,#351,.F.);
#283=ORIENTED_EDGE('',*,*,#340,.F.);
#284=ORIENTED_EDGE('',*,*,#333,.F.);
#285=ORIENTED_EDGE('',*,*,#338,.F.);
#286=ORIENTED_EDGE('',*,*,#350,.F.);
#287=ORIENTED_EDGE('',*,*,#359,.F.);
#288=ORIENTED_EDGE('',*,*,#331,.F.);
#289=ORIENTED_EDGE('',*,*,#332,.F.);
#290=VERTEX_POINT('',#574);
#291=VERTEX_POINT('',#576);
#292=VERTEX_POINT('',#578);
#293=VERTEX_POINT('',#580);
#294=VERTEX_POINT('',#582);
#295=VERTEX_POINT('',#584);
#296=VERTEX_POINT('',#587);
#297=VERTEX_POINT('',#590);
#298=VERTEX_POINT('',#592);
#299=VERTEX_POINT('',#594);
#300=VERTEX_POINT('',#596);
#301=VERTEX_POINT('',#598);
#302=VERTEX_POINT('',#600);
#303=VERTEX_POINT('',#603);
#304=VERTEX_POINT('',#605);
#305=VERTEX_POINT('',#608);
#306=VERTEX_POINT('',#610);
#307=VERTEX_POINT('',#612);
#308=VERTEX_POINT('',#614);
#309=VERTEX_POINT('',#616);
#310=VERTEX_POINT('',#618);
#311=VERTEX_POINT('',#620);
#312=VERTEX_POINT('',#622);
#313=VERTEX_POINT('',#624);
#314=VERTEX_POINT('',#627);
#315=VERTEX_POINT('',#630);
#316=VERTEX_POINT('',#632);
#317=VERTEX_POINT('',#634);
#318=VERTEX_POINT('',#636);
#319=VERTEX_POINT('',#638);
#320=VERTEX_POINT('',#640);
#321=VERTEX_POINT('',#642);
#322=VERTEX_POINT('',#644);
#323=VERTEX_POINT('',#646);
#324=VERTEX_POINT('',#649);
#325=EDGE_CURVE('',#290,#290,#360,.T.);
#326=EDGE_CURVE('',#291,#291,#361,.T.);
#327=EDGE_CURVE('',#292,#292,#362,.T.);
#328=EDGE_CURVE('',#293,#293,#363,.T.);
#329=EDGE_CURVE('',#294,#294,#364,.T.);
#330=EDGE_CURVE('',#295,#295,#365,.T.);
#331=EDGE_CURVE('',#296,#296,#366,.T.);
#332=EDGE_CURVE('',#297,#297,#367,.T.);
#333=EDGE_CURVE('',#298,#298,#368,.T.);
#334=EDGE_CURVE('',#299,#299,#369,.T.);
#335=EDGE_CURVE('',#300,#300,#370,.T.);
#336=EDGE_CURVE('',#301,#301,#371,.T.);
#337=EDGE_CURVE('',#302,#302,#372,.T.);
#338=EDGE_CURVE('',#303,#303,#373,.T.);
#339=EDGE_CURVE('',#304,#304,#374,.T.);
#340=EDGE_CURVE('',#305,#305,#375,.T.);
#341=EDGE_CURVE('',#306,#306,#376,.T.);
#342=EDGE_CURVE('',#307,#307,#377,.T.);
#343=EDGE_CURVE('',#308,#308,#378,.T.);
#344=EDGE_CURVE('',#309,#309,#379,.T.);
#345=EDGE_CURVE('',#310,#310,#380,.T.);
#346=EDGE_CURVE('',#311,#311,#381,.T.);
#347=EDGE_CURVE('',#312,#312,#382,.T.);
#348=EDGE_CURVE('',#313,#313,#383,.T.);
#349=EDGE_CURVE('',#314,#314,#384,.T.);
#350=EDGE_CURVE('',#315,#315,#385,.T.);
#351=EDGE_CURVE('',#316,#316,#386,.T.);
#352=EDGE_CURVE('',#317,#317,#387,.T.);
#353=EDGE_CURVE('',#318,#318,#388,.T.);
#354=EDGE_CURVE('',#319,#319,#389,.T.);
#355=EDGE_CURVE('',#320,#320,#390,.T.);
#356=EDGE_CURVE('',#321,#321,#391,.T.);
#357=EDGE_CURVE('',#322,#322,#392,.T.);
#358=EDGE_CURVE('',#323,#323,#393,.T.);
#359=EDGE_CURVE('',#324,#324,#394,.T.);
#360=CIRCLE('',#396,6.);
#361=CIRCLE('',#397,6.);
#362=CIRCLE('',#398,6.);
#363=CIRCLE('',#399,6.);
#364=CIRCLE('',#400,27.);
#365=CIRCLE('',#401,77.);
#366=CIRCLE('',#403,27.);
#367=CIRCLE('',#405,28.5);
#368=CIRCLE('',#406,65.);
#369=CIRCLE('',#407,6.);
#370=CIRCLE('',#408,6.);
#371=CIRCLE('',#409,6.);
#372=CIRCLE('',#410,6.);
#373=CIRCLE('',#412,70.);
#374=CIRCLE('',#413,70.);
#375=CIRCLE('',#415,3.2);
#376=CIRCLE('',#416,3.2);
#377=CIRCLE('',#417,3.2);
#378=CIRCLE('',#418,3.2);
#379=CIRCLE('',#419,3.2);
#380=CIRCLE('',#420,3.2);
#381=CIRCLE('',#421,3.2);
#382=CIRCLE('',#422,3.2);
#383=CIRCLE('',#423,96.);
#384=CIRCLE('',#425,96.);
#385=CIRCLE('',#427,82.);
#386=CIRCLE('',#428,3.2);
#387=CIRCLE('',#429,3.2);
#388=CIRCLE('',#430,3.2);
#389=CIRCLE('',#431,3.2);
#390=CIRCLE('',#432,3.2);
#391=CIRCLE('',#433,3.2);
#392=CIRCLE('',#434,3.2);
#393=CIRCLE('',#435,3.2);
#394=CIRCLE('',#437,77.);
#395=AXIS2_PLACEMENT_3D('',#572,#454,#455);
#396=AXIS2_PLACEMENT_3D('',#573,#456,#457);
#397=AXIS2_PLACEMENT_3D('',#575,#458,#459);
#398=AXIS2_PLACEMENT_3D('',#577,#460,#461);
#399=AXIS2_PLACEMENT_3D('',#579,#462,#463);
#400=AXIS2_PLACEMENT_3D('',#581,#464,#465);
#401=AXIS2_PLACEMENT_3D('',#583,#466,#467);
#402=AXIS2_PLACEMENT_3D('',#585,#468,#469);
#403=AXIS2_PLACEMENT_3D('',#586,#470,#471);
#404=AXIS2_PLACEMENT_3D('',#588,#472,#473);
#405=AXIS2_PLACEMENT_3D('',#589,#474,#475);
#406=AXIS2_PLACEMENT_3D('',#591,#476,#477);
#407=AXIS2_PLACEMENT_3D('',#593,#478,#479);
#408=AXIS2_PLACEMENT_3D('',#595,#480,#481);
#409=AXIS2_PLACEMENT_3D('',#597,#482,#483);
#410=AXIS2_PLACEMENT_3D('',#599,#484,#485);
#411=AXIS2_PLACEMENT_3D('',#601,#486,#487);
#412=AXIS2_PLACEMENT_3D('',#602,#488,#489);
#413=AXIS2_PLACEMENT_3D('',#604,#490,#491);
#414=AXIS2_PLACEMENT_3D('',#606,#492,#493);
#415=AXIS2_PLACEMENT_3D('',#607,#494,#495);
#416=AXIS2_PLACEMENT_3D('',#609,#496,#497);
#417=AXIS2_PLACEMENT_3D('',#611,#498,#499);
#418=AXIS2_PLACEMENT_3D('',#613,#500,#501);
#419=AXIS2_PLACEMENT_3D('',#615,#502,#503);
#420=AXIS2_PLACEMENT_3D('',#617,#504,#505);
#421=AXIS2_PLACEMENT_3D('',#619,#506,#507);
#422=AXIS2_PLACEMENT_3D('',#621,#508,#509);
#423=AXIS2_PLACEMENT_3D('',#623,#510,#511);
#424=AXIS2_PLACEMENT_3D('',#625,#512,#513);
#425=AXIS2_PLACEMENT_3D('',#626,#514,#515);
#426=AXIS2_PLACEMENT_3D('',#628,#516,#517);
#427=AXIS2_PLACEMENT_3D('',#629,#518,#519);
#428=AXIS2_PLACEMENT_3D('',#631,#520,#521);
#429=AXIS2_PLACEMENT_3D('',#633,#522,#523);
#430=AXIS2_PLACEMENT_3D('',#635,#524,#525);
#431=AXIS2_PLACEMENT_3D('',#637,#526,#527);
#432=AXIS2_PLACEMENT_3D('',#639,#528,#529);
#433=AXIS2_PLACEMENT_3D('',#641,#530,#531);
#434=AXIS2_PLACEMENT_3D('',#643,#532,#533);
#435=AXIS2_PLACEMENT_3D('',#645,#534,#535);
#436=AXIS2_PLACEMENT_3D('',#647,#536,#537);
#437=AXIS2_PLACEMENT_3D('',#648,#538,#539);
#438=AXIS2_PLACEMENT_3D('',#650,#540,#541);
#439=AXIS2_PLACEMENT_3D('',#651,#542,#543);
#440=AXIS2_PLACEMENT_3D('',#652,#544,#545);
#441=AXIS2_PLACEMENT_3D('',#653,#546,#547);
#442=AXIS2_PLACEMENT_3D('',#654,#548,#549);
#443=AXIS2_PLACEMENT_3D('',#655,#550,#551);
#444=AXIS2_PLACEMENT_3D('',#656,#552,#553);
#445=AXIS2_PLACEMENT_3D('',#657,#554,#555);
#446=AXIS2_PLACEMENT_3D('',#658,#556,#557);
#447=AXIS2_PLACEMENT_3D('',#659,#558,#559);
#448=AXIS2_PLACEMENT_3D('',#660,#560,#561);
#449=AXIS2_PLACEMENT_3D('',#661,#562,#563);
#450=AXIS2_PLACEMENT_3D('',#662,#564,#565);
#451=AXIS2_PLACEMENT_3D('',#663,#566,#567);
#452=AXIS2_PLACEMENT_3D('',#664,#568,#569);
#453=AXIS2_PLACEMENT_3D('',#665,#570,#571);
#454=DIRECTION('',(0.,0.,1.));
#455=DIRECTION('',(1.,0.,0.));
#456=DIRECTION('',(0.,1.,0.));
#457=DIRECTION('',(0.,0.,1.));
#458=DIRECTION('',(0.,1.,0.));
#459=DIRECTION('',(0.,0.,1.));
#460=DIRECTION('',(0.,1.,0.));
#461=DIRECTION('',(0.,0.,1.));
#462=DIRECTION('',(0.,1.,0.));
#463=DIRECTION('',(0.,0.,1.));
#464=DIRECTION('',(0.,-1.,0.));
#465=DIRECTION('',(0.,0.,-1.));
#466=DIRECTION('',(0.,-1.,0.));
#467=DIRECTION('',(0.,0.,-1.));
#468=DIRECTION('',(0.,1.,0.));
#469=DIRECTION('',(0.,0.,1.));
#470=DIRECTION('',(0.,1.,0.));
#471=DIRECTION('',(0.,0.,-1.));
#472=DIRECTION('',(0.,-1.,0.));
#473=DIRECTION('',(0.,0.,-1.));
#474=DIRECTION('',(0.,-1.,0.));
#475=DIRECTION('',(0.,0.,-1.));
#476=DIRECTION('',(0.,1.,0.));
#477=DIRECTION('',(0.,0.,-1.));
#478=DIRECTION('',(0.,-1.,0.));
#479=DIRECTION('',(0.,0.,-1.));
#480=DIRECTION('',(0.,-1.,0.));
#481=DIRECTION('',(0.,0.,-1.));
#482=DIRECTION('',(0.,-1.,0.));
#483=DIRECTION('',(0.,0.,-1.));
#484=DIRECTION('',(0.,-1.,0.));
#485=DIRECTION('',(0.,0.,-1.));
#486=DIRECTION('',(0.,-1.,0.));
#487=DIRECTION('',(0.,0.,-1.));
#488=DIRECTION('',(0.,-1.,0.));
#489=DIRECTION('',(0.,0.,-1.));
#490=DIRECTION('',(0.,-1.,0.));
#491=DIRECTION('',(0.,0.,-1.));
#492=DIRECTION('',(0.,-1.,0.));
#493=DIRECTION('',(0.,0.,-1.));
#494=DIRECTION('',(0.,-1.,0.));
#495=DIRECTION('',(0.,0.,-1.));
#496=DIRECTION('',(0.,-1.,0.));
#497=DIRECTION('',(0.,0.,-1.));
#498=DIRECTION('',(0.,-1.,0.));
#499=DIRECTION('',(0.,0.,-0.999999999999998));
#500=DIRECTION('',(0.,-1.,0.));
#501=DIRECTION('',(0.,0.,-0.999999999999998));
#502=DIRECTION('',(0.,-1.,0.));
#503=DIRECTION('',(0.,0.,-1.));
#504=DIRECTION('',(0.,-1.,0.));
#505=DIRECTION('',(0.,0.,-1.));
#506=DIRECTION('',(0.,-1.,0.));
#507=DIRECTION('',(0.,0.,-1.));
#508=DIRECTION('',(0.,-1.,0.));
#509=DIRECTION('',(0.,0.,-1.));
#510=DIRECTION('',(0.,-1.,0.));
#511=DIRECTION('',(0.,0.,-1.));
#512=DIRECTION('',(0.,-1.,0.));
#513=DIRECTION('',(0.,0.,-1.));
#514=DIRECTION('',(0.,-1.,0.));
#515=DIRECTION('',(0.,0.,-1.));
#516=DIRECTION('',(0.,-1.,0.));
#517=DIRECTION('',(0.,0.,-1.));
#518=DIRECTION('',(0.,1.,0.));
#519=DIRECTION('',(0.,0.,1.));
#520=DIRECTION('',(0.,1.,0.));
#521=DIRECTION('',(0.,0.,1.));
#522=DIRECTION('',(0.,1.,0.));
#523=DIRECTION('',(0.,0.,1.));
#524=DIRECTION('',(0.,1.,0.));
#525=DIRECTION('',(0.,0.,0.999999999999998));
#526=DIRECTION('',(0.,1.,0.));
#527=DIRECTION('',(0.,0.,0.999999999999998));
#528=DIRECTION('',(0.,1.,0.));
#529=DIRECTION('',(0.,0.,0.999999999999998));
#530=DIRECTION('',(0.,1.,0.));
#531=DIRECTION('',(0.,0.,1.));
#532=DIRECTION('',(0.,1.,0.));
#533=DIRECTION('',(0.,0.,1.));
#534=DIRECTION('',(0.,1.,0.));
#535=DIRECTION('',(0.,0.,1.));
#536=DIRECTION('',(0.,1.,0.));
#537=DIRECTION('',(0.,0.,1.));
#538=DIRECTION('',(0.,-1.,0.));
#539=DIRECTION('',(0.,0.,1.));
#540=DIRECTION('',(0.,-1.,0.));
#541=DIRECTION('',(0.,0.,-1.));
#542=DIRECTION('',(0.,1.,0.));
#543=DIRECTION('',(0.,0.,1.));
#544=DIRECTION('',(0.,1.,0.));
#545=DIRECTION('',(0.,0.,1.));
#546=DIRECTION('',(0.,1.,0.));
#547=DIRECTION('',(0.,0.,1.));
#548=DIRECTION('',(0.,1.,0.));
#549=DIRECTION('',(0.,0.,1.));
#550=DIRECTION('',(0.,1.,0.));
#551=DIRECTION('',(0.,0.,1.));
#552=DIRECTION('',(0.,1.,0.));
#553=DIRECTION('',(0.,0.,1.));
#554=DIRECTION('',(0.,1.,0.));
#555=DIRECTION('',(0.,0.,1.));
#556=DIRECTION('',(0.,1.,0.));
#557=DIRECTION('',(0.,0.,0.999999999999998));
#558=DIRECTION('',(0.,1.,0.));
#559=DIRECTION('',(0.,0.,0.999999999999998));
#560=DIRECTION('',(0.,1.,0.));
#561=DIRECTION('',(0.,0.,0.999999999999998));
#562=DIRECTION('',(0.,1.,0.));
#563=DIRECTION('',(0.,0.,1.));
#564=DIRECTION('',(0.,1.,0.));
#565=DIRECTION('',(0.,0.,1.));
#566=DIRECTION('',(0.,-1.,0.));
#567=DIRECTION('',(0.,0.,-1.));
#568=DIRECTION('',(0.,1.,0.));
#569=DIRECTION('',(0.,0.,1.));
#570=DIRECTION('',(0.,1.,0.));
#571=DIRECTION('',(0.,-8.09593843917226E-17,1.));
#572=CARTESIAN_POINT('',(0.,0.,0.));
#573=CARTESIAN_POINT('',(50.,0.,0.));
#574=CARTESIAN_POINT('',(50.,0.,6.));
#575=CARTESIAN_POINT('',(0.,0.,50.));
#576=CARTESIAN_POINT('',(0.,0.,56.));
#577=CARTESIAN_POINT('',(0.,0.,-50.));
#578=CARTESIAN_POINT('',(0.,0.,-44.));
#579=CARTESIAN_POINT('',(-50.,0.,0.));
#580=CARTESIAN_POINT('',(-50.,0.,6.));
#581=CARTESIAN_POINT('',(0.,0.,0.));
#582=CARTESIAN_POINT('',(0.,0.,-27.));
#583=CARTESIAN_POINT('',(0.,-2.8421709430404E-14,0.));
#584=CARTESIAN_POINT('',(0.,-2.8421709430404E-14,-77.));
#585=CARTESIAN_POINT('',(0.,-1.4210854715202E-14,77.));
#586=CARTESIAN_POINT('',(0.,5.49999999999998,0.));
#587=CARTESIAN_POINT('',(0.,5.49999999999998,-27.));
#588=CARTESIAN_POINT('',(0.,0.,0.));
#589=CARTESIAN_POINT('',(0.,6.99999999999998,0.));
#590=CARTESIAN_POINT('',(0.,6.99999999999998,-28.5));
#591=CARTESIAN_POINT('',(0.,6.99999999999998,0.));
#592=CARTESIAN_POINT('',(0.,6.99999999999998,-65.));
#593=CARTESIAN_POINT('',(50.,6.99999999999998,0.));
#594=CARTESIAN_POINT('',(50.,6.99999999999998,-6.));
#595=CARTESIAN_POINT('',(0.,6.99999999999998,50.));
#596=CARTESIAN_POINT('',(0.,6.99999999999998,44.));
#597=CARTESIAN_POINT('',(0.,6.99999999999998,-50.));
#598=CARTESIAN_POINT('',(0.,6.99999999999998,-56.));
#599=CARTESIAN_POINT('',(-50.,6.99999999999998,0.));
#600=CARTESIAN_POINT('',(-50.,6.99999999999998,-6.));
#601=CARTESIAN_POINT('',(0.,6.99999999999998,27.));
#602=CARTESIAN_POINT('',(0.,12.,0.));
#603=CARTESIAN_POINT('',(0.,12.,-70.));
#604=CARTESIAN_POINT('',(0.,22.5,0.));
#605=CARTESIAN_POINT('',(0.,22.5,-70.));
#606=CARTESIAN_POINT('',(0.,0.,0.));
#607=CARTESIAN_POINT('',(62.4905617873612,22.5,62.4905617873611));
#608=CARTESIAN_POINT('',(62.4905617873612,22.5,59.2905617873611));
#609=CARTESIAN_POINT('',(62.4905617873609,22.5,-62.4905617873614));
#610=CARTESIAN_POINT('',(62.4905617873609,22.5,-65.6905617873614));
#611=CARTESIAN_POINT('',(0.,22.5,88.375));
#612=CARTESIAN_POINT('',(0.,22.5,85.175));
#613=CARTESIAN_POINT('',(0.,22.5,-88.375));
#614=CARTESIAN_POINT('',(0.,22.5,-91.575));
#615=CARTESIAN_POINT('',(-62.490561787361,22.5,62.4905617873613));
#616=CARTESIAN_POINT('',(-62.490561787361,22.5,59.2905617873613));
#617=CARTESIAN_POINT('',(-62.4905617873613,22.5,-62.490561787361));
#618=CARTESIAN_POINT('',(-62.4905617873613,22.5,-65.690561787361));
#619=CARTESIAN_POINT('',(-88.375,22.5,0.));
#620=CARTESIAN_POINT('',(-88.375,22.5,-3.2));
#621=CARTESIAN_POINT('',(88.375,22.5,0.));
#622=CARTESIAN_POINT('',(88.375,22.5,-3.2));
#623=CARTESIAN_POINT('',(0.,22.5,0.));
#624=CARTESIAN_POINT('',(0.,22.5,-96.));
#625=CARTESIAN_POINT('',(0.,22.5,70.));
#626=CARTESIAN_POINT('',(0.,15.5,0.));
#627=CARTESIAN_POINT('',(0.,15.5,-96.));
#628=CARTESIAN_POINT('',(0.,0.,0.));
#629=CARTESIAN_POINT('',(0.,15.5,0.));
#630=CARTESIAN_POINT('',(0.,15.5,82.));
#631=CARTESIAN_POINT('',(62.4905617873612,15.5,62.4905617873611));
#632=CARTESIAN_POINT('',(62.4905617873612,15.5,65.6905617873611));
#633=CARTESIAN_POINT('',(62.4905617873609,15.5,-62.4905617873614));
#634=CARTESIAN_POINT('',(62.4905617873609,15.5,-59.2905617873614));
#635=CARTESIAN_POINT('',(0.,15.5,88.375));
#636=CARTESIAN_POINT('',(0.,15.5,91.575));
#637=CARTESIAN_POINT('',(0.,15.5,-88.375));
#638=CARTESIAN_POINT('',(0.,15.5,-85.175));
#639=CARTESIAN_POINT('',(-62.490561787361,15.5,62.4905617873613));
#640=CARTESIAN_POINT('',(-62.490561787361,15.5,65.6905617873613));
#641=CARTESIAN_POINT('',(-62.4905617873613,15.5,-62.490561787361));
#642=CARTESIAN_POINT('',(-62.4905617873613,15.5,-59.290561787361));
#643=CARTESIAN_POINT('',(-88.375,15.5,0.));
#644=CARTESIAN_POINT('',(-88.375,15.5,3.2));
#645=CARTESIAN_POINT('',(88.375,15.5,0.));
#646=CARTESIAN_POINT('',(88.375,15.5,3.2));
#647=CARTESIAN_POINT('',(0.,15.5,96.));
#648=CARTESIAN_POINT('',(0.,10.5,0.));
#649=CARTESIAN_POINT('',(0.,10.5,77.));
#650=CARTESIAN_POINT('',(0.,0.,0.));
#651=CARTESIAN_POINT('',(-50.,0.,0.));
#652=CARTESIAN_POINT('',(0.,0.,-50.));
#653=CARTESIAN_POINT('',(0.,0.,50.));
#654=CARTESIAN_POINT('',(50.,0.,0.));
#655=CARTESIAN_POINT('',(88.375,15.5,0.));
#656=CARTESIAN_POINT('',(-88.375,15.5,0.));
#657=CARTESIAN_POINT('',(-62.4905617873613,15.5,-62.490561787361));
#658=CARTESIAN_POINT('',(-62.490561787361,15.5,62.4905617873613));
#659=CARTESIAN_POINT('',(0.,15.5,-88.375));
#660=CARTESIAN_POINT('',(0.,15.5,88.375));
#661=CARTESIAN_POINT('',(62.4905617873609,15.5,-62.4905617873614));
#662=CARTESIAN_POINT('',(62.4905617873612,15.5,62.4905617873611));
#663=CARTESIAN_POINT('',(0.,12.,0.));
#664=CARTESIAN_POINT('',(0.,10.5,0.));
#665=CARTESIAN_POINT('',(0.,6.99999999999998,0.));
#666=MECHANICAL_DESIGN_GEOMETRIC_PRESENTATION_REPRESENTATION('',(#24),#667);
#667=(
GEOMETRIC_REPRESENTATION_CONTEXT(3)
GLOBAL_UNCERTAINTY_ASSIGNED_CONTEXT((#668))
GLOBAL_UNIT_ASSIGNED_CONTEXT((#674,#670,#669))
REPRESENTATION_CONTEXT('bol_disque-AP','TOP_LEVEL_ASSEMBLY_PART')
);
#668=UNCERTAINTY_MEASURE_WITH_UNIT(LENGTH_MEASURE(2.E-5),#674,
'DISTANCE_ACCURACY_VALUE','Maximum Tolerance applied to model');
#669=(
NAMED_UNIT(*)
SI_UNIT($,.STERADIAN.)
SOLID_ANGLE_UNIT()
);
#670=(
CONVERSION_BASED_UNIT('DEGREE',#672)
NAMED_UNIT(#671)
PLANE_ANGLE_UNIT()
);
#671=DIMENSIONAL_EXPONENTS(0.,0.,0.,0.,0.,0.,0.);
#672=PLANE_ANGLE_MEASURE_WITH_UNIT(PLANE_ANGLE_MEASURE(0.0174532925),#673);
#673=(
NAMED_UNIT(*)
PLANE_ANGLE_UNIT()
SI_UNIT($,.RADIAN.)
);
#674=(
LENGTH_UNIT()
NAMED_UNIT(*)
SI_UNIT(.MILLI.,.METRE.)
);
ENDSEC;
END-ISO-10303-21;
