ISO-10303-21;
HEADER;
FILE_DESCRIPTION (( 'STEP AP214' ),
    '1' );
FILE_NAME ('pente.STEP',
    '2019-10-29T17:47:44',
    ( '' ),
    ( '' ),
    'SwSTEP 2.0',
    'SolidWorks 2016',
    '' );
FILE_SCHEMA (( 'AUTOMOTIVE_DESIGN' ));
ENDSEC;

DATA;
#1 = SURFACE_STYLE_USAGE ( .BOTH. , #97 ) ;
#2 = CIRCLE ( 'NONE', #87, 4.000000000000000000 ) ;
#3 = DIRECTION ( 'NONE',  ( -0.0000000000000000000, -0.0000000000000000000, -1.000000000000000000 ) ) ;
#4 = COLOUR_RGB ( '',0.7921568627450980000, 0.8196078431372548800, 0.9333333333333333500 ) ;
#5 = PRODUCT_DEFINITION_CONTEXT ( 'detailed design', #85, 'design' ) ;
#6 = CARTESIAN_POINT ( 'NONE',  ( 4.000000000000000000, 0.0000000000000000000, 1.000000000000004400 ) ) ;
#7 = FACE_OUTER_BOUND ( 'NONE', #16, .T. ) ;
#8 = AXIS2_PLACEMENT_3D ( 'NONE', #150, #79, #133 ) ;
#9 = FACE_OUTER_BOUND ( 'NONE', #10, .T. ) ;
#10 = EDGE_LOOP ( 'NONE', ( #99 ) ) ;
#11 = PRODUCT_DEFINITION ( 'UNKNOWN', '', #108, #5 ) ;
#12 = PRODUCT_DEFINITION_SHAPE ( 'NONE', 'NONE',  #11 ) ;
#13 = EDGE_LOOP ( 'NONE', ( #96 ) ) ;
#14 = SURFACE_STYLE_USAGE ( .BOTH. , #104 ) ;
#15 = DIRECTION ( 'NONE',  ( -0.0000000000000000000, -0.0000000000000000000, -1.000000000000000000 ) ) ;
#16 = EDGE_LOOP ( 'NONE', ( #23 ) ) ;
#17 = STYLED_ITEM ( 'NONE', ( #88 ), #105 ) ;
#18 = DIRECTION ( 'NONE',  ( -0.0000000000000000000, -0.0000000000000000000, 1.000000000000000000 ) ) ;
#19 =( LENGTH_UNIT ( ) NAMED_UNIT ( * ) SI_UNIT ( .MILLI., .METRE. ) );
#20 = CARTESIAN_POINT ( 'NONE',  ( -8.000000000000000000, 4.000000000000000000, 6.143593539449141400 ) ) ;
#21 = PRODUCT ( 'pente', 'pente', '', ( #153 ) ) ;
#22 =( GEOMETRIC_REPRESENTATION_CONTEXT ( 3 ) GLOBAL_UNCERTAINTY_ASSIGNED_CONTEXT ( ( #195 ) ) GLOBAL_UNIT_ASSIGNED_CONTEXT ( ( #170, #67, #114 ) ) REPRESENTATION_CONTEXT ( 'NONE', 'WORKASPACE' ) );
#23 = ORIENTED_EDGE ( 'NONE', *, *, #145, .T. ) ;
#24 = FILL_AREA_STYLE ('',( #113 ) ) ;
#25 = AXIS2_PLACEMENT_3D ( 'NONE', #157, #74, #90 ) ;
#26 = VERTEX_POINT ( 'NONE', #139 ) ;
#27 =( GEOMETRIC_REPRESENTATION_CONTEXT ( 3 ) GLOBAL_UNCERTAINTY_ASSIGNED_CONTEXT ( ( #154 ) ) GLOBAL_UNIT_ASSIGNED_CONTEXT ( ( #19, #110, #65 ) ) REPRESENTATION_CONTEXT ( 'NONE', 'WORKASPACE' ) );
#28 = ADVANCED_FACE ( 'NONE', ( #193, #70 ), #187, .T. ) ;
#29 = CYLINDRICAL_SURFACE ( 'NONE', #47, 1.249999999999996400 ) ;
#30 = SURFACE_STYLE_FILL_AREA ( #75 ) ;
#31 = PRODUCT_RELATED_PRODUCT_CATEGORY ( 'part', '', ( #21 ) ) ;
#32 =( NAMED_UNIT ( * ) SI_UNIT ( $, .STERADIAN. ) SOLID_ANGLE_UNIT ( ) );
#33 = CARTESIAN_POINT ( 'NONE',  ( 0.0000000000000000000, 1.249999999999996400, 10.90673326026350600 ) ) ;
#34 = CARTESIAN_POINT ( 'NONE',  ( 0.0000000000000000000, 0.0000000000000000000, 0.0000000000000000000 ) ) ;
#35 = DIRECTION ( 'NONE',  ( 1.000000000000000000, 0.0000000000000000000, 0.0000000000000000000 ) ) ;
#36 = CIRCLE ( 'NONE', #161, 2.999999999999988900 ) ;
#37 = EDGE_LOOP ( 'NONE', ( #86 ) ) ;
#38 = SURFACE_STYLE_USAGE ( .BOTH. , #184 ) ;
#39 = MECHANICAL_DESIGN_GEOMETRIC_PRESENTATION_REPRESENTATION (  '', ( #89 ), #22 ) ;
#40 = CARTESIAN_POINT ( 'NONE',  ( 0.0000000000000000000, 0.0000000000000000000, 0.0000000000000000000 ) ) ;
#41 = CIRCLE ( 'NONE', #163, 1.249999999999998400 ) ;
#42 = EDGE_LOOP ( 'NONE', ( #130 ) ) ;
#43 = ADVANCED_BREP_SHAPE_REPRESENTATION ( 'pente', ( #61, #83 ), #54 ) ;
#44 = SURFACE_STYLE_FILL_AREA ( #24 ) ;
#45 = CONICAL_SURFACE ( 'NONE', #8, 1.524999999999999900, 0.7853981633974459500 ) ;
#46 = FACE_BOUND ( 'NONE', #13, .T. ) ;
#47 = AXIS2_PLACEMENT_3D ( 'NONE', #51, #3, #80 ) ;
#48 = CLOSED_SHELL ( 'NONE', ( #28, #50, #64, #105, #103, #156 ) ) ;
#49 = DIRECTION ( 'NONE',  ( 0.0000000000000000000, 0.0000000000000000000, 1.000000000000000000 ) ) ;
#50 = ADVANCED_FACE ( 'NONE', ( #63, #95 ), #131, .F. ) ;
#51 = CARTESIAN_POINT ( 'NONE',  ( 0.0000000000000000000, 0.0000000000000000000, 0.0000000000000000000 ) ) ;
#52 = FACE_BOUND ( 'NONE', #159, .T. ) ;
#53 = EDGE_LOOP ( 'NONE', ( #122 ) ) ;
#54 =( GEOMETRIC_REPRESENTATION_CONTEXT ( 3 ) GLOBAL_UNCERTAINTY_ASSIGNED_CONTEXT ( ( #112 ) ) GLOBAL_UNIT_ASSIGNED_CONTEXT ( ( #167, #100, #58 ) ) REPRESENTATION_CONTEXT ( 'NONE', 'WORKASPACE' ) );
#55 = CARTESIAN_POINT ( 'NONE',  ( 0.0000000000000000000, 4.000000000000000000, 6.143593539449140600 ) ) ;
#56 = VERTEX_POINT ( 'NONE', #125 ) ;
#57 = MECHANICAL_DESIGN_GEOMETRIC_PRESENTATION_REPRESENTATION (  '', ( #17 ), #27 ) ;
#58 =( NAMED_UNIT ( * ) SI_UNIT ( $, .STERADIAN. ) SOLID_ANGLE_UNIT ( ) );
#59 = CARTESIAN_POINT ( 'NONE',  ( 0.0000000000000000000, 0.0000000000000000000, 0.0000000000000000000 ) ) ;
#60 = CARTESIAN_POINT ( 'NONE',  ( 2.999999999999988900, 0.0000000000000000000, 0.0000000000000000000 ) ) ;
#61 = MANIFOLD_SOLID_BREP ( 'Chanfrein1', #48 ) ;
#62 = ORIENTED_EDGE ( 'NONE', *, *, #165, .T. ) ;
#63 = FACE_OUTER_BOUND ( 'NONE', #93, .T. ) ;
#64 = ADVANCED_FACE ( 'NONE', ( #81, #92 ), #143, .F. ) ;
#65 =( NAMED_UNIT ( * ) SI_UNIT ( $, .STERADIAN. ) SOLID_ANGLE_UNIT ( ) );
#66 = STYLED_ITEM ( 'NONE', ( #72 ), #61 ) ;
#67 =( NAMED_UNIT ( * ) PLANE_ANGLE_UNIT ( ) SI_UNIT ( $, .RADIAN. ) );
#68 = APPLICATION_CONTEXT ( 'automotive_design' ) ;
#69 = CARTESIAN_POINT ( 'NONE',  ( -1.249999999999998400, 0.0000000000000000000, 0.2750000000000026900 ) ) ;
#70 = FACE_OUTER_BOUND ( 'NONE', #42, .T. ) ;
#71 = EDGE_LOOP ( 'NONE', ( #166 ) ) ;
#72 = PRESENTATION_STYLE_ASSIGNMENT (( #14 ) ) ;
#73 =( BOUNDED_CURVE ( )  B_SPLINE_CURVE ( 3, ( #160, #177, #148, #146, #78, #20, #55 ),
 .UNSPECIFIED., .T., .T. ) 
 B_SPLINE_CURVE_WITH_KNOTS ( ( 4, 3, 4 ),
 ( 0.0000000000000000000, 3.141592653589793100, 6.283185307179586200 ),
 .UNSPECIFIED. ) 
 CURVE ( )  GEOMETRIC_REPRESENTATION_ITEM ( )  RATIONAL_B_SPLINE_CURVE ( ( 1.000000000000000000, 0.3333333333333333700, 0.3333333333333333700, 1.000000000000000000, 0.3333333333333333700, 0.3333333333333333700, 1.000000000000000000 ) ) 
 REPRESENTATION_ITEM ( '' )  );
#74 = DIRECTION ( 'NONE',  ( 0.0000000000000000000, -0.8660254037844362700, -0.5000000000000042200 ) ) ;
#75 = FILL_AREA_STYLE ('',( #158 ) ) ;
#76 = MECHANICAL_DESIGN_GEOMETRIC_PRESENTATION_REPRESENTATION (  '', ( #66 ), #173 ) ;
#77 = DIRECTION ( 'NONE',  ( -1.000000000000000000, 0.0000000000000000000, 0.0000000000000000000 ) ) ;
#78 = CARTESIAN_POINT ( 'NONE',  ( -8.000000000000000000, -4.000000000000000900, 20.00000000000000000 ) ) ;
#79 = DIRECTION ( 'NONE',  ( -0.0000000000000000000, -0.0000000000000000000, -1.000000000000000000 ) ) ;
#80 = DIRECTION ( 'NONE',  ( -1.000000000000000000, 0.0000000000000000000, 0.0000000000000000000 ) ) ;
#81 = FACE_BOUND ( 'NONE', #91, .T. ) ;
#82 = ORIENTED_EDGE ( 'NONE', *, *, #169, .T. ) ;
#83 = AXIS2_PLACEMENT_3D ( 'NONE', #59, #182, #128 ) ;
#84 = COLOUR_RGB ( '',0.7921568627450980000, 0.8196078431372548800, 0.9333333333333333500 ) ;
#85 = APPLICATION_CONTEXT ( 'automotive_design' ) ;
#86 = ORIENTED_EDGE ( 'NONE', *, *, #145, .F. ) ;
#87 = AXIS2_PLACEMENT_3D ( 'NONE', #190, #111, #35 ) ;
#88 = PRESENTATION_STYLE_ASSIGNMENT (( #1 ) ) ;
#89 = STYLED_ITEM ( 'NONE', ( #191 ), #43 ) ;
#90 = DIRECTION ( 'NONE',  ( 0.0000000000000000000, 0.5000000000000042200, -0.8660254037844362700 ) ) ;
#91 = EDGE_LOOP ( 'NONE', ( #116 ) ) ;
#92 = FACE_OUTER_BOUND ( 'NONE', #71, .T. ) ;
#93 = EDGE_LOOP ( 'NONE', ( #62 ) ) ;
#94 = CARTESIAN_POINT ( 'NONE',  ( -2.499999999999992900, 1.249999999999996400, 10.90673326026350600 ) ) ;
#95 = FACE_BOUND ( 'NONE', #37, .T. ) ;
#96 = ORIENTED_EDGE ( 'NONE', *, *, #165, .F. ) ;
#97 = SURFACE_SIDE_STYLE ('',( #126 ) ) ;
#98 = DIRECTION ( 'NONE',  ( -1.000000000000000000, 0.0000000000000000000, 0.0000000000000000000 ) ) ;
#99 = ORIENTED_EDGE ( 'NONE', *, *, #119, .F. ) ;
#100 =( NAMED_UNIT ( * ) PLANE_ANGLE_UNIT ( ) SI_UNIT ( $, .RADIAN. ) );
#101 = EDGE_CURVE ( 'NONE', #56, #56, #73, .T. ) ;
#102 = APPLICATION_PROTOCOL_DEFINITION ( 'draft international standard', 'automotive_design', 1998, #85 ) ;
#103 = ADVANCED_FACE ( 'NONE', ( #52, #7 ), #45, .F. ) ;
#104 = SURFACE_SIDE_STYLE ('',( #30 ) ) ;
#105 = ADVANCED_FACE ( 'NONE', ( #192, #162 ), #29, .F. ) ;
#106 = CARTESIAN_POINT ( 'NONE',  ( 0.0000000000000000000, 0.0000000000000000000, 0.0000000000000000000 ) ) ;
#107 = CARTESIAN_POINT ( 'NONE',  ( 0.0000000000000000000, 0.0000000000000000000, 1.000000000000004400 ) ) ;
#108 = PRODUCT_DEFINITION_FORMATION_WITH_SPECIFIED_SOURCE ( 'ANY', '', #21, .NOT_KNOWN. ) ;
#109 = DIRECTION ( 'NONE',  ( 1.000000000000000000, 0.0000000000000000000, 0.0000000000000000000 ) ) ;
#110 =( NAMED_UNIT ( * ) PLANE_ANGLE_UNIT ( ) SI_UNIT ( $, .RADIAN. ) );
#111 = DIRECTION ( 'NONE',  ( -0.0000000000000000000, -0.0000000000000000000, 1.000000000000000000 ) ) ;
#112 = UNCERTAINTY_MEASURE_WITH_UNIT (LENGTH_MEASURE( 1.000000000000000100E-005 ), #167, 'distance_accuracy_value', 'NONE');
#113 = FILL_AREA_STYLE_COLOUR ( '', #135 ) ;
#114 =( NAMED_UNIT ( * ) SI_UNIT ( $, .STERADIAN. ) SOLID_ANGLE_UNIT ( ) );
#115 = CONICAL_SURFACE ( 'NONE', #141, 4.000000000000000000, 0.7853981633974517200 ) ;
#116 = ORIENTED_EDGE ( 'NONE', *, *, #137, .T. ) ;
#117 =( BOUNDED_CURVE ( )  B_SPLINE_CURVE ( 3, ( #33, #164, #180, #176, #121, #94, #194 ),
 .UNSPECIFIED., .T., .F. ) 
 B_SPLINE_CURVE_WITH_KNOTS ( ( 4, 3, 4 ),
 ( 0.0000000000000000000, 3.141592653589793100, 6.283185307179586200 ),
 .UNSPECIFIED. ) 
 CURVE ( )  GEOMETRIC_REPRESENTATION_ITEM ( )  RATIONAL_B_SPLINE_CURVE ( ( 1.000000000000000000, 0.3333333333333333700, 0.3333333333333333700, 1.000000000000000000, 0.3333333333333333700, 0.3333333333333333700, 1.000000000000000000 ) ) 
 REPRESENTATION_ITEM ( '' )  );
#118 =( LENGTH_UNIT ( ) NAMED_UNIT ( * ) SI_UNIT ( .MILLI., .METRE. ) );
#119 = EDGE_CURVE ( 'NONE', #140, #140, #2, .T. ) ;
#120 = DIRECTION ( 'NONE',  ( -0.0000000000000000000, -0.0000000000000000000, -1.000000000000000000 ) ) ;
#121 = CARTESIAN_POINT ( 'NONE',  ( -2.499999999999992900, -1.249999999999996400, 15.23686027918563600 ) ) ;
#122 = ORIENTED_EDGE ( 'NONE', *, *, #119, .T. ) ;
#123 = UNCERTAINTY_MEASURE_WITH_UNIT (LENGTH_MEASURE( 1.000000000000000100E-005 ), #118, 'distance_accuracy_value', 'NONE');
#124 = AXIS2_PLACEMENT_3D ( 'NONE', #34, #120, #149 ) ;
#125 = CARTESIAN_POINT ( 'NONE',  ( 0.0000000000000000000, 4.000000000000000000, 6.143593539449140600 ) ) ;
#126 = SURFACE_STYLE_FILL_AREA ( #179 ) ;
#127 = EDGE_LOOP ( 'NONE', ( #82 ) ) ;
#128 = DIRECTION ( 'NONE',  ( 1.000000000000000000, 0.0000000000000000000, 0.0000000000000000000 ) ) ;
#129 = ORIENTED_EDGE ( 'NONE', *, *, #169, .F. ) ;
#130 = ORIENTED_EDGE ( 'NONE', *, *, #101, .T. ) ;
#131 = PLANE ( 'NONE',  #188 ) ;
#132 = EDGE_LOOP ( 'NONE', ( #168 ) ) ;
#133 = DIRECTION ( 'NONE',  ( -1.000000000000000000, 0.0000000000000000000, 0.0000000000000000000 ) ) ;
#134 = DIRECTION ( 'NONE',  ( -0.0000000000000000000, -0.0000000000000000000, -1.000000000000000000 ) ) ;
#135 = COLOUR_RGB ( '',0.7921568627450980000, 0.8196078431372548800, 0.9333333333333333500 ) ;
#136 = CARTESIAN_POINT ( 'NONE',  ( -1.524999999999999900, 0.0000000000000000000, 0.0000000000000000000 ) ) ;
#137 = EDGE_CURVE ( 'NONE', #26, #26, #117, .T. ) ;
#138 = DIRECTION ( 'NONE',  ( -0.0000000000000000000, -0.0000000000000000000, -1.000000000000000000 ) ) ;
#139 = CARTESIAN_POINT ( 'NONE',  ( 0.0000000000000000000, 1.249999999999996400, 10.90673326026350600 ) ) ;
#140 = VERTEX_POINT ( 'NONE', #6 ) ;
#141 = AXIS2_PLACEMENT_3D ( 'NONE', #107, #18, #109 ) ;
#142 =( NAMED_UNIT ( * ) PLANE_ANGLE_UNIT ( ) SI_UNIT ( $, .RADIAN. ) );
#143 = PLANE ( 'NONE',  #25 ) ;
#144 = VERTEX_POINT ( 'NONE', #69 ) ;
#145 = EDGE_CURVE ( 'NONE', #178, #178, #147, .T. ) ;
#146 = CARTESIAN_POINT ( 'NONE',  ( 4.898587196589413800E-016, -4.000000000000000000, 20.00000000000000000 ) ) ;
#147 = CIRCLE ( 'NONE', #124, 1.524999999999999900 ) ;
#148 = CARTESIAN_POINT ( 'NONE',  ( 8.000000000000000000, -3.999999999999999600, 20.00000000000000000 ) ) ;
#149 = DIRECTION ( 'NONE',  ( -1.000000000000000000, 0.0000000000000000000, 0.0000000000000000000 ) ) ;
#150 = CARTESIAN_POINT ( 'NONE',  ( 0.0000000000000000000, 0.0000000000000000000, 0.0000000000000000000 ) ) ;
#151 = SHAPE_DEFINITION_REPRESENTATION ( #12, #43 ) ;
#152 = AXIS2_PLACEMENT_3D ( 'NONE', #189, #15, #77 ) ;
#153 = PRODUCT_CONTEXT ( 'NONE', #68, 'mechanical' ) ;
#154 = UNCERTAINTY_MEASURE_WITH_UNIT (LENGTH_MEASURE( 1.000000000000000100E-005 ), #19, 'distance_accuracy_value', 'NONE');
#155 = PRESENTATION_LAYER_ASSIGNMENT (  '', '', ( #66 ) ) ;
#156 = ADVANCED_FACE ( 'NONE', ( #46, #9 ), #115, .T. ) ;
#157 = CARTESIAN_POINT ( 'NONE',  ( -4.000000000000000000, -4.311946934770454700, 20.54030794028779600 ) ) ;
#158 = FILL_AREA_STYLE_COLOUR ( '', #4 ) ;
#159 = EDGE_LOOP ( 'NONE', ( #129 ) ) ;
#160 = CARTESIAN_POINT ( 'NONE',  ( 0.0000000000000000000, 4.000000000000000000, 6.143593539449140600 ) ) ;
#161 = AXIS2_PLACEMENT_3D ( 'NONE', #40, #134, #186 ) ;
#162 = FACE_OUTER_BOUND ( 'NONE', #132, .T. ) ;
#163 = AXIS2_PLACEMENT_3D ( 'NONE', #185, #138, #98 ) ;
#164 = CARTESIAN_POINT ( 'NONE',  ( 2.499999999999992900, 1.249999999999996400, 10.90673326026350600 ) ) ;
#165 = EDGE_CURVE ( 'NONE', #174, #174, #36, .T. ) ;
#166 = ORIENTED_EDGE ( 'NONE', *, *, #101, .F. ) ;
#167 =( LENGTH_UNIT ( ) NAMED_UNIT ( * ) SI_UNIT ( .MILLI., .METRE. ) );
#168 = ORIENTED_EDGE ( 'NONE', *, *, #137, .F. ) ;
#169 = EDGE_CURVE ( 'NONE', #144, #144, #41, .T. ) ;
#170 =( LENGTH_UNIT ( ) NAMED_UNIT ( * ) SI_UNIT ( .MILLI., .METRE. ) );
#171 = APPLICATION_PROTOCOL_DEFINITION ( 'draft international standard', 'automotive_design', 1998, #68 ) ;
#172 = PRESENTATION_LAYER_ASSIGNMENT (  '', '', ( #89 ) ) ;
#173 =( GEOMETRIC_REPRESENTATION_CONTEXT ( 3 ) GLOBAL_UNCERTAINTY_ASSIGNED_CONTEXT ( ( #123 ) ) GLOBAL_UNIT_ASSIGNED_CONTEXT ( ( #118, #142, #32 ) ) REPRESENTATION_CONTEXT ( 'NONE', 'WORKASPACE' ) );
#174 = VERTEX_POINT ( 'NONE', #60 ) ;
#175 = DIRECTION ( 'NONE',  ( 1.000000000000000000, 0.0000000000000000000, -0.0000000000000000000 ) ) ;
#176 = CARTESIAN_POINT ( 'NONE',  ( 1.530808498934187100E-016, -1.249999999999996400, 15.23686027918563600 ) ) ;
#177 = CARTESIAN_POINT ( 'NONE',  ( 8.000000000000000000, 4.000000000000000000, 6.143593539449141400 ) ) ;
#178 = VERTEX_POINT ( 'NONE', #136 ) ;
#179 = FILL_AREA_STYLE ('',( #181 ) ) ;
#180 = CARTESIAN_POINT ( 'NONE',  ( 2.499999999999992900, -1.249999999999996200, 15.23686027918563600 ) ) ;
#181 = FILL_AREA_STYLE_COLOUR ( '', #84 ) ;
#182 = DIRECTION ( 'NONE',  ( 0.0000000000000000000, 0.0000000000000000000, 1.000000000000000000 ) ) ;
#183 = PRESENTATION_LAYER_ASSIGNMENT (  '', '', ( #17 ) ) ;
#184 = SURFACE_SIDE_STYLE ('',( #44 ) ) ;
#185 = CARTESIAN_POINT ( 'NONE',  ( 0.0000000000000000000, 0.0000000000000000000, 0.2750000000000026900 ) ) ;
#186 = DIRECTION ( 'NONE',  ( 1.000000000000000000, 0.0000000000000000000, 0.0000000000000000000 ) ) ;
#187 = CYLINDRICAL_SURFACE ( 'NONE', #152, 4.000000000000000000 ) ;
#188 = AXIS2_PLACEMENT_3D ( 'NONE', #106, #49, #175 ) ;
#189 = CARTESIAN_POINT ( 'NONE',  ( 0.0000000000000000000, 0.0000000000000000000, 20.00000000000000000 ) ) ;
#190 = CARTESIAN_POINT ( 'NONE',  ( 0.0000000000000000000, 0.0000000000000000000, 1.000000000000004400 ) ) ;
#191 = PRESENTATION_STYLE_ASSIGNMENT (( #38 ) ) ;
#192 = FACE_OUTER_BOUND ( 'NONE', #127, .T. ) ;
#193 = FACE_OUTER_BOUND ( 'NONE', #53, .T. ) ;
#194 = CARTESIAN_POINT ( 'NONE',  ( 0.0000000000000000000, 1.249999999999996400, 10.90673326026350600 ) ) ;
#195 = UNCERTAINTY_MEASURE_WITH_UNIT (LENGTH_MEASURE( 1.000000000000000100E-005 ), #170, 'distance_accuracy_value', 'NONE');
ENDSEC;
END-ISO-10303-21;
