ISO-10303-21;
HEADER;
FILE_DESCRIPTION (( 'STEP AP214' ),
    '1' );
FILE_NAME ('bouton.STEP',
    '2019-10-29T17:47:31',
    ( '' ),
    ( '' ),
    'SwSTEP 2.0',
    'SolidWorks 2016',
    '' );
FILE_SCHEMA (( 'AUTOMOTIVE_DESIGN' ));
ENDSEC;

DATA;
#1 = FACE_BOUND ( 'NONE', #180, .T. ) ;
#2 = AXIS2_PLACEMENT_3D ( 'NONE', #178, #52, #17 ) ;
#3 =( LENGTH_UNIT ( ) NAMED_UNIT ( * ) SI_UNIT ( .MILLI., .METRE. ) );
#4 = EDGE_LOOP ( 'NONE', ( #176 ) ) ;
#5 = SURFACE_SIDE_STYLE ('',( #50 ) ) ;
#6 = AXIS2_PLACEMENT_3D ( 'NONE', #21, #53, #83 ) ;
#7 = EDGE_LOOP ( 'NONE', ( #103 ) ) ;
#8 = UNCERTAINTY_MEASURE_WITH_UNIT (LENGTH_MEASURE( 1.000000000000000100E-005 ), #102, 'distance_accuracy_value', 'NONE');
#9 = AXIS2_PLACEMENT_3D ( 'NONE', #100, #142, #113 ) ;
#10 = UNCERTAINTY_MEASURE_WITH_UNIT (LENGTH_MEASURE( 1.000000000000000100E-005 ), #3, 'distance_accuracy_value', 'NONE');
#11 = CIRCLE ( 'NONE', #26, 6.000000000000000900 ) ;
#12 = CONICAL_SURFACE ( 'NONE', #65, 1.525000000000000400, 0.7853981633974482800 ) ;
#13 = COLOUR_RGB ( '',0.7921568627450980000, 0.8196078431372548800, 0.9333333333333333500 ) ;
#14 = PLANE ( 'NONE',  #193 ) ;
#15 = EDGE_LOOP ( 'NONE', ( #59 ) ) ;
#16 = DIRECTION ( 'NONE',  ( -0.0000000000000000000, -0.0000000000000000000, 1.000000000000000000 ) ) ;
#17 = DIRECTION ( 'NONE',  ( 1.000000000000000000, 0.0000000000000000000, 0.0000000000000000000 ) ) ;
#18 = PRESENTATION_STYLE_ASSIGNMENT (( #179 ) ) ;
#19 = DIRECTION ( 'NONE',  ( 0.0000000000000000000, 0.0000000000000000000, -1.000000000000000000 ) ) ;
#20 =( GEOMETRIC_REPRESENTATION_CONTEXT ( 3 ) GLOBAL_UNCERTAINTY_ASSIGNED_CONTEXT ( ( #10 ) ) GLOBAL_UNIT_ASSIGNED_CONTEXT ( ( #3, #88, #147 ) ) REPRESENTATION_CONTEXT ( 'NONE', 'WORKASPACE' ) );
#21 = CARTESIAN_POINT ( 'NONE',  ( 0.0000000000000000000, 0.0000000000000000000, 8.000000000000000000 ) ) ;
#22 = DIRECTION ( 'NONE',  ( 1.000000000000000000, 0.0000000000000000000, 0.0000000000000000000 ) ) ;
#23 = MECHANICAL_DESIGN_GEOMETRIC_PRESENTATION_REPRESENTATION (  '', ( #168 ), #20 ) ;
#24 = CLOSED_SHELL ( 'NONE', ( #32, #79, #174, #75, #72, #187, #108 ) ) ;
#25 = DIRECTION ( 'NONE',  ( 1.000000000000000000, 0.0000000000000000000, 0.0000000000000000000 ) ) ;
#26 = AXIS2_PLACEMENT_3D ( 'NONE', #34, #139, #97 ) ;
#27 = EDGE_LOOP ( 'NONE', ( #84 ) ) ;
#28 = SURFACE_STYLE_FILL_AREA ( #143 ) ;
#29 = PRODUCT_RELATED_PRODUCT_CATEGORY ( 'part', '', ( #94 ) ) ;
#30 = FILL_AREA_STYLE ('',( #73 ) ) ;
#31 = AXIS2_PLACEMENT_3D ( 'NONE', #77, #188, #95 ) ;
#32 = ADVANCED_FACE ( 'NONE', ( #43, #161 ), #92, .T. ) ;
#33 = CONICAL_SURFACE ( 'NONE', #9, 6.000000000000000900, 0.7853981633974491700 ) ;
#34 = CARTESIAN_POINT ( 'NONE',  ( 0.0000000000000000000, 0.0000000000000000000, 1.000000000000002700 ) ) ;
#35 =( GEOMETRIC_REPRESENTATION_CONTEXT ( 3 ) GLOBAL_UNCERTAINTY_ASSIGNED_CONTEXT ( ( #8 ) ) GLOBAL_UNIT_ASSIGNED_CONTEXT ( ( #102, #61, #162 ) ) REPRESENTATION_CONTEXT ( 'NONE', 'WORKASPACE' ) );
#36 = SURFACE_SIDE_STYLE ('',( #28 ) ) ;
#37 = DIRECTION ( 'NONE',  ( 1.000000000000000000, 0.0000000000000000000, 0.0000000000000000000 ) ) ;
#38 = STYLED_ITEM ( 'NONE', ( #133 ), #98 ) ;
#39 = FACE_BOUND ( 'NONE', #195, .T. ) ;
#40 = EDGE_LOOP ( 'NONE', ( #45 ) ) ;
#41 = ADVANCED_BREP_SHAPE_REPRESENTATION ( 'bouton', ( #98, #47 ), #35 ) ;
#42 = CARTESIAN_POINT ( 'NONE',  ( 0.0000000000000000000, 0.0000000000000000000, 0.0000000000000000000 ) ) ;
#43 = FACE_OUTER_BOUND ( 'NONE', #130, .T. ) ;
#44 = FACE_OUTER_BOUND ( 'NONE', #7, .T. ) ;
#45 = ORIENTED_EDGE ( 'NONE', *, *, #172, .T. ) ;
#46 = EDGE_CURVE ( 'NONE', #201, #201, #127, .T. ) ;
#47 = AXIS2_PLACEMENT_3D ( 'NONE', #42, #145, #22 ) ;
#48 = AXIS2_PLACEMENT_3D ( 'NONE', #141, #56, #68 ) ;
#49 = DIRECTION ( 'NONE',  ( -0.0000000000000000000, -0.0000000000000000000, 1.000000000000000000 ) ) ;
#50 = SURFACE_STYLE_FILL_AREA ( #117 ) ;
#51 = EDGE_LOOP ( 'NONE', ( #76 ) ) ;
#52 = DIRECTION ( 'NONE',  ( -0.0000000000000000000, -0.0000000000000000000, -1.000000000000000000 ) ) ;
#53 = DIRECTION ( 'NONE',  ( 0.0000000000000000000, 0.0000000000000000000, -1.000000000000000000 ) ) ;
#54 = PRESENTATION_LAYER_ASSIGNMENT (  '', '', ( #158 ) ) ;
#55 = PLANE ( 'NONE',  #159 ) ;
#56 = DIRECTION ( 'NONE',  ( 0.0000000000000000000, 0.0000000000000000000, 1.000000000000000000 ) ) ;
#57 = CARTESIAN_POINT ( 'NONE',  ( 5.000000000000008000, 0.0000000000000000000, 8.000000000000000000 ) ) ;
#58 = PRODUCT_DEFINITION_FORMATION_WITH_SPECIFIED_SOURCE ( 'ANY', '', #94, .NOT_KNOWN. ) ;
#59 = ORIENTED_EDGE ( 'NONE', *, *, #196, .T. ) ;
#60 = AXIS2_PLACEMENT_3D ( 'NONE', #170, #124, #78 ) ;
#61 =( NAMED_UNIT ( * ) PLANE_ANGLE_UNIT ( ) SI_UNIT ( $, .RADIAN. ) );
#62 = ORIENTED_EDGE ( 'NONE', *, *, #164, .T. ) ;
#63 = UNCERTAINTY_MEASURE_WITH_UNIT (LENGTH_MEASURE( 1.000000000000000100E-005 ), #185, 'distance_accuracy_value', 'NONE');
#64 = FILL_AREA_STYLE_COLOUR ( '', #67 ) ;
#65 = AXIS2_PLACEMENT_3D ( 'NONE', #155, #16, #126 ) ;
#66 =( NAMED_UNIT ( * ) PLANE_ANGLE_UNIT ( ) SI_UNIT ( $, .RADIAN. ) );
#67 = COLOUR_RGB ( '',0.7921568627450980000, 0.8196078431372548800, 0.9333333333333333500 ) ;
#68 = DIRECTION ( 'NONE',  ( 1.000000000000000000, 0.0000000000000000000, 0.0000000000000000000 ) ) ;
#69 = DIRECTION ( 'NONE',  ( -0.0000000000000000000, -0.0000000000000000000, 1.000000000000000000 ) ) ;
#70 = CARTESIAN_POINT ( 'NONE',  ( 6.000000000000000900, 0.0000000000000000000, 7.000000000000002700 ) ) ;
#71 = FACE_BOUND ( 'NONE', #190, .T. ) ;
#72 = ADVANCED_FACE ( 'NONE', ( #119, #99 ), #12, .F. ) ;
#73 = FILL_AREA_STYLE_COLOUR ( '', #13 ) ;
#74 = CIRCLE ( 'NONE', #136, 1.249999999999987100 ) ;
#75 = ADVANCED_FACE ( 'NONE', ( #189, #175 ), #118, .F. ) ;
#76 = ORIENTED_EDGE ( 'NONE', *, *, #46, .T. ) ;
#77 = CARTESIAN_POINT ( 'NONE',  ( 0.0000000000000000000, 0.0000000000000000000, 8.000000000000000000 ) ) ;
#78 = DIRECTION ( 'NONE',  ( -1.000000000000000000, 0.0000000000000000000, 0.0000000000000000000 ) ) ;
#79 = ADVANCED_FACE ( 'NONE', ( #122, #71 ), #14, .T. ) ;
#80 = PRODUCT_DEFINITION_SHAPE ( 'NONE', 'NONE',  #153 ) ;
#81 = CIRCLE ( 'NONE', #146, 6.000000000000000900 ) ;
#82 = EDGE_LOOP ( 'NONE', ( #167 ) ) ;
#83 = DIRECTION ( 'NONE',  ( -1.000000000000000000, 0.0000000000000000000, 0.0000000000000000000 ) ) ;
#84 = ORIENTED_EDGE ( 'NONE', *, *, #172, .F. ) ;
#85 = DIRECTION ( 'NONE',  ( 1.000000000000000000, 0.0000000000000000000, -0.0000000000000000000 ) ) ;
#86 = PRODUCT_CONTEXT ( 'NONE', #199, 'mechanical' ) ;
#87 = AXIS2_PLACEMENT_3D ( 'NONE', #205, #49, #204 ) ;
#88 =( NAMED_UNIT ( * ) PLANE_ANGLE_UNIT ( ) SI_UNIT ( $, .RADIAN. ) );
#89 = FACE_BOUND ( 'NONE', #51, .T. ) ;
#90 = CONICAL_SURFACE ( 'NONE', #6, 5.000000000000008000, 0.7853981633974460600 ) ;
#91 = ORIENTED_EDGE ( 'NONE', *, *, #154, .T. ) ;
#92 = CYLINDRICAL_SURFACE ( 'NONE', #60, 6.000000000000000900 ) ;
#93 = ORIENTED_EDGE ( 'NONE', *, *, #164, .F. ) ;
#94 = PRODUCT ( 'bouton', 'bouton', '', ( #86 ) ) ;
#95 = DIRECTION ( 'NONE',  ( 1.000000000000000000, 0.0000000000000000000, 0.0000000000000000000 ) ) ;
#96 = DIRECTION ( 'NONE',  ( 1.000000000000000000, 0.0000000000000000000, -0.0000000000000000000 ) ) ;
#97 = DIRECTION ( 'NONE',  ( 1.000000000000000000, 0.0000000000000000000, 0.0000000000000000000 ) ) ;
#98 = MANIFOLD_SOLID_BREP ( 'Chanfrein2', #24 ) ;
#99 = FACE_OUTER_BOUND ( 'NONE', #15, .T. ) ;
#100 = CARTESIAN_POINT ( 'NONE',  ( 0.0000000000000000000, 0.0000000000000000000, 1.000000000000002700 ) ) ;
#101 = DIRECTION ( 'NONE',  ( 1.000000000000000000, 0.0000000000000000000, 0.0000000000000000000 ) ) ;
#102 =( LENGTH_UNIT ( ) NAMED_UNIT ( * ) SI_UNIT ( .MILLI., .METRE. ) );
#103 = ORIENTED_EDGE ( 'NONE', *, *, #151, .F. ) ;
#104 = CARTESIAN_POINT ( 'NONE',  ( 0.0000000000000000000, 0.0000000000000000000, 8.000000000000001800 ) ) ;
#105 = CARTESIAN_POINT ( 'NONE',  ( 6.000000000000000900, 0.0000000000000000000, 1.000000000000002700 ) ) ;
#106 = DIRECTION ( 'NONE',  ( -0.0000000000000000000, -0.0000000000000000000, 1.000000000000000000 ) ) ;
#107 = FACE_OUTER_BOUND ( 'NONE', #4, .T. ) ;
#108 = ADVANCED_FACE ( 'NONE', ( #121, #39 ), #90, .T. ) ;
#109 = PRODUCT_DEFINITION_CONTEXT ( 'detailed design', #116, 'design' ) ;
#110 = SURFACE_SIDE_STYLE ('',( #152 ) ) ;
#111 = PRESENTATION_LAYER_ASSIGNMENT (  '', '', ( #168 ) ) ;
#112 = UNCERTAINTY_MEASURE_WITH_UNIT (LENGTH_MEASURE( 1.000000000000000100E-005 ), #208, 'distance_accuracy_value', 'NONE');
#113 = DIRECTION ( 'NONE',  ( 1.000000000000000000, 0.0000000000000000000, 0.0000000000000000000 ) ) ;
#114 = DIRECTION ( 'NONE',  ( 0.0000000000000000000, 0.0000000000000000000, 1.000000000000000000 ) ) ;
#115 = CARTESIAN_POINT ( 'NONE',  ( 4.999999999999996400, 0.0000000000000000000, 0.0000000000000000000 ) ) ;
#116 = APPLICATION_CONTEXT ( 'automotive_design' ) ;
#117 = FILL_AREA_STYLE ('',( #194 ) ) ;
#118 = CYLINDRICAL_SURFACE ( 'NONE', #31, 1.249999999999992500 ) ;
#119 = FACE_BOUND ( 'NONE', #27, .T. ) ;
#120 = VERTEX_POINT ( 'NONE', #105 ) ;
#121 = FACE_OUTER_BOUND ( 'NONE', #166, .T. ) ;
#122 = FACE_OUTER_BOUND ( 'NONE', #200, .T. ) ;
#123 = ORIENTED_EDGE ( 'NONE', *, *, #154, .F. ) ;
#124 = DIRECTION ( 'NONE',  ( -0.0000000000000000000, -0.0000000000000000000, -1.000000000000000000 ) ) ;
#125 = CIRCLE ( 'NONE', #2, 4.999999999999996400 ) ;
#126 = DIRECTION ( 'NONE',  ( 1.000000000000000000, 0.0000000000000000000, 0.0000000000000000000 ) ) ;
#127 = CIRCLE ( 'NONE', #87, 1.249999999999997600 ) ;
#128 = CARTESIAN_POINT ( 'NONE',  ( 0.0000000000000000000, 0.0000000000000000000, 0.0000000000000000000 ) ) ;
#129 = SHAPE_DEFINITION_REPRESENTATION ( #80, #41 ) ;
#130 = EDGE_LOOP ( 'NONE', ( #171 ) ) ;
#131 = APPLICATION_PROTOCOL_DEFINITION ( 'draft international standard', 'automotive_design', 1998, #116 ) ;
#132 = APPLICATION_PROTOCOL_DEFINITION ( 'draft international standard', 'automotive_design', 1998, #199 ) ;
#133 = PRESENTATION_STYLE_ASSIGNMENT (( #191 ) ) ;
#134 = ORIENTED_EDGE ( 'NONE', *, *, #196, .F. ) ;
#135 = VERTEX_POINT ( 'NONE', #70 ) ;
#136 = AXIS2_PLACEMENT_3D ( 'NONE', #160, #69, #101 ) ;
#137 = CARTESIAN_POINT ( 'NONE',  ( 0.0000000000000000000, 0.0000000000000000000, 8.000000000000000000 ) ) ;
#138 = EDGE_CURVE ( 'NONE', #165, #165, #125, .T. ) ;
#139 = DIRECTION ( 'NONE',  ( -0.0000000000000000000, -0.0000000000000000000, 1.000000000000000000 ) ) ;
#140 = VERTEX_POINT ( 'NONE', #163 ) ;
#141 = CARTESIAN_POINT ( 'NONE',  ( 0.0000000000000000000, 0.0000000000000000000, 8.000000000000000000 ) ) ;
#142 = DIRECTION ( 'NONE',  ( -0.0000000000000000000, -0.0000000000000000000, 1.000000000000000000 ) ) ;
#143 = FILL_AREA_STYLE ('',( #64 ) ) ;
#144 = PRESENTATION_STYLE_ASSIGNMENT (( #173 ) ) ;
#145 = DIRECTION ( 'NONE',  ( 0.0000000000000000000, 0.0000000000000000000, 1.000000000000000000 ) ) ;
#146 = AXIS2_PLACEMENT_3D ( 'NONE', #209, #19, #37 ) ;
#147 =( NAMED_UNIT ( * ) SI_UNIT ( $, .STERADIAN. ) SOLID_ANGLE_UNIT ( ) );
#148 =( GEOMETRIC_REPRESENTATION_CONTEXT ( 3 ) GLOBAL_UNCERTAINTY_ASSIGNED_CONTEXT ( ( #63 ) ) GLOBAL_UNIT_ASSIGNED_CONTEXT ( ( #185, #156, #202 ) ) REPRESENTATION_CONTEXT ( 'NONE', 'WORKASPACE' ) );
#149 = CIRCLE ( 'NONE', #48, 5.000000000000008000 ) ;
#150 = ORIENTED_EDGE ( 'NONE', *, *, #138, .F. ) ;
#151 = EDGE_CURVE ( 'NONE', #120, #120, #11, .T. ) ;
#152 = SURFACE_STYLE_FILL_AREA ( #30 ) ;
#153 = PRODUCT_DEFINITION ( 'UNKNOWN', '', #58, #109 ) ;
#154 = EDGE_CURVE ( 'NONE', #183, #183, #149, .T. ) ;
#155 = CARTESIAN_POINT ( 'NONE',  ( 0.0000000000000000000, 0.0000000000000000000, 8.000000000000001800 ) ) ;
#156 =( NAMED_UNIT ( * ) PLANE_ANGLE_UNIT ( ) SI_UNIT ( $, .RADIAN. ) );
#157 = DIRECTION ( 'NONE',  ( 0.0000000000000000000, 0.0000000000000000000, 1.000000000000000000 ) ) ;
#158 = STYLED_ITEM ( 'NONE', ( #144 ), #75 ) ;
#159 = AXIS2_PLACEMENT_3D ( 'NONE', #128, #114, #85 ) ;
#160 = CARTESIAN_POINT ( 'NONE',  ( 0.0000000000000000000, 0.0000000000000000000, 7.724999999999989000 ) ) ;
#161 = FACE_OUTER_BOUND ( 'NONE', #169, .T. ) ;
#162 =( NAMED_UNIT ( * ) SI_UNIT ( $, .STERADIAN. ) SOLID_ANGLE_UNIT ( ) );
#163 = CARTESIAN_POINT ( 'NONE',  ( 1.525000000000000400, 0.0000000000000000000, 8.000000000000001800 ) ) ;
#164 = EDGE_CURVE ( 'NONE', #135, #135, #81, .T. ) ;
#165 = VERTEX_POINT ( 'NONE', #115 ) ;
#166 = EDGE_LOOP ( 'NONE', ( #93 ) ) ;
#167 = ORIENTED_EDGE ( 'NONE', *, *, #46, .F. ) ;
#168 = STYLED_ITEM ( 'NONE', ( #18 ), #41 ) ;
#169 = EDGE_LOOP ( 'NONE', ( #62 ) ) ;
#170 = CARTESIAN_POINT ( 'NONE',  ( 0.0000000000000000000, 0.0000000000000000000, 8.000000000000000000 ) ) ;
#171 = ORIENTED_EDGE ( 'NONE', *, *, #151, .T. ) ;
#172 = EDGE_CURVE ( 'NONE', #184, #184, #74, .T. ) ;
#173 = SURFACE_STYLE_USAGE ( .BOTH. , #110 ) ;
#174 = ADVANCED_FACE ( 'NONE', ( #107, #89 ), #55, .F. ) ;
#175 = FACE_OUTER_BOUND ( 'NONE', #40, .T. ) ;
#176 = ORIENTED_EDGE ( 'NONE', *, *, #138, .T. ) ;
#177 = MECHANICAL_DESIGN_GEOMETRIC_PRESENTATION_REPRESENTATION (  '', ( #158 ), #148 ) ;
#178 = CARTESIAN_POINT ( 'NONE',  ( 0.0000000000000000000, 0.0000000000000000000, 0.0000000000000000000 ) ) ;
#179 = SURFACE_STYLE_USAGE ( .BOTH. , #5 ) ;
#180 = EDGE_LOOP ( 'NONE', ( #150 ) ) ;
#181 = CARTESIAN_POINT ( 'NONE',  ( 1.249999999999987100, 0.0000000000000000000, 7.724999999999989000 ) ) ;
#182 = MECHANICAL_DESIGN_GEOMETRIC_PRESENTATION_REPRESENTATION (  '', ( #38 ), #186 ) ;
#183 = VERTEX_POINT ( 'NONE', #57 ) ;
#184 = VERTEX_POINT ( 'NONE', #181 ) ;
#185 =( LENGTH_UNIT ( ) NAMED_UNIT ( * ) SI_UNIT ( .MILLI., .METRE. ) );
#186 =( GEOMETRIC_REPRESENTATION_CONTEXT ( 3 ) GLOBAL_UNCERTAINTY_ASSIGNED_CONTEXT ( ( #112 ) ) GLOBAL_UNIT_ASSIGNED_CONTEXT ( ( #208, #66, #207 ) ) REPRESENTATION_CONTEXT ( 'NONE', 'WORKASPACE' ) );
#187 = ADVANCED_FACE ( 'NONE', ( #1, #44 ), #33, .T. ) ;
#188 = DIRECTION ( 'NONE',  ( -0.0000000000000000000, -0.0000000000000000000, 1.000000000000000000 ) ) ;
#189 = FACE_OUTER_BOUND ( 'NONE', #82, .T. ) ;
#190 = EDGE_LOOP ( 'NONE', ( #134 ) ) ;
#191 = SURFACE_STYLE_USAGE ( .BOTH. , #36 ) ;
#192 = COLOUR_RGB ( '',0.7921568627450980000, 0.8196078431372548800, 0.9333333333333333500 ) ;
#193 = AXIS2_PLACEMENT_3D ( 'NONE', #137, #157, #96 ) ;
#194 = FILL_AREA_STYLE_COLOUR ( '', #192 ) ;
#195 = EDGE_LOOP ( 'NONE', ( #123 ) ) ;
#196 = EDGE_CURVE ( 'NONE', #140, #140, #206, .T. ) ;
#197 = CARTESIAN_POINT ( 'NONE',  ( 1.249999999999997600, 0.0000000000000000000, 0.0000000000000000000 ) ) ;
#198 = PRESENTATION_LAYER_ASSIGNMENT (  '', '', ( #38 ) ) ;
#199 = APPLICATION_CONTEXT ( 'automotive_design' ) ;
#200 = EDGE_LOOP ( 'NONE', ( #91 ) ) ;
#201 = VERTEX_POINT ( 'NONE', #197 ) ;
#202 =( NAMED_UNIT ( * ) SI_UNIT ( $, .STERADIAN. ) SOLID_ANGLE_UNIT ( ) );
#203 = AXIS2_PLACEMENT_3D ( 'NONE', #104, #106, #25 ) ;
#204 = DIRECTION ( 'NONE',  ( 1.000000000000000000, 0.0000000000000000000, 0.0000000000000000000 ) ) ;
#205 = CARTESIAN_POINT ( 'NONE',  ( 0.0000000000000000000, 0.0000000000000000000, 0.0000000000000000000 ) ) ;
#206 = CIRCLE ( 'NONE', #203, 1.525000000000000400 ) ;
#207 =( NAMED_UNIT ( * ) SI_UNIT ( $, .STERADIAN. ) SOLID_ANGLE_UNIT ( ) );
#208 =( LENGTH_UNIT ( ) NAMED_UNIT ( * ) SI_UNIT ( .MILLI., .METRE. ) );
#209 = CARTESIAN_POINT ( 'NONE',  ( 0.0000000000000000000, 0.0000000000000000000, 7.000000000000002700 ) ) ;
ENDSEC;
END-ISO-10303-21;
