ISO-10303-21;
HEADER;
FILE_DESCRIPTION (( 'STEP AP214' ),
    '1' );
FILE_NAME ('corps.STEP',
    '2019-10-29T17:47:59',
    ( '' ),
    ( '' ),
    'SwSTEP 2.0',
    'SolidWorks 2016',
    '' );
FILE_SCHEMA (( 'AUTOMOTIVE_DESIGN' ));
ENDSEC;

DATA;
#1 = EDGE_LOOP ( 'NONE', ( #165 ) ) ;
#2 = APPLICATION_CONTEXT ( 'automotive_design' ) ;
#3 = MECHANICAL_DESIGN_GEOMETRIC_PRESENTATION_REPRESENTATION (  '', ( #52 ), #217 ) ;
#4 = APPLICATION_PROTOCOL_DEFINITION ( 'draft international standard', 'automotive_design', 1998, #53 ) ;
#5 = APPLICATION_PROTOCOL_DEFINITION ( 'draft international standard', 'automotive_design', 1998, #2 ) ;
#6 = FACE_OUTER_BOUND ( 'NONE', #196, .T. ) ;
#7 = EDGE_LOOP ( 'NONE', ( #59 ) ) ;
#8 = AXIS2_PLACEMENT_3D ( 'NONE', #167, #14, #35 ) ;
#9 =( BOUNDED_CURVE ( )  B_SPLINE_CURVE ( 3, ( #123, #216, #122, #185, #104, #20, #138 ),
 .UNSPECIFIED., .T., .T. ) 
 B_SPLINE_CURVE_WITH_KNOTS ( ( 4, 3, 4 ),
 ( 0.0000000000000000000, 3.141592653589793100, 6.283185307179586200 ),
 .UNSPECIFIED. ) 
 CURVE ( )  GEOMETRIC_REPRESENTATION_ITEM ( )  RATIONAL_B_SPLINE_CURVE ( ( 1.000000000000000000, 0.3333333333333333700, 0.3333333333333333700, 1.000000000000000000, 0.3333333333333333700, 0.3333333333333333700, 1.000000000000000000 ) ) 
 REPRESENTATION_ITEM ( '' )  );
#10 = EDGE_LOOP ( 'NONE', ( #56 ) ) ;
#11 = EDGE_LOOP ( 'NONE', ( #87 ) ) ;
#12 = DIRECTION ( 'NONE',  ( -0.0000000000000000000, -1.000000000000000000, -0.0000000000000000000 ) ) ;
#13 = DIRECTION ( 'NONE',  ( 0.0000000000000000000, 0.0000000000000000000, 1.000000000000000000 ) ) ;
#14 = DIRECTION ( 'NONE',  ( -0.0000000000000000000, -1.000000000000000000, -0.0000000000000000000 ) ) ;
#15 = CIRCLE ( 'NONE', #54, 4.750000000000000000 ) ;
#16 =( LENGTH_UNIT ( ) NAMED_UNIT ( * ) SI_UNIT ( .MILLI., .METRE. ) );
#17 = SURFACE_STYLE_USAGE ( .BOTH. , #78 ) ;
#18 = EDGE_CURVE ( 'NONE', #184, #184, #142, .T. ) ;
#19 = CARTESIAN_POINT ( 'NONE',  ( -6.000000000000000000, -2.426913574993251100, -5.401179205822327100 ) ) ;
#20 = CARTESIAN_POINT ( 'NONE',  ( 4.999999999999999100, 2.598076211353286700, -2.500000000000000900 ) ) ;
#21 = SHAPE_DEFINITION_REPRESENTATION ( #116, #173 ) ;
#22 = PLANE ( 'NONE',  #212 ) ;
#23 = UNCERTAINTY_MEASURE_WITH_UNIT (LENGTH_MEASURE( 1.000000000000000100E-005 ), #66, 'distance_accuracy_value', 'NONE');
#24 = AXIS2_PLACEMENT_3D ( 'NONE', #193, #73, #13 ) ;
#25 = DIRECTION ( 'NONE',  ( 0.0000000000000000000, -0.0000000000000000000, 1.000000000000000000 ) ) ;
#26 = FACE_BOUND ( 'NONE', #176, .T. ) ;
#27 = ORIENTED_EDGE ( 'NONE', *, *, #121, .F. ) ;
#28 =( LENGTH_UNIT ( ) NAMED_UNIT ( * ) SI_UNIT ( .MILLI., .METRE. ) );
#29 = MANIFOLD_SOLID_BREP ( 'Enlèv. mat.-Extru.2', #41 ) ;
#30 = CARTESIAN_POINT ( 'NONE',  ( 0.0000000000000000000, 2.598076211353286700, -2.500000000000000900 ) ) ;
#31 = EDGE_LOOP ( 'NONE', ( #125 ) ) ;
#32 = AXIS2_PLACEMENT_3D ( 'NONE', #96, #12, #180 ) ;
#33 = AXIS2_PLACEMENT_3D ( 'NONE', #202, #205, #183 ) ;
#34 = DIRECTION ( 'NONE',  ( 0.0000000000000000000, 0.0000000000000000000, -1.000000000000000000 ) ) ;
#35 = DIRECTION ( 'NONE',  ( 0.0000000000000000000, 0.0000000000000000000, -1.000000000000000000 ) ) ;
#36 = FACE_OUTER_BOUND ( 'NONE', #31, .T. ) ;
#37 = CARTESIAN_POINT ( 'NONE',  ( 7.999999999999999100, 13.85640646055087000, 4.000000000000001800 ) ) ;
#38 = ADVANCED_FACE ( 'NONE', ( #46, #79 ), #91, .F. ) ;
#39 = CARTESIAN_POINT ( 'NONE',  ( 0.0000000000000000000, 0.0000000000000000000, 0.0000000000000000000 ) ) ;
#40 = CARTESIAN_POINT ( 'NONE',  ( 0.0000000000000000000, 62.00000000000000700, 4.750000000000000000 ) ) ;
#41 = CLOSED_SHELL ( 'NONE', ( #38, #194, #201, #74, #220, #62, #106, #139 ) ) ;
#42 =( GEOMETRIC_REPRESENTATION_CONTEXT ( 3 ) GLOBAL_UNCERTAINTY_ASSIGNED_CONTEXT ( ( #23 ) ) GLOBAL_UNIT_ASSIGNED_CONTEXT ( ( #66, #110, #89 ) ) REPRESENTATION_CONTEXT ( 'NONE', 'WORKASPACE' ) );
#43 = ORIENTED_EDGE ( 'NONE', *, *, #49, .F. ) ;
#44 = AXIS2_PLACEMENT_3D ( 'NONE', #39, #144, #210 ) ;
#45 = CYLINDRICAL_SURFACE ( 'NONE', #70, 6.000000000000000000 ) ;
#46 = FACE_OUTER_BOUND ( 'NONE', #114, .T. ) ;
#47 =( NAMED_UNIT ( * ) SI_UNIT ( $, .STERADIAN. ) SOLID_ANGLE_UNIT ( ) );
#48 = FILL_AREA_STYLE ('',( #134 ) ) ;
#49 = EDGE_CURVE ( 'NONE', #100, #100, #71, .T. ) ;
#50 = FACE_OUTER_BOUND ( 'NONE', #1, .T. ) ;
#51 = CARTESIAN_POINT ( 'NONE',  ( 0.0000000000000000000, 0.0000000000000000000, 0.0000000000000000000 ) ) ;
#52 = STYLED_ITEM ( 'NONE', ( #75 ), #173 ) ;
#53 = APPLICATION_CONTEXT ( 'automotive_design' ) ;
#54 = AXIS2_PLACEMENT_3D ( 'NONE', #82, #163, #143 ) ;
#55 = VERTEX_POINT ( 'NONE', #68 ) ;
#56 = ORIENTED_EDGE ( 'NONE', *, *, #191, .T. ) ;
#57 = CARTESIAN_POINT ( 'NONE',  ( 0.0000000000000000000, 68.00000000000000000, 0.0000000000000000000 ) ) ;
#58 = CIRCLE ( 'NONE', #33, 4.750000000000000000 ) ;
#59 = ORIENTED_EDGE ( 'NONE', *, *, #111, .F. ) ;
#60 = PLANE ( 'NONE',  #189 ) ;
#61 = DIRECTION ( 'NONE',  ( 0.0000000000000000000, -0.0000000000000000000, 1.000000000000000000 ) ) ;
#62 = ADVANCED_FACE ( 'NONE', ( #130, #112 ), #60, .T. ) ;
#63 = AXIS2_PLACEMENT_3D ( 'NONE', #19, #188, #88 ) ;
#64 = CARTESIAN_POINT ( 'NONE',  ( -6.000000000000000000, 60.00000000000000000, 0.0000000000000000000 ) ) ;
#65 = ORIENTED_EDGE ( 'NONE', *, *, #18, .F. ) ;
#66 =( LENGTH_UNIT ( ) NAMED_UNIT ( * ) SI_UNIT ( .MILLI., .METRE. ) );
#67 = FILL_AREA_STYLE ('',( #162 ) ) ;
#68 = CARTESIAN_POINT ( 'NONE',  ( 0.0000000000000000000, 68.00000000000000000, 4.750000000000000000 ) ) ;
#69 = EDGE_LOOP ( 'NONE', ( #187 ) ) ;
#70 = AXIS2_PLACEMENT_3D ( 'NONE', #118, #136, #34 ) ;
#71 = CIRCLE ( 'NONE', #164, 6.000000000000000900 ) ;
#72 = AXIS2_PLACEMENT_3D ( 'NONE', #103, #219, #170 ) ;
#73 = DIRECTION ( 'NONE',  ( -0.0000000000000000000, 1.000000000000000000, -0.0000000000000000000 ) ) ;
#74 = ADVANCED_FACE ( 'NONE', ( #174, #124 ), #45, .T. ) ;
#75 = PRESENTATION_STYLE_ASSIGNMENT (( #190 ) ) ;
#76 = CARTESIAN_POINT ( 'NONE',  ( 0.0000000000000000000, 68.00000000000000000, 0.0000000000000000000 ) ) ;
#77 = PRESENTATION_STYLE_ASSIGNMENT (( #17 ) ) ;
#78 = SURFACE_SIDE_STYLE ('',( #169 ) ) ;
#79 = FACE_OUTER_BOUND ( 'NONE', #10, .T. ) ;
#80 = CARTESIAN_POINT ( 'NONE',  ( -7.999999999999999100, 13.85640646055086500, 4.000000000000000000 ) ) ;
#81 = STYLED_ITEM ( 'NONE', ( #77 ), #29 ) ;
#82 = CARTESIAN_POINT ( 'NONE',  ( 0.0000000000000000000, 62.00000000000000700, 0.0000000000000000000 ) ) ;
#83 = DIRECTION ( 'NONE',  ( -0.0000000000000000000, -1.000000000000000000, -0.0000000000000000000 ) ) ;
#84 = VERTEX_POINT ( 'NONE', #109 ) ;
#85 = EDGE_LOOP ( 'NONE', ( #181 ) ) ;
#86 = PRODUCT_DEFINITION_CONTEXT ( 'detailed design', #53, 'design' ) ;
#87 = ORIENTED_EDGE ( 'NONE', *, *, #204, .F. ) ;
#88 = DIRECTION ( 'NONE',  ( 0.0000000000000000000, 0.8660254037844362700, 0.5000000000000041100 ) ) ;
#89 =( NAMED_UNIT ( * ) SI_UNIT ( $, .STERADIAN. ) SOLID_ANGLE_UNIT ( ) );
#90 =( NAMED_UNIT ( * ) SI_UNIT ( $, .STERADIAN. ) SOLID_ANGLE_UNIT ( ) );
#91 = CYLINDRICAL_SURFACE ( 'NONE', #8, 2.500000000000000000 ) ;
#92 = PRODUCT_RELATED_PRODUCT_CATEGORY ( 'part', '', ( #147 ) ) ;
#93 = ORIENTED_EDGE ( 'NONE', *, *, #49, .T. ) ;
#94 = EDGE_CURVE ( 'NONE', #200, #200, #192, .T. ) ;
#95 = CYLINDRICAL_SURFACE ( 'NONE', #24, 4.750000000000000000 ) ;
#96 = CARTESIAN_POINT ( 'NONE',  ( 0.0000000000000000000, 60.00000000000000000, 0.0000000000000000000 ) ) ;
#97 = DIRECTION ( 'NONE',  ( 0.0000000000000000000, 1.000000000000000000, 0.0000000000000000000 ) ) ;
#98 = ORIENTED_EDGE ( 'NONE', *, *, #179, .F. ) ;
#99 = CARTESIAN_POINT ( 'NONE',  ( 0.0000000000000000000, -8.673617379884035500E-016, -4.000000000000000900 ) ) ;
#100 = VERTEX_POINT ( 'NONE', #206 ) ;
#101 = ORIENTED_EDGE ( 'NONE', *, *, #191, .F. ) ;
#102 = CARTESIAN_POINT ( 'NONE',  ( 0.0000000000000000000, -8.673617379884035500E-016, -4.000000000000000900 ) ) ;
#103 = CARTESIAN_POINT ( 'NONE',  ( 0.0000000000000000000, 62.00000000000000700, 0.0000000000000000000 ) ) ;
#104 = CARTESIAN_POINT ( 'NONE',  ( 4.999999999999999100, 11.25833024919758100, 2.500000000000001300 ) ) ;
#105 = FACE_BOUND ( 'NONE', #69, .T. ) ;
#106 = ADVANCED_FACE ( 'NONE', ( #218, #159 ), #95, .F. ) ;
#107 = EDGE_LOOP ( 'NONE', ( #93 ) ) ;
#108 = SURFACE_SIDE_STYLE ('',( #154 ) ) ;
#109 = CARTESIAN_POINT ( 'NONE',  ( 0.0000000000000000000, 62.00000000000000700, 2.500000000000000000 ) ) ;
#110 =( NAMED_UNIT ( * ) PLANE_ANGLE_UNIT ( ) SI_UNIT ( $, .RADIAN. ) );
#111 = EDGE_CURVE ( 'NONE', #151, #151, #198, .T. ) ;
#112 = FACE_OUTER_BOUND ( 'NONE', #107, .T. ) ;
#113 =( NAMED_UNIT ( * ) PLANE_ANGLE_UNIT ( ) SI_UNIT ( $, .RADIAN. ) );
#114 = EDGE_LOOP ( 'NONE', ( #98 ) ) ;
#115 = FACE_OUTER_BOUND ( 'NONE', #137, .T. ) ;
#116 = PRODUCT_DEFINITION_SHAPE ( 'NONE', 'NONE',  #127 ) ;
#117 = DIRECTION ( 'NONE',  ( -0.0000000000000000000, -1.000000000000000000, -0.0000000000000000000 ) ) ;
#118 = CARTESIAN_POINT ( 'NONE',  ( 0.0000000000000000000, 0.0000000000000000000, 0.0000000000000000000 ) ) ;
#119 = PLANE ( 'NONE',  #63 ) ;
#120 = VERTEX_POINT ( 'NONE', #40 ) ;
#121 = EDGE_CURVE ( 'NONE', #55, #55, #58, .T. ) ;
#122 = CARTESIAN_POINT ( 'NONE',  ( -4.999999999999999100, 11.25833024919757700, 2.500000000000000400 ) ) ;
#123 = CARTESIAN_POINT ( 'NONE',  ( 0.0000000000000000000, 2.598076211353286700, -2.500000000000000900 ) ) ;
#124 = FACE_OUTER_BOUND ( 'NONE', #213, .T. ) ;
#125 = ORIENTED_EDGE ( 'NONE', *, *, #18, .T. ) ;
#126 = DIRECTION ( 'NONE',  ( 0.0000000000000000000, 1.000000000000000000, 0.0000000000000000000 ) ) ;
#127 = PRODUCT_DEFINITION ( 'UNKNOWN', '', #148, #86 ) ;
#128 = CARTESIAN_POINT ( 'NONE',  ( 0.0000000000000000000, -8.673617379884035500E-016, -4.000000000000000900 ) ) ;
#129 = PRODUCT_CONTEXT ( 'NONE', #2, 'mechanical' ) ;
#130 = FACE_BOUND ( 'NONE', #215, .T. ) ;
#131 = COLOUR_RGB ( '',0.7921568627450980000, 0.8196078431372548800, 0.9333333333333333500 ) ;
#132 = CYLINDRICAL_SURFACE ( 'NONE', #145, 4.000000000000000000 ) ;
#133 = PRESENTATION_LAYER_ASSIGNMENT (  '', '', ( #52 ) ) ;
#134 = FILL_AREA_STYLE_COLOUR ( '', #131 ) ;
#135 = UNCERTAINTY_MEASURE_WITH_UNIT (LENGTH_MEASURE( 1.000000000000000100E-005 ), #16, 'distance_accuracy_value', 'NONE');
#136 = DIRECTION ( 'NONE',  ( -0.0000000000000000000, -1.000000000000000000, -0.0000000000000000000 ) ) ;
#137 = EDGE_LOOP ( 'NONE', ( #211 ) ) ;
#138 = CARTESIAN_POINT ( 'NONE',  ( 0.0000000000000000000, 2.598076211353286700, -2.500000000000000900 ) ) ;
#139 = ADVANCED_FACE ( 'NONE', ( #146, #50 ), #22, .T. ) ;
#140 = FACE_OUTER_BOUND ( 'NONE', #7, .T. ) ;
#141 = AXIS2_PLACEMENT_3D ( 'NONE', #168, #117, #152 ) ;
#142 = CIRCLE ( 'NONE', #141, 4.000000000000001800 ) ;
#143 = DIRECTION ( 'NONE',  ( 0.0000000000000000000, 0.0000000000000000000, 1.000000000000000000 ) ) ;
#144 = DIRECTION ( 'NONE',  ( 0.0000000000000000000, 0.0000000000000000000, 1.000000000000000000 ) ) ;
#145 = AXIS2_PLACEMENT_3D ( 'NONE', #51, #83, #199 ) ;
#146 = FACE_BOUND ( 'NONE', #175, .T. ) ;
#147 = PRODUCT ( 'corps', 'corps', '', ( #129 ) ) ;
#148 = PRODUCT_DEFINITION_FORMATION_WITH_SPECIFIED_SOURCE ( 'ANY', '', #147, .NOT_KNOWN. ) ;
#149 = DIRECTION ( 'NONE',  ( 0.0000000000000000000, 1.000000000000000000, 0.0000000000000000000 ) ) ;
#150 =( NAMED_UNIT ( * ) PLANE_ANGLE_UNIT ( ) SI_UNIT ( $, .RADIAN. ) );
#151 = VERTEX_POINT ( 'NONE', #128 ) ;
#152 = DIRECTION ( 'NONE',  ( 0.0000000000000000000, 0.0000000000000000000, -1.000000000000000000 ) ) ;
#153 = CARTESIAN_POINT ( 'NONE',  ( -7.999999999999999100, -8.673617379884035500E-016, -4.000000000000000900 ) ) ;
#154 = SURFACE_STYLE_FILL_AREA ( #67 ) ;
#155 = PRESENTATION_LAYER_ASSIGNMENT (  '', '', ( #81 ) ) ;
#156 = CARTESIAN_POINT ( 'NONE',  ( 7.999999999999999100, -8.673617379884035500E-016, -4.000000000000000900 ) ) ;
#157 = CARTESIAN_POINT ( 'NONE',  ( -4.898587196589412800E-016, 13.85640646055086700, 4.000000000000000900 ) ) ;
#158 = PLANE ( 'NONE',  #197 ) ;
#159 = FACE_OUTER_BOUND ( 'NONE', #160, .T. ) ;
#160 = EDGE_LOOP ( 'NONE', ( #166 ) ) ;
#161 = VERTEX_POINT ( 'NONE', #30 ) ;
#162 = FILL_AREA_STYLE_COLOUR ( '', #208 ) ;
#163 = DIRECTION ( 'NONE',  ( 0.0000000000000000000, 1.000000000000000000, 0.0000000000000000000 ) ) ;
#164 = AXIS2_PLACEMENT_3D ( 'NONE', #57, #149, #195 ) ;
#165 = ORIENTED_EDGE ( 'NONE', *, *, #204, .T. ) ;
#166 = ORIENTED_EDGE ( 'NONE', *, *, #121, .T. ) ;
#167 = CARTESIAN_POINT ( 'NONE',  ( 0.0000000000000000000, 0.0000000000000000000, 0.0000000000000000000 ) ) ;
#168 = CARTESIAN_POINT ( 'NONE',  ( 0.0000000000000000000, 60.00000000000000000, 0.0000000000000000000 ) ) ;
#169 = SURFACE_STYLE_FILL_AREA ( #48 ) ;
#170 = DIRECTION ( 'NONE',  ( 0.0000000000000000000, 0.0000000000000000000, 1.000000000000000000 ) ) ;
#171 = ORIENTED_EDGE ( 'NONE', *, *, #111, .T. ) ;
#172 = CARTESIAN_POINT ( 'NONE',  ( 0.0000000000000000000, 60.00000000000000000, -4.000000000000001800 ) ) ;
#173 = ADVANCED_BREP_SHAPE_REPRESENTATION ( 'corps', ( #29, #44 ), #42 ) ;
#174 = FACE_OUTER_BOUND ( 'NONE', #85, .T. ) ;
#175 = EDGE_LOOP ( 'NONE', ( #101 ) ) ;
#176 = EDGE_LOOP ( 'NONE', ( #65 ) ) ;
#177 = CIRCLE ( 'NONE', #72, 2.500000000000000000 ) ;
#178 = DIRECTION ( 'NONE',  ( 0.0000000000000000000, -0.0000000000000000000, 1.000000000000000000 ) ) ;
#179 = EDGE_CURVE ( 'NONE', #161, #161, #9, .T. ) ;
#180 = DIRECTION ( 'NONE',  ( 0.0000000000000000000, 0.0000000000000000000, -1.000000000000000000 ) ) ;
#181 = ORIENTED_EDGE ( 'NONE', *, *, #94, .F. ) ;
#182 =( GEOMETRIC_REPRESENTATION_CONTEXT ( 3 ) GLOBAL_UNCERTAINTY_ASSIGNED_CONTEXT ( ( #135 ) ) GLOBAL_UNIT_ASSIGNED_CONTEXT ( ( #16, #150, #47 ) ) REPRESENTATION_CONTEXT ( 'NONE', 'WORKASPACE' ) );
#183 = DIRECTION ( 'NONE',  ( 0.0000000000000000000, 0.0000000000000000000, 1.000000000000000000 ) ) ;
#184 = VERTEX_POINT ( 'NONE', #172 ) ;
#185 = CARTESIAN_POINT ( 'NONE',  ( -3.061616997868383100E-016, 11.25833024919757900, 2.500000000000000900 ) ) ;
#186 = DIRECTION ( 'NONE',  ( 0.0000000000000000000, 1.000000000000000000, 0.0000000000000000000 ) ) ;
#187 = ORIENTED_EDGE ( 'NONE', *, *, #179, .T. ) ;
#188 = DIRECTION ( 'NONE',  ( 0.0000000000000000000, 0.5000000000000041100, -0.8660254037844362700 ) ) ;
#189 = AXIS2_PLACEMENT_3D ( 'NONE', #76, #97, #178 ) ;
#190 = SURFACE_STYLE_USAGE ( .BOTH. , #108 ) ;
#191 = EDGE_CURVE ( 'NONE', #84, #84, #177, .T. ) ;
#192 = CIRCLE ( 'NONE', #32, 6.000000000000000000 ) ;
#193 = CARTESIAN_POINT ( 'NONE',  ( 0.0000000000000000000, 62.00000000000000700, 0.0000000000000000000 ) ) ;
#194 = ADVANCED_FACE ( 'NONE', ( #6, #36 ), #132, .T. ) ;
#195 = DIRECTION ( 'NONE',  ( 0.0000000000000000000, 0.0000000000000000000, 1.000000000000000000 ) ) ;
#196 = EDGE_LOOP ( 'NONE', ( #171 ) ) ;
#197 = AXIS2_PLACEMENT_3D ( 'NONE', #64, #186, #25 ) ;
#198 =( BOUNDED_CURVE ( )  B_SPLINE_CURVE ( 3, ( #102, #153, #80, #157, #37, #156, #99 ),
 .UNSPECIFIED., .T., .T. ) 
 B_SPLINE_CURVE_WITH_KNOTS ( ( 4, 3, 4 ),
 ( 0.0000000000000000000, 3.141592653589793100, 6.283185307179586200 ),
 .UNSPECIFIED. ) 
 CURVE ( )  GEOMETRIC_REPRESENTATION_ITEM ( )  RATIONAL_B_SPLINE_CURVE ( ( 1.000000000000000000, 0.3333333333333333700, 0.3333333333333333700, 1.000000000000000000, 0.3333333333333333700, 0.3333333333333333700, 1.000000000000000000 ) ) 
 REPRESENTATION_ITEM ( '' )  );
#199 = DIRECTION ( 'NONE',  ( 0.0000000000000000000, 0.0000000000000000000, -1.000000000000000000 ) ) ;
#200 = VERTEX_POINT ( 'NONE', #207 ) ;
#201 = ADVANCED_FACE ( 'NONE', ( #26, #115 ), #158, .F. ) ;
#202 = CARTESIAN_POINT ( 'NONE',  ( 0.0000000000000000000, 68.00000000000000000, 0.0000000000000000000 ) ) ;
#203 = CARTESIAN_POINT ( 'NONE',  ( 0.0000000000000000000, 62.00000000000000700, 0.0000000000000000000 ) ) ;
#204 = EDGE_CURVE ( 'NONE', #120, #120, #15, .T. ) ;
#205 = DIRECTION ( 'NONE',  ( 0.0000000000000000000, 1.000000000000000000, 0.0000000000000000000 ) ) ;
#206 = CARTESIAN_POINT ( 'NONE',  ( 0.0000000000000000000, 68.00000000000000000, 6.000000000000000900 ) ) ;
#207 = CARTESIAN_POINT ( 'NONE',  ( 0.0000000000000000000, 60.00000000000000000, -6.000000000000000000 ) ) ;
#208 = COLOUR_RGB ( '',0.7921568627450980000, 0.8196078431372548800, 0.9333333333333333500 ) ;
#209 = UNCERTAINTY_MEASURE_WITH_UNIT (LENGTH_MEASURE( 1.000000000000000100E-005 ), #28, 'distance_accuracy_value', 'NONE');
#210 = DIRECTION ( 'NONE',  ( 1.000000000000000000, 0.0000000000000000000, 0.0000000000000000000 ) ) ;
#211 = ORIENTED_EDGE ( 'NONE', *, *, #94, .T. ) ;
#212 = AXIS2_PLACEMENT_3D ( 'NONE', #203, #126, #61 ) ;
#213 = EDGE_LOOP ( 'NONE', ( #43 ) ) ;
#214 = MECHANICAL_DESIGN_GEOMETRIC_PRESENTATION_REPRESENTATION (  '', ( #81 ), #182 ) ;
#215 = EDGE_LOOP ( 'NONE', ( #27 ) ) ;
#216 = CARTESIAN_POINT ( 'NONE',  ( -4.999999999999999100, 2.598076211353286700, -2.500000000000000900 ) ) ;
#217 =( GEOMETRIC_REPRESENTATION_CONTEXT ( 3 ) GLOBAL_UNCERTAINTY_ASSIGNED_CONTEXT ( ( #209 ) ) GLOBAL_UNIT_ASSIGNED_CONTEXT ( ( #28, #113, #90 ) ) REPRESENTATION_CONTEXT ( 'NONE', 'WORKASPACE' ) );
#218 = FACE_OUTER_BOUND ( 'NONE', #11, .T. ) ;
#219 = DIRECTION ( 'NONE',  ( 0.0000000000000000000, 1.000000000000000000, 0.0000000000000000000 ) ) ;
#220 = ADVANCED_FACE ( 'NONE', ( #105, #140 ), #119, .F. ) ;
ENDSEC;
END-ISO-10303-21;
