ISO-10303-21;
HEADER;
/* Generated by software containing ST-Developer
 * from STEP Tools, Inc. (www.steptools.com) 
 */

FILE_DESCRIPTION(
/* description */ (''),
/* implementation_level */ '2;1');

FILE_NAME(
/* name */ 
'G:\\DTE - Propulsion\\05. ExoMG design\\06. Models\\01. CAD\\Exotrail
 Inventor Database\\Nomenclature\\GSE\\GSE-4003-000-000 - Cathode vibr
ation interface\\GSE-4003-003-001-A - Isolation ceramic support.stp',
/* time_stamp */ '2019-10-17T16:22:19+02:00',
/* author */ ('manon.carpentier'),
/* organization */ (''),
/* preprocessor_version */ 'ST-DEVELOPER v18',
/* originating_system */ 'Autodesk Inventor 2020',
/* authorisation */ '');

FILE_SCHEMA (('AUTOMOTIVE_DESIGN { 1 0 10303 214 3 1 1 }'));
ENDSEC;

DATA;
#10=MECHANICAL_DESIGN_GEOMETRIC_PRESENTATION_REPRESENTATION('',(#13),#537);
#11=SHAPE_REPRESENTATION_RELATIONSHIP('SRR','None',#544,#12);
#12=ADVANCED_BREP_SHAPE_REPRESENTATION('',(#14),#536);
#13=STYLED_ITEM('',(#553),#14);
#14=MANIFOLD_SOLID_BREP('Solide1',#315);
#15=FACE_BOUND('',#61,.T.);
#16=FACE_BOUND('',#62,.T.);
#17=FACE_BOUND('',#64,.T.);
#18=FACE_BOUND('',#65,.T.);
#19=PLANE('',#338);
#20=PLANE('',#342);
#21=PLANE('',#346);
#22=PLANE('',#350);
#23=PLANE('',#351);
#24=PLANE('',#352);
#25=PLANE('',#353);
#26=PLANE('',#354);
#27=PLANE('',#355);
#28=PLANE('',#359);
#29=PLANE('',#360);
#30=FACE_OUTER_BOUND('',#46,.T.);
#31=FACE_OUTER_BOUND('',#47,.T.);
#32=FACE_OUTER_BOUND('',#48,.T.);
#33=FACE_OUTER_BOUND('',#49,.T.);
#34=FACE_OUTER_BOUND('',#50,.T.);
#35=FACE_OUTER_BOUND('',#51,.T.);
#36=FACE_OUTER_BOUND('',#52,.T.);
#37=FACE_OUTER_BOUND('',#53,.T.);
#38=FACE_OUTER_BOUND('',#54,.T.);
#39=FACE_OUTER_BOUND('',#55,.T.);
#40=FACE_OUTER_BOUND('',#56,.T.);
#41=FACE_OUTER_BOUND('',#57,.T.);
#42=FACE_OUTER_BOUND('',#58,.T.);
#43=FACE_OUTER_BOUND('',#59,.T.);
#44=FACE_OUTER_BOUND('',#60,.T.);
#45=FACE_OUTER_BOUND('',#63,.T.);
#46=EDGE_LOOP('',(#210,#211,#212,#213));
#47=EDGE_LOOP('',(#214,#215,#216,#217));
#48=EDGE_LOOP('',(#218,#219,#220,#221));
#49=EDGE_LOOP('',(#222,#223,#224,#225));
#50=EDGE_LOOP('',(#226,#227,#228,#229));
#51=EDGE_LOOP('',(#230,#231,#232,#233));
#52=EDGE_LOOP('',(#234,#235,#236,#237));
#53=EDGE_LOOP('',(#238,#239,#240,#241));
#54=EDGE_LOOP('',(#242,#243,#244,#245));
#55=EDGE_LOOP('',(#246,#247,#248,#249));
#56=EDGE_LOOP('',(#250,#251,#252,#253));
#57=EDGE_LOOP('',(#254,#255,#256,#257));
#58=EDGE_LOOP('',(#258,#259,#260,#261));
#59=EDGE_LOOP('',(#262,#263,#264,#265));
#60=EDGE_LOOP('',(#266,#267,#268,#269,#270,#271));
#61=EDGE_LOOP('',(#272,#273,#274,#275));
#62=EDGE_LOOP('',(#276,#277,#278,#279));
#63=EDGE_LOOP('',(#280,#281,#282,#283,#284,#285));
#64=EDGE_LOOP('',(#286,#287,#288,#289));
#65=EDGE_LOOP('',(#290,#291,#292,#293));
#66=LINE('',#453,#98);
#67=LINE('',#456,#99);
#68=LINE('',#459,#100);
#69=LINE('',#461,#101);
#70=LINE('',#462,#102);
#71=LINE('',#468,#103);
#72=LINE('',#470,#104);
#73=LINE('',#471,#105);
#74=LINE('',#477,#106);
#75=LINE('',#480,#107);
#76=LINE('',#483,#108);
#77=LINE('',#485,#109);
#78=LINE('',#486,#110);
#79=LINE('',#491,#111);
#80=LINE('',#494,#112);
#81=LINE('',#495,#113);
#82=LINE('',#499,#114);
#83=LINE('',#501,#115);
#84=LINE('',#503,#116);
#85=LINE('',#504,#117);
#86=LINE('',#507,#118);
#87=LINE('',#509,#119);
#88=LINE('',#510,#120);
#89=LINE('',#513,#121);
#90=LINE('',#515,#122);
#91=LINE('',#516,#123);
#92=LINE('',#519,#124);
#93=LINE('',#521,#125);
#94=LINE('',#522,#126);
#95=LINE('',#525,#127);
#96=LINE('',#527,#128);
#97=LINE('',#528,#129);
#98=VECTOR('',#367,10.);
#99=VECTOR('',#370,10.);
#100=VECTOR('',#373,10.);
#101=VECTOR('',#374,10.);
#102=VECTOR('',#375,10.);
#103=VECTOR('',#382,10.);
#104=VECTOR('',#385,10.);
#105=VECTOR('',#386,10.);
#106=VECTOR('',#391,10.);
#107=VECTOR('',#394,10.);
#108=VECTOR('',#397,10.);
#109=VECTOR('',#398,10.);
#110=VECTOR('',#399,10.);
#111=VECTOR('',#404,10.);
#112=VECTOR('',#409,10.);
#113=VECTOR('',#410,10.);
#114=VECTOR('',#413,10.);
#115=VECTOR('',#414,10.);
#116=VECTOR('',#415,10.);
#117=VECTOR('',#416,10.);
#118=VECTOR('',#419,10.);
#119=VECTOR('',#420,10.);
#120=VECTOR('',#421,10.);
#121=VECTOR('',#424,10.);
#122=VECTOR('',#425,10.);
#123=VECTOR('',#426,10.);
#124=VECTOR('',#429,10.);
#125=VECTOR('',#430,10.);
#126=VECTOR('',#431,10.);
#127=VECTOR('',#434,10.);
#128=VECTOR('',#435,10.);
#129=VECTOR('',#436,10.);
#130=CIRCLE('',#336,1.3);
#131=CIRCLE('',#337,1.3);
#132=CIRCLE('',#340,1.3);
#133=CIRCLE('',#341,1.3);
#134=CIRCLE('',#344,1.3);
#135=CIRCLE('',#345,1.3);
#136=CIRCLE('',#348,1.3);
#137=CIRCLE('',#349,1.3);
#138=CIRCLE('',#357,14.);
#139=CIRCLE('',#358,14.);
#140=VERTEX_POINT('',#449);
#141=VERTEX_POINT('',#450);
#142=VERTEX_POINT('',#452);
#143=VERTEX_POINT('',#454);
#144=VERTEX_POINT('',#458);
#145=VERTEX_POINT('',#460);
#146=VERTEX_POINT('',#464);
#147=VERTEX_POINT('',#466);
#148=VERTEX_POINT('',#473);
#149=VERTEX_POINT('',#474);
#150=VERTEX_POINT('',#476);
#151=VERTEX_POINT('',#478);
#152=VERTEX_POINT('',#482);
#153=VERTEX_POINT('',#484);
#154=VERTEX_POINT('',#488);
#155=VERTEX_POINT('',#490);
#156=VERTEX_POINT('',#497);
#157=VERTEX_POINT('',#498);
#158=VERTEX_POINT('',#500);
#159=VERTEX_POINT('',#502);
#160=VERTEX_POINT('',#506);
#161=VERTEX_POINT('',#508);
#162=VERTEX_POINT('',#512);
#163=VERTEX_POINT('',#514);
#164=VERTEX_POINT('',#518);
#165=VERTEX_POINT('',#520);
#166=VERTEX_POINT('',#524);
#167=VERTEX_POINT('',#526);
#168=EDGE_CURVE('',#140,#141,#130,.T.);
#169=EDGE_CURVE('',#142,#140,#66,.T.);
#170=EDGE_CURVE('',#143,#142,#131,.T.);
#171=EDGE_CURVE('',#143,#141,#67,.T.);
#172=EDGE_CURVE('',#141,#144,#68,.T.);
#173=EDGE_CURVE('',#145,#143,#69,.T.);
#174=EDGE_CURVE('',#145,#144,#70,.T.);
#175=EDGE_CURVE('',#144,#146,#132,.T.);
#176=EDGE_CURVE('',#147,#145,#133,.T.);
#177=EDGE_CURVE('',#147,#146,#71,.T.);
#178=EDGE_CURVE('',#146,#140,#72,.T.);
#179=EDGE_CURVE('',#142,#147,#73,.T.);
#180=EDGE_CURVE('',#148,#149,#134,.T.);
#181=EDGE_CURVE('',#150,#148,#74,.T.);
#182=EDGE_CURVE('',#151,#150,#135,.T.);
#183=EDGE_CURVE('',#151,#149,#75,.T.);
#184=EDGE_CURVE('',#152,#148,#76,.T.);
#185=EDGE_CURVE('',#153,#152,#77,.T.);
#186=EDGE_CURVE('',#150,#153,#78,.T.);
#187=EDGE_CURVE('',#154,#152,#136,.T.);
#188=EDGE_CURVE('',#155,#154,#79,.T.);
#189=EDGE_CURVE('',#153,#155,#137,.T.);
#190=EDGE_CURVE('',#149,#154,#80,.T.);
#191=EDGE_CURVE('',#155,#151,#81,.T.);
#192=EDGE_CURVE('',#156,#157,#82,.T.);
#193=EDGE_CURVE('',#157,#158,#83,.T.);
#194=EDGE_CURVE('',#159,#158,#84,.T.);
#195=EDGE_CURVE('',#156,#159,#85,.T.);
#196=EDGE_CURVE('',#160,#156,#86,.T.);
#197=EDGE_CURVE('',#161,#159,#87,.T.);
#198=EDGE_CURVE('',#160,#161,#88,.T.);
#199=EDGE_CURVE('',#162,#160,#89,.T.);
#200=EDGE_CURVE('',#163,#161,#90,.T.);
#201=EDGE_CURVE('',#162,#163,#91,.T.);
#202=EDGE_CURVE('',#164,#162,#92,.T.);
#203=EDGE_CURVE('',#165,#163,#93,.T.);
#204=EDGE_CURVE('',#164,#165,#94,.T.);
#205=EDGE_CURVE('',#166,#164,#95,.T.);
#206=EDGE_CURVE('',#167,#165,#96,.T.);
#207=EDGE_CURVE('',#166,#167,#97,.T.);
#208=EDGE_CURVE('',#157,#166,#138,.T.);
#209=EDGE_CURVE('',#158,#167,#139,.T.);
#210=ORIENTED_EDGE('',*,*,#168,.F.);
#211=ORIENTED_EDGE('',*,*,#169,.F.);
#212=ORIENTED_EDGE('',*,*,#170,.F.);
#213=ORIENTED_EDGE('',*,*,#171,.T.);
#214=ORIENTED_EDGE('',*,*,#172,.F.);
#215=ORIENTED_EDGE('',*,*,#171,.F.);
#216=ORIENTED_EDGE('',*,*,#173,.F.);
#217=ORIENTED_EDGE('',*,*,#174,.T.);
#218=ORIENTED_EDGE('',*,*,#175,.F.);
#219=ORIENTED_EDGE('',*,*,#174,.F.);
#220=ORIENTED_EDGE('',*,*,#176,.F.);
#221=ORIENTED_EDGE('',*,*,#177,.T.);
#222=ORIENTED_EDGE('',*,*,#178,.F.);
#223=ORIENTED_EDGE('',*,*,#177,.F.);
#224=ORIENTED_EDGE('',*,*,#179,.F.);
#225=ORIENTED_EDGE('',*,*,#169,.T.);
#226=ORIENTED_EDGE('',*,*,#180,.F.);
#227=ORIENTED_EDGE('',*,*,#181,.F.);
#228=ORIENTED_EDGE('',*,*,#182,.F.);
#229=ORIENTED_EDGE('',*,*,#183,.T.);
#230=ORIENTED_EDGE('',*,*,#184,.F.);
#231=ORIENTED_EDGE('',*,*,#185,.F.);
#232=ORIENTED_EDGE('',*,*,#186,.F.);
#233=ORIENTED_EDGE('',*,*,#181,.T.);
#234=ORIENTED_EDGE('',*,*,#187,.F.);
#235=ORIENTED_EDGE('',*,*,#188,.F.);
#236=ORIENTED_EDGE('',*,*,#189,.F.);
#237=ORIENTED_EDGE('',*,*,#185,.T.);
#238=ORIENTED_EDGE('',*,*,#190,.F.);
#239=ORIENTED_EDGE('',*,*,#183,.F.);
#240=ORIENTED_EDGE('',*,*,#191,.F.);
#241=ORIENTED_EDGE('',*,*,#188,.T.);
#242=ORIENTED_EDGE('',*,*,#192,.T.);
#243=ORIENTED_EDGE('',*,*,#193,.T.);
#244=ORIENTED_EDGE('',*,*,#194,.F.);
#245=ORIENTED_EDGE('',*,*,#195,.F.);
#246=ORIENTED_EDGE('',*,*,#196,.T.);
#247=ORIENTED_EDGE('',*,*,#195,.T.);
#248=ORIENTED_EDGE('',*,*,#197,.F.);
#249=ORIENTED_EDGE('',*,*,#198,.F.);
#250=ORIENTED_EDGE('',*,*,#199,.T.);
#251=ORIENTED_EDGE('',*,*,#198,.T.);
#252=ORIENTED_EDGE('',*,*,#200,.F.);
#253=ORIENTED_EDGE('',*,*,#201,.F.);
#254=ORIENTED_EDGE('',*,*,#202,.T.);
#255=ORIENTED_EDGE('',*,*,#201,.T.);
#256=ORIENTED_EDGE('',*,*,#203,.F.);
#257=ORIENTED_EDGE('',*,*,#204,.F.);
#258=ORIENTED_EDGE('',*,*,#205,.T.);
#259=ORIENTED_EDGE('',*,*,#204,.T.);
#260=ORIENTED_EDGE('',*,*,#206,.F.);
#261=ORIENTED_EDGE('',*,*,#207,.F.);
#262=ORIENTED_EDGE('',*,*,#208,.T.);
#263=ORIENTED_EDGE('',*,*,#207,.T.);
#264=ORIENTED_EDGE('',*,*,#209,.F.);
#265=ORIENTED_EDGE('',*,*,#193,.F.);
#266=ORIENTED_EDGE('',*,*,#209,.T.);
#267=ORIENTED_EDGE('',*,*,#206,.T.);
#268=ORIENTED_EDGE('',*,*,#203,.T.);
#269=ORIENTED_EDGE('',*,*,#200,.T.);
#270=ORIENTED_EDGE('',*,*,#197,.T.);
#271=ORIENTED_EDGE('',*,*,#194,.T.);
#272=ORIENTED_EDGE('',*,*,#170,.T.);
#273=ORIENTED_EDGE('',*,*,#179,.T.);
#274=ORIENTED_EDGE('',*,*,#176,.T.);
#275=ORIENTED_EDGE('',*,*,#173,.T.);
#276=ORIENTED_EDGE('',*,*,#182,.T.);
#277=ORIENTED_EDGE('',*,*,#186,.T.);
#278=ORIENTED_EDGE('',*,*,#189,.T.);
#279=ORIENTED_EDGE('',*,*,#191,.T.);
#280=ORIENTED_EDGE('',*,*,#208,.F.);
#281=ORIENTED_EDGE('',*,*,#192,.F.);
#282=ORIENTED_EDGE('',*,*,#196,.F.);
#283=ORIENTED_EDGE('',*,*,#199,.F.);
#284=ORIENTED_EDGE('',*,*,#202,.F.);
#285=ORIENTED_EDGE('',*,*,#205,.F.);
#286=ORIENTED_EDGE('',*,*,#168,.T.);
#287=ORIENTED_EDGE('',*,*,#172,.T.);
#288=ORIENTED_EDGE('',*,*,#175,.T.);
#289=ORIENTED_EDGE('',*,*,#178,.T.);
#290=ORIENTED_EDGE('',*,*,#180,.T.);
#291=ORIENTED_EDGE('',*,*,#190,.T.);
#292=ORIENTED_EDGE('',*,*,#187,.T.);
#293=ORIENTED_EDGE('',*,*,#184,.T.);
#294=CYLINDRICAL_SURFACE('',#335,1.3);
#295=CYLINDRICAL_SURFACE('',#339,1.3);
#296=CYLINDRICAL_SURFACE('',#343,1.3);
#297=CYLINDRICAL_SURFACE('',#347,1.3);
#298=CYLINDRICAL_SURFACE('',#356,14.);
#299=ADVANCED_FACE('',(#30),#294,.F.);
#300=ADVANCED_FACE('',(#31),#19,.F.);
#301=ADVANCED_FACE('',(#32),#295,.F.);
#302=ADVANCED_FACE('',(#33),#20,.F.);
#303=ADVANCED_FACE('',(#34),#296,.F.);
#304=ADVANCED_FACE('',(#35),#21,.F.);
#305=ADVANCED_FACE('',(#36),#297,.F.);
#306=ADVANCED_FACE('',(#37),#22,.F.);
#307=ADVANCED_FACE('',(#38),#23,.T.);
#308=ADVANCED_FACE('',(#39),#24,.T.);
#309=ADVANCED_FACE('',(#40),#25,.T.);
#310=ADVANCED_FACE('',(#41),#26,.T.);
#311=ADVANCED_FACE('',(#42),#27,.T.);
#312=ADVANCED_FACE('',(#43),#298,.F.);
#313=ADVANCED_FACE('',(#44,#15,#16),#28,.T.);
#314=ADVANCED_FACE('',(#45,#17,#18),#29,.F.);
#315=CLOSED_SHELL('',(#299,#300,#301,#302,#303,#304,#305,#306,#307,#308,
#309,#310,#311,#312,#313,#314));
#316=DERIVED_UNIT_ELEMENT(#318,1.);
#317=DERIVED_UNIT_ELEMENT(#539,3.);
#318=(
MASS_UNIT()
NAMED_UNIT(*)
SI_UNIT($,.GRAM.)
);
#319=DERIVED_UNIT((#316,#317));
#320=MEASURE_REPRESENTATION_ITEM('density measure',
POSITIVE_RATIO_MEASURE(2.7),#319);
#321=PROPERTY_DEFINITION_REPRESENTATION(#326,#323);
#322=PROPERTY_DEFINITION_REPRESENTATION(#327,#324);
#323=REPRESENTATION('material name',(#325),#536);
#324=REPRESENTATION('density',(#320),#536);
#325=DESCRIPTIVE_REPRESENTATION_ITEM('Aluminium 6061','Aluminium 6061');
#326=PROPERTY_DEFINITION('material property','material name',#546);
#327=PROPERTY_DEFINITION('material property','density of part',#546);
#328=DATE_TIME_ROLE('creation_date');
#329=APPLIED_DATE_AND_TIME_ASSIGNMENT(#330,#328,(#546));
#330=DATE_AND_TIME(#331,#332);
#331=CALENDAR_DATE(2019,16,10);
#332=LOCAL_TIME(22,0,0.,#333);
#333=COORDINATED_UNIVERSAL_TIME_OFFSET(0,0,.BEHIND.);
#334=AXIS2_PLACEMENT_3D('placement',#447,#361,#362);
#335=AXIS2_PLACEMENT_3D('',#448,#363,#364);
#336=AXIS2_PLACEMENT_3D('',#451,#365,#366);
#337=AXIS2_PLACEMENT_3D('',#455,#368,#369);
#338=AXIS2_PLACEMENT_3D('',#457,#371,#372);
#339=AXIS2_PLACEMENT_3D('',#463,#376,#377);
#340=AXIS2_PLACEMENT_3D('',#465,#378,#379);
#341=AXIS2_PLACEMENT_3D('',#467,#380,#381);
#342=AXIS2_PLACEMENT_3D('',#469,#383,#384);
#343=AXIS2_PLACEMENT_3D('',#472,#387,#388);
#344=AXIS2_PLACEMENT_3D('',#475,#389,#390);
#345=AXIS2_PLACEMENT_3D('',#479,#392,#393);
#346=AXIS2_PLACEMENT_3D('',#481,#395,#396);
#347=AXIS2_PLACEMENT_3D('',#487,#400,#401);
#348=AXIS2_PLACEMENT_3D('',#489,#402,#403);
#349=AXIS2_PLACEMENT_3D('',#492,#405,#406);
#350=AXIS2_PLACEMENT_3D('',#493,#407,#408);
#351=AXIS2_PLACEMENT_3D('',#496,#411,#412);
#352=AXIS2_PLACEMENT_3D('',#505,#417,#418);
#353=AXIS2_PLACEMENT_3D('',#511,#422,#423);
#354=AXIS2_PLACEMENT_3D('',#517,#427,#428);
#355=AXIS2_PLACEMENT_3D('',#523,#432,#433);
#356=AXIS2_PLACEMENT_3D('',#529,#437,#438);
#357=AXIS2_PLACEMENT_3D('',#530,#439,#440);
#358=AXIS2_PLACEMENT_3D('',#531,#441,#442);
#359=AXIS2_PLACEMENT_3D('',#532,#443,#444);
#360=AXIS2_PLACEMENT_3D('',#533,#445,#446);
#361=DIRECTION('axis',(0.,0.,1.));
#362=DIRECTION('refdir',(1.,0.,0.));
#363=DIRECTION('center_axis',(-1.,0.,0.));
#364=DIRECTION('ref_axis',(0.,2.1350442781253E-16,-1.));
#365=DIRECTION('center_axis',(1.,0.,0.));
#366=DIRECTION('ref_axis',(0.,2.1350442781253E-16,-1.));
#367=DIRECTION('',(-1.,0.,0.));
#368=DIRECTION('center_axis',(-1.,0.,0.));
#369=DIRECTION('ref_axis',(0.,2.1350442781253E-16,-1.));
#370=DIRECTION('',(-1.,0.,0.));
#371=DIRECTION('center_axis',(0.,0.,1.));
#372=DIRECTION('ref_axis',(0.,1.,0.));
#373=DIRECTION('',(0.,-1.,0.));
#374=DIRECTION('',(0.,1.,0.));
#375=DIRECTION('',(-1.,0.,0.));
#376=DIRECTION('center_axis',(-1.,0.,0.));
#377=DIRECTION('ref_axis',(0.,0.,1.));
#378=DIRECTION('center_axis',(1.,0.,0.));
#379=DIRECTION('ref_axis',(0.,0.,1.));
#380=DIRECTION('center_axis',(-1.,0.,0.));
#381=DIRECTION('ref_axis',(0.,0.,1.));
#382=DIRECTION('',(-1.,0.,0.));
#383=DIRECTION('center_axis',(0.,-6.34413156928661E-16,-1.));
#384=DIRECTION('ref_axis',(0.,-1.,6.34413156928661E-16));
#385=DIRECTION('',(0.,1.,-6.34413156928661E-16));
#386=DIRECTION('',(0.,-1.,6.34413156928661E-16));
#387=DIRECTION('center_axis',(-1.,0.,0.));
#388=DIRECTION('ref_axis',(0.,2.1350442781253E-16,-1.));
#389=DIRECTION('center_axis',(1.,0.,0.));
#390=DIRECTION('ref_axis',(0.,2.1350442781253E-16,-1.));
#391=DIRECTION('',(-1.,0.,0.));
#392=DIRECTION('center_axis',(-1.,0.,0.));
#393=DIRECTION('ref_axis',(0.,2.1350442781253E-16,-1.));
#394=DIRECTION('',(-1.,0.,0.));
#395=DIRECTION('center_axis',(0.,-3.1720657846433E-16,-1.));
#396=DIRECTION('ref_axis',(0.,-1.,3.1720657846433E-16));
#397=DIRECTION('',(0.,1.,-3.1720657846433E-16));
#398=DIRECTION('',(-1.,0.,0.));
#399=DIRECTION('',(0.,-1.,3.1720657846433E-16));
#400=DIRECTION('center_axis',(-1.,0.,0.));
#401=DIRECTION('ref_axis',(0.,0.,1.));
#402=DIRECTION('center_axis',(1.,0.,0.));
#403=DIRECTION('ref_axis',(0.,0.,1.));
#404=DIRECTION('',(-1.,0.,0.));
#405=DIRECTION('center_axis',(-1.,0.,0.));
#406=DIRECTION('ref_axis',(0.,0.,1.));
#407=DIRECTION('center_axis',(0.,2.37904933848248E-16,1.));
#408=DIRECTION('ref_axis',(0.,1.,-2.37904933848248E-16));
#409=DIRECTION('',(0.,-1.,2.37904933848248E-16));
#410=DIRECTION('',(0.,1.,-2.37904933848248E-16));
#411=DIRECTION('center_axis',(0.,-1.,0.));
#412=DIRECTION('ref_axis',(0.,0.,-1.));
#413=DIRECTION('',(0.,0.,-1.));
#414=DIRECTION('',(1.,0.,0.));
#415=DIRECTION('',(0.,0.,-1.));
#416=DIRECTION('',(1.,0.,0.));
#417=DIRECTION('center_axis',(0.,0.,1.));
#418=DIRECTION('ref_axis',(0.,-1.,0.));
#419=DIRECTION('',(0.,-1.,0.));
#420=DIRECTION('',(0.,-1.,0.));
#421=DIRECTION('',(1.,0.,0.));
#422=DIRECTION('center_axis',(0.,1.,0.));
#423=DIRECTION('ref_axis',(0.,0.,1.));
#424=DIRECTION('',(0.,0.,1.));
#425=DIRECTION('',(0.,0.,1.));
#426=DIRECTION('',(1.,0.,0.));
#427=DIRECTION('center_axis',(0.,0.,-1.));
#428=DIRECTION('ref_axis',(0.,1.,0.));
#429=DIRECTION('',(0.,1.,0.));
#430=DIRECTION('',(0.,1.,0.));
#431=DIRECTION('',(1.,0.,0.));
#432=DIRECTION('center_axis',(0.,-1.,0.));
#433=DIRECTION('ref_axis',(0.,0.,-1.));
#434=DIRECTION('',(0.,0.,-1.));
#435=DIRECTION('',(0.,0.,-1.));
#436=DIRECTION('',(1.,0.,0.));
#437=DIRECTION('center_axis',(1.,0.,0.));
#438=DIRECTION('ref_axis',(0.,-0.714285714285714,0.699854212223765));
#439=DIRECTION('center_axis',(-1.,0.,0.));
#440=DIRECTION('ref_axis',(0.,-0.714285714285714,0.699854212223765));
#441=DIRECTION('center_axis',(-1.,0.,0.));
#442=DIRECTION('ref_axis',(0.,-0.714285714285714,0.699854212223765));
#443=DIRECTION('center_axis',(1.,0.,0.));
#444=DIRECTION('ref_axis',(0.,0.,-1.));
#445=DIRECTION('center_axis',(1.,0.,0.));
#446=DIRECTION('ref_axis',(0.,0.,-1.));
#447=CARTESIAN_POINT('',(0.,0.,0.));
#448=CARTESIAN_POINT('Origin',(2.,-2.5,-27.));
#449=CARTESIAN_POINT('',(0.,-2.5,-28.3));
#450=CARTESIAN_POINT('',(0.,-2.5,-25.7));
#451=CARTESIAN_POINT('Origin',(0.,-2.5,-27.));
#452=CARTESIAN_POINT('',(2.,-2.5,-28.3));
#453=CARTESIAN_POINT('',(2.,-2.5,-28.3));
#454=CARTESIAN_POINT('',(2.,-2.5,-25.7));
#455=CARTESIAN_POINT('Origin',(2.,-2.5,-27.));
#456=CARTESIAN_POINT('',(2.,-2.5,-25.7));
#457=CARTESIAN_POINT('Origin',(2.,-9.5,-25.7));
#458=CARTESIAN_POINT('',(0.,-9.5,-25.7));
#459=CARTESIAN_POINT('',(0.,-7.97653567693965,-25.7));
#460=CARTESIAN_POINT('',(2.,-9.5,-25.7));
#461=CARTESIAN_POINT('',(2.,-7.97653567693965,-25.7));
#462=CARTESIAN_POINT('',(2.,-9.5,-25.7));
#463=CARTESIAN_POINT('Origin',(2.,-9.5,-27.));
#464=CARTESIAN_POINT('',(0.,-9.5,-28.3));
#465=CARTESIAN_POINT('Origin',(0.,-9.5,-27.));
#466=CARTESIAN_POINT('',(2.,-9.5,-28.3));
#467=CARTESIAN_POINT('Origin',(2.,-9.5,-27.));
#468=CARTESIAN_POINT('',(2.,-9.5,-28.3));
#469=CARTESIAN_POINT('Origin',(2.,-2.5,-28.3));
#470=CARTESIAN_POINT('',(0.,-4.47653567693965,-28.3));
#471=CARTESIAN_POINT('',(2.,-4.47653567693965,-28.3));
#472=CARTESIAN_POINT('Origin',(2.,-2.5,-3.));
#473=CARTESIAN_POINT('',(0.,-2.5,-4.3));
#474=CARTESIAN_POINT('',(0.,-2.5,-1.7));
#475=CARTESIAN_POINT('Origin',(0.,-2.5,-3.));
#476=CARTESIAN_POINT('',(2.,-2.5,-4.3));
#477=CARTESIAN_POINT('',(2.,-2.5,-4.3));
#478=CARTESIAN_POINT('',(2.,-2.5,-1.7));
#479=CARTESIAN_POINT('Origin',(2.,-2.5,-3.));
#480=CARTESIAN_POINT('',(2.,-2.5,-1.7));
#481=CARTESIAN_POINT('Origin',(2.,-2.5,-4.3));
#482=CARTESIAN_POINT('',(0.,-9.5,-4.3));
#483=CARTESIAN_POINT('',(0.,-4.47653567693964,-4.3));
#484=CARTESIAN_POINT('',(2.,-9.5,-4.3));
#485=CARTESIAN_POINT('',(2.,-9.5,-4.3));
#486=CARTESIAN_POINT('',(2.,-4.47653567693964,-4.3));
#487=CARTESIAN_POINT('Origin',(2.,-9.5,-3.));
#488=CARTESIAN_POINT('',(0.,-9.5,-1.7));
#489=CARTESIAN_POINT('Origin',(0.,-9.5,-3.));
#490=CARTESIAN_POINT('',(2.,-9.5,-1.7));
#491=CARTESIAN_POINT('',(2.,-9.5,-1.7));
#492=CARTESIAN_POINT('Origin',(2.,-9.5,-3.));
#493=CARTESIAN_POINT('Origin',(2.,-9.5,-1.7));
#494=CARTESIAN_POINT('',(0.,-7.97653567693965,-1.7));
#495=CARTESIAN_POINT('',(2.,-7.97653567693965,-1.7));
#496=CARTESIAN_POINT('Origin',(0.,-12.9061427077586,0.));
#497=CARTESIAN_POINT('',(0.,-12.9061427077586,0.));
#498=CARTESIAN_POINT('',(0.,-12.9061427077586,-5.20204102886728));
#499=CARTESIAN_POINT('',(0.,-12.9061427077586,0.));
#500=CARTESIAN_POINT('',(2.,-12.9061427077586,-5.20204102886728));
#501=CARTESIAN_POINT('',(0.,-12.9061427077586,-5.20204102886728));
#502=CARTESIAN_POINT('',(2.,-12.9061427077586,0.));
#503=CARTESIAN_POINT('',(2.,-12.9061427077586,0.));
#504=CARTESIAN_POINT('',(0.,-12.9061427077586,0.));
#505=CARTESIAN_POINT('Origin',(0.,0.,0.));
#506=CARTESIAN_POINT('',(0.,0.,0.));
#507=CARTESIAN_POINT('',(0.,0.,0.));
#508=CARTESIAN_POINT('',(2.,0.,0.));
#509=CARTESIAN_POINT('',(2.,0.,0.));
#510=CARTESIAN_POINT('',(0.,0.,0.));
#511=CARTESIAN_POINT('Origin',(0.,0.,-30.));
#512=CARTESIAN_POINT('',(0.,0.,-30.));
#513=CARTESIAN_POINT('',(0.,0.,-30.));
#514=CARTESIAN_POINT('',(2.,0.,-30.));
#515=CARTESIAN_POINT('',(2.,0.,-30.));
#516=CARTESIAN_POINT('',(0.,0.,-30.));
#517=CARTESIAN_POINT('Origin',(0.,-12.9061427077586,-30.));
#518=CARTESIAN_POINT('',(0.,-12.9061427077586,-30.));
#519=CARTESIAN_POINT('',(0.,-12.9061427077586,-30.));
#520=CARTESIAN_POINT('',(2.,-12.9061427077586,-30.));
#521=CARTESIAN_POINT('',(2.,-12.9061427077586,-30.));
#522=CARTESIAN_POINT('',(0.,-12.9061427077586,-30.));
#523=CARTESIAN_POINT('Origin',(0.,-12.9061427077586,-24.7979589711327));
#524=CARTESIAN_POINT('',(0.,-12.9061427077586,-24.7979589711327));
#525=CARTESIAN_POINT('',(0.,-12.9061427077586,-24.7979589711327));
#526=CARTESIAN_POINT('',(2.,-12.9061427077586,-24.7979589711327));
#527=CARTESIAN_POINT('',(2.,-12.9061427077586,-24.7979589711327));
#528=CARTESIAN_POINT('',(0.,-12.9061427077586,-24.7979589711327));
#529=CARTESIAN_POINT('Origin',(0.,-22.9061427077586,-15.));
#530=CARTESIAN_POINT('Origin',(0.,-22.9061427077586,-15.));
#531=CARTESIAN_POINT('Origin',(2.,-22.9061427077586,-15.));
#532=CARTESIAN_POINT('Origin',(2.,-6.45307135387929,-15.));
#533=CARTESIAN_POINT('Origin',(0.,-6.45307135387929,-15.));
#534=UNCERTAINTY_MEASURE_WITH_UNIT(LENGTH_MEASURE(0.01),#538,
'DISTANCE_ACCURACY_VALUE',
'Maximum model space distance between geometric entities at asserted c
onnectivities');
#535=UNCERTAINTY_MEASURE_WITH_UNIT(LENGTH_MEASURE(0.01),#538,
'DISTANCE_ACCURACY_VALUE',
'Maximum model space distance between geometric entities at asserted c
onnectivities');
#536=(
GEOMETRIC_REPRESENTATION_CONTEXT(3)
GLOBAL_UNCERTAINTY_ASSIGNED_CONTEXT((#534))
GLOBAL_UNIT_ASSIGNED_CONTEXT((#538,#540,#541))
REPRESENTATION_CONTEXT('','3D')
);
#537=(
GEOMETRIC_REPRESENTATION_CONTEXT(3)
GLOBAL_UNCERTAINTY_ASSIGNED_CONTEXT((#535))
GLOBAL_UNIT_ASSIGNED_CONTEXT((#538,#540,#541))
REPRESENTATION_CONTEXT('','3D')
);
#538=(
LENGTH_UNIT()
NAMED_UNIT(*)
SI_UNIT(.MILLI.,.METRE.)
);
#539=(
LENGTH_UNIT()
NAMED_UNIT(*)
SI_UNIT(.CENTI.,.METRE.)
);
#540=(
NAMED_UNIT(*)
PLANE_ANGLE_UNIT()
SI_UNIT($,.RADIAN.)
);
#541=(
NAMED_UNIT(*)
SI_UNIT($,.STERADIAN.)
SOLID_ANGLE_UNIT()
);
#542=SHAPE_DEFINITION_REPRESENTATION(#543,#544);
#543=PRODUCT_DEFINITION_SHAPE('',$,#546);
#544=SHAPE_REPRESENTATION('',(#334),#536);
#545=PRODUCT_DEFINITION_CONTEXT('part definition',#550,'design');
#546=PRODUCT_DEFINITION('GSE-4003-003-001',
'GSE-4003-003-001-A - Isolation ceramic support',#547,#545);
#547=PRODUCT_DEFINITION_FORMATION('',$,#552);
#548=PRODUCT_RELATED_PRODUCT_CATEGORY(
'GSE-4003-003-001-A - Isolation ceramic support',
'GSE-4003-003-001-A - Isolation ceramic support',(#552));
#549=APPLICATION_PROTOCOL_DEFINITION('international standard',
'automotive_design',2009,#550);
#550=APPLICATION_CONTEXT(
'Core Data for Automotive Mechanical Design Process');
#551=PRODUCT_CONTEXT('part definition',#550,'mechanical');
#552=PRODUCT('GSE-4003-003-001',
'GSE-4003-003-001-A - Isolation ceramic support',$,(#551));
#553=PRESENTATION_STYLE_ASSIGNMENT((#554));
#554=SURFACE_STYLE_USAGE(.BOTH.,#557);
#555=SURFACE_STYLE_RENDERING_WITH_PROPERTIES($,#561,(#556));
#556=SURFACE_STYLE_TRANSPARENT(0.);
#557=SURFACE_SIDE_STYLE('',(#558,#555));
#558=SURFACE_STYLE_FILL_AREA(#559);
#559=FILL_AREA_STYLE('',(#560));
#560=FILL_AREA_STYLE_COLOUR('',#561);
#561=COLOUR_RGB('',0.996078431372549,0.996078431372549,1.);
ENDSEC;
END-ISO-10303-21;
