ISO-10303-21;
HEADER;
/* Generated by software containing ST-Developer
 * from STEP Tools, Inc. (www.steptools.com) 
 */

FILE_DESCRIPTION(
/* description */ (''),
/* implementation_level */ '2;1');

FILE_NAME(
/* name */ 
'G:\\DTE - Propulsion\\05. ExoMG design\\06. Models\\01. CAD\\Exotrail
 Inventor Database\\Nomenclature\\GSE\\GSE-4003-000-000 - Cathode vibr
ation interface\\GSE-4003-002-001-A - Square.stp',
/* time_stamp */ '2019-10-17T16:22:39+02:00',
/* author */ ('manon.carpentier'),
/* organization */ (''),
/* preprocessor_version */ 'ST-DEVELOPER v18',
/* originating_system */ 'Autodesk Inventor 2020',
/* authorisation */ '');

FILE_SCHEMA (('AUTOMOTIVE_DESIGN { 1 0 10303 214 3 1 1 }'));
ENDSEC;

DATA;
#10=MECHANICAL_DESIGN_GEOMETRIC_PRESENTATION_REPRESENTATION('',(#13),#429);
#11=SHAPE_REPRESENTATION_RELATIONSHIP('SRR','None',#436,#12);
#12=ADVANCED_BREP_SHAPE_REPRESENTATION('',(#14),#428);
#13=STYLED_ITEM('',(#445),#14);
#14=MANIFOLD_SOLID_BREP('Solide1',#243);
#15=FACE_BOUND('',#50,.T.);
#16=FACE_BOUND('',#53,.T.);
#17=FACE_BOUND('',#55,.T.);
#18=FACE_BOUND('',#56,.T.);
#19=PLANE('',#280);
#20=PLANE('',#281);
#21=PLANE('',#282);
#22=PLANE('',#283);
#23=PLANE('',#284);
#24=PLANE('',#285);
#25=PLANE('',#286);
#26=ELLIPSE('',#272,1.18181197818229,1.0065);
#27=ELLIPSE('',#273,1.18181197818229,1.0065);
#28=CYLINDRICAL_SURFACE('',#266,1.2295);
#29=CYLINDRICAL_SURFACE('',#269,1.0065);
#30=CYLINDRICAL_SURFACE('',#277,1.0065);
#31=FACE_OUTER_BOUND('',#43,.T.);
#32=FACE_OUTER_BOUND('',#44,.T.);
#33=FACE_OUTER_BOUND('',#45,.T.);
#34=FACE_OUTER_BOUND('',#46,.T.);
#35=FACE_OUTER_BOUND('',#47,.T.);
#36=FACE_OUTER_BOUND('',#48,.T.);
#37=FACE_OUTER_BOUND('',#49,.T.);
#38=FACE_OUTER_BOUND('',#51,.T.);
#39=FACE_OUTER_BOUND('',#52,.T.);
#40=FACE_OUTER_BOUND('',#54,.T.);
#41=FACE_OUTER_BOUND('',#57,.T.);
#42=FACE_OUTER_BOUND('',#58,.T.);
#43=EDGE_LOOP('',(#165,#166,#167,#168));
#44=EDGE_LOOP('',(#169,#170,#171,#172,#173,#174));
#45=EDGE_LOOP('',(#175,#176,#177,#178,#179,#180));
#46=EDGE_LOOP('',(#181,#182,#183,#184));
#47=EDGE_LOOP('',(#185,#186,#187,#188,#189,#190));
#48=EDGE_LOOP('',(#191,#192,#193,#194));
#49=EDGE_LOOP('',(#195,#196,#197,#198));
#50=EDGE_LOOP('',(#199,#200));
#51=EDGE_LOOP('',(#201,#202,#203,#204));
#52=EDGE_LOOP('',(#205,#206,#207,#208));
#53=EDGE_LOOP('',(#209,#210));
#54=EDGE_LOOP('',(#211,#212,#213,#214));
#55=EDGE_LOOP('',(#215,#216));
#56=EDGE_LOOP('',(#217,#218));
#57=EDGE_LOOP('',(#219,#220,#221,#222,#223));
#58=EDGE_LOOP('',(#224,#225,#226,#227,#228));
#59=LINE('',#363,#79);
#60=LINE('',#370,#80);
#61=LINE('',#377,#81);
#62=LINE('',#386,#82);
#63=LINE('',#393,#83);
#64=LINE('',#397,#84);
#65=LINE('',#399,#85);
#66=LINE('',#401,#86);
#67=LINE('',#402,#87);
#68=LINE('',#405,#88);
#69=LINE('',#407,#89);
#70=LINE('',#408,#90);
#71=LINE('',#411,#91);
#72=LINE('',#413,#92);
#73=LINE('',#414,#93);
#74=LINE('',#417,#94);
#75=LINE('',#419,#95);
#76=LINE('',#420,#96);
#77=LINE('',#422,#97);
#78=LINE('',#423,#98);
#79=VECTOR('',#293,0.61475);
#80=VECTOR('',#302,1.2295);
#81=VECTOR('',#309,1.0065);
#82=VECTOR('',#318,0.50325);
#83=VECTOR('',#327,1.0065);
#84=VECTOR('',#330,10.);
#85=VECTOR('',#331,10.);
#86=VECTOR('',#332,10.);
#87=VECTOR('',#333,10.);
#88=VECTOR('',#336,10.);
#89=VECTOR('',#337,10.);
#90=VECTOR('',#338,10.);
#91=VECTOR('',#341,10.);
#92=VECTOR('',#342,10.);
#93=VECTOR('',#343,10.);
#94=VECTOR('',#346,10.);
#95=VECTOR('',#347,10.);
#96=VECTOR('',#348,10.);
#97=VECTOR('',#351,10.);
#98=VECTOR('',#352,10.);
#99=CIRCLE('',#264,1.2295);
#100=CIRCLE('',#265,1.2295);
#101=CIRCLE('',#267,1.2295);
#102=CIRCLE('',#268,1.2295);
#103=CIRCLE('',#270,1.0065);
#104=CIRCLE('',#271,1.0065);
#105=CIRCLE('',#275,1.0065);
#106=CIRCLE('',#276,1.0065);
#107=CIRCLE('',#278,1.0065);
#108=CIRCLE('',#279,1.0065);
#109=VERTEX_POINT('',#359);
#110=VERTEX_POINT('',#360);
#111=VERTEX_POINT('',#362);
#112=VERTEX_POINT('',#366);
#113=VERTEX_POINT('',#367);
#114=VERTEX_POINT('',#372);
#115=VERTEX_POINT('',#373);
#116=VERTEX_POINT('',#376);
#117=VERTEX_POINT('',#378);
#118=VERTEX_POINT('',#382);
#119=VERTEX_POINT('',#383);
#120=VERTEX_POINT('',#385);
#121=VERTEX_POINT('',#389);
#122=VERTEX_POINT('',#390);
#123=VERTEX_POINT('',#395);
#124=VERTEX_POINT('',#396);
#125=VERTEX_POINT('',#398);
#126=VERTEX_POINT('',#400);
#127=VERTEX_POINT('',#404);
#128=VERTEX_POINT('',#406);
#129=VERTEX_POINT('',#410);
#130=VERTEX_POINT('',#412);
#131=VERTEX_POINT('',#416);
#132=VERTEX_POINT('',#418);
#133=EDGE_CURVE('',#109,#110,#99,.T.);
#134=EDGE_CURVE('',#110,#111,#59,.T.);
#135=EDGE_CURVE('',#110,#109,#100,.T.);
#136=EDGE_CURVE('',#112,#113,#101,.T.);
#137=EDGE_CURVE('',#113,#112,#102,.T.);
#138=EDGE_CURVE('',#113,#110,#60,.T.);
#139=EDGE_CURVE('',#114,#115,#103,.T.);
#140=EDGE_CURVE('',#115,#114,#104,.T.);
#141=EDGE_CURVE('',#115,#116,#61,.T.);
#142=EDGE_CURVE('',#117,#116,#26,.T.);
#143=EDGE_CURVE('',#116,#117,#27,.T.);
#144=EDGE_CURVE('',#118,#119,#105,.T.);
#145=EDGE_CURVE('',#119,#120,#62,.T.);
#146=EDGE_CURVE('',#119,#118,#106,.T.);
#147=EDGE_CURVE('',#121,#122,#107,.T.);
#148=EDGE_CURVE('',#122,#121,#108,.T.);
#149=EDGE_CURVE('',#122,#119,#63,.T.);
#150=EDGE_CURVE('',#123,#124,#64,.T.);
#151=EDGE_CURVE('',#124,#125,#65,.T.);
#152=EDGE_CURVE('',#126,#125,#66,.T.);
#153=EDGE_CURVE('',#123,#126,#67,.T.);
#154=EDGE_CURVE('',#127,#123,#68,.T.);
#155=EDGE_CURVE('',#128,#126,#69,.T.);
#156=EDGE_CURVE('',#127,#128,#70,.T.);
#157=EDGE_CURVE('',#129,#127,#71,.T.);
#158=EDGE_CURVE('',#130,#128,#72,.T.);
#159=EDGE_CURVE('',#129,#130,#73,.T.);
#160=EDGE_CURVE('',#131,#129,#74,.T.);
#161=EDGE_CURVE('',#132,#130,#75,.T.);
#162=EDGE_CURVE('',#131,#132,#76,.T.);
#163=EDGE_CURVE('',#124,#131,#77,.T.);
#164=EDGE_CURVE('',#125,#132,#78,.T.);
#165=ORIENTED_EDGE('',*,*,#133,.T.);
#166=ORIENTED_EDGE('',*,*,#134,.T.);
#167=ORIENTED_EDGE('',*,*,#134,.F.);
#168=ORIENTED_EDGE('',*,*,#135,.T.);
#169=ORIENTED_EDGE('',*,*,#136,.F.);
#170=ORIENTED_EDGE('',*,*,#137,.F.);
#171=ORIENTED_EDGE('',*,*,#138,.T.);
#172=ORIENTED_EDGE('',*,*,#133,.F.);
#173=ORIENTED_EDGE('',*,*,#135,.F.);
#174=ORIENTED_EDGE('',*,*,#138,.F.);
#175=ORIENTED_EDGE('',*,*,#139,.F.);
#176=ORIENTED_EDGE('',*,*,#140,.F.);
#177=ORIENTED_EDGE('',*,*,#141,.T.);
#178=ORIENTED_EDGE('',*,*,#142,.F.);
#179=ORIENTED_EDGE('',*,*,#143,.F.);
#180=ORIENTED_EDGE('',*,*,#141,.F.);
#181=ORIENTED_EDGE('',*,*,#144,.T.);
#182=ORIENTED_EDGE('',*,*,#145,.T.);
#183=ORIENTED_EDGE('',*,*,#145,.F.);
#184=ORIENTED_EDGE('',*,*,#146,.T.);
#185=ORIENTED_EDGE('',*,*,#147,.F.);
#186=ORIENTED_EDGE('',*,*,#148,.F.);
#187=ORIENTED_EDGE('',*,*,#149,.T.);
#188=ORIENTED_EDGE('',*,*,#144,.F.);
#189=ORIENTED_EDGE('',*,*,#146,.F.);
#190=ORIENTED_EDGE('',*,*,#149,.F.);
#191=ORIENTED_EDGE('',*,*,#150,.T.);
#192=ORIENTED_EDGE('',*,*,#151,.T.);
#193=ORIENTED_EDGE('',*,*,#152,.F.);
#194=ORIENTED_EDGE('',*,*,#153,.F.);
#195=ORIENTED_EDGE('',*,*,#154,.T.);
#196=ORIENTED_EDGE('',*,*,#153,.T.);
#197=ORIENTED_EDGE('',*,*,#155,.F.);
#198=ORIENTED_EDGE('',*,*,#156,.F.);
#199=ORIENTED_EDGE('',*,*,#142,.T.);
#200=ORIENTED_EDGE('',*,*,#143,.T.);
#201=ORIENTED_EDGE('',*,*,#157,.T.);
#202=ORIENTED_EDGE('',*,*,#156,.T.);
#203=ORIENTED_EDGE('',*,*,#158,.F.);
#204=ORIENTED_EDGE('',*,*,#159,.F.);
#205=ORIENTED_EDGE('',*,*,#160,.T.);
#206=ORIENTED_EDGE('',*,*,#159,.T.);
#207=ORIENTED_EDGE('',*,*,#161,.F.);
#208=ORIENTED_EDGE('',*,*,#162,.F.);
#209=ORIENTED_EDGE('',*,*,#136,.T.);
#210=ORIENTED_EDGE('',*,*,#137,.T.);
#211=ORIENTED_EDGE('',*,*,#163,.T.);
#212=ORIENTED_EDGE('',*,*,#162,.T.);
#213=ORIENTED_EDGE('',*,*,#164,.F.);
#214=ORIENTED_EDGE('',*,*,#151,.F.);
#215=ORIENTED_EDGE('',*,*,#139,.T.);
#216=ORIENTED_EDGE('',*,*,#140,.T.);
#217=ORIENTED_EDGE('',*,*,#147,.T.);
#218=ORIENTED_EDGE('',*,*,#148,.T.);
#219=ORIENTED_EDGE('',*,*,#164,.T.);
#220=ORIENTED_EDGE('',*,*,#161,.T.);
#221=ORIENTED_EDGE('',*,*,#158,.T.);
#222=ORIENTED_EDGE('',*,*,#155,.T.);
#223=ORIENTED_EDGE('',*,*,#152,.T.);
#224=ORIENTED_EDGE('',*,*,#163,.F.);
#225=ORIENTED_EDGE('',*,*,#150,.F.);
#226=ORIENTED_EDGE('',*,*,#154,.F.);
#227=ORIENTED_EDGE('',*,*,#157,.F.);
#228=ORIENTED_EDGE('',*,*,#160,.F.);
#229=CONICAL_SURFACE('',#263,0.61475,1.02974425867665);
#230=CONICAL_SURFACE('',#274,0.50325,1.02974425867665);
#231=ADVANCED_FACE('',(#31),#229,.F.);
#232=ADVANCED_FACE('',(#32),#28,.F.);
#233=ADVANCED_FACE('',(#33),#29,.F.);
#234=ADVANCED_FACE('',(#34),#230,.F.);
#235=ADVANCED_FACE('',(#35),#30,.F.);
#236=ADVANCED_FACE('',(#36),#19,.T.);
#237=ADVANCED_FACE('',(#37,#15),#20,.T.);
#238=ADVANCED_FACE('',(#38),#21,.T.);
#239=ADVANCED_FACE('',(#39,#16),#22,.T.);
#240=ADVANCED_FACE('',(#40,#17,#18),#23,.T.);
#241=ADVANCED_FACE('',(#41),#24,.T.);
#242=ADVANCED_FACE('',(#42),#25,.F.);
#243=CLOSED_SHELL('',(#231,#232,#233,#234,#235,#236,#237,#238,#239,#240,
#241,#242));
#244=DERIVED_UNIT_ELEMENT(#246,1.);
#245=DERIVED_UNIT_ELEMENT(#431,3.);
#246=(
MASS_UNIT()
NAMED_UNIT(*)
SI_UNIT($,.GRAM.)
);
#247=DERIVED_UNIT((#244,#245));
#248=MEASURE_REPRESENTATION_ITEM('density measure',
POSITIVE_RATIO_MEASURE(2.7),#247);
#249=PROPERTY_DEFINITION_REPRESENTATION(#254,#251);
#250=PROPERTY_DEFINITION_REPRESENTATION(#255,#252);
#251=REPRESENTATION('material name',(#253),#428);
#252=REPRESENTATION('density',(#248),#428);
#253=DESCRIPTIVE_REPRESENTATION_ITEM('Aluminium 6061','Aluminium 6061');
#254=PROPERTY_DEFINITION('material property','material name',#438);
#255=PROPERTY_DEFINITION('material property','density of part',#438);
#256=DATE_TIME_ROLE('creation_date');
#257=APPLIED_DATE_AND_TIME_ASSIGNMENT(#258,#256,(#438));
#258=DATE_AND_TIME(#259,#260);
#259=CALENDAR_DATE(2019,16,10);
#260=LOCAL_TIME(22,0,0.,#261);
#261=COORDINATED_UNIVERSAL_TIME_OFFSET(0,0,.BEHIND.);
#262=AXIS2_PLACEMENT_3D('placement',#357,#287,#288);
#263=AXIS2_PLACEMENT_3D('',#358,#289,#290);
#264=AXIS2_PLACEMENT_3D('',#361,#291,#292);
#265=AXIS2_PLACEMENT_3D('',#364,#294,#295);
#266=AXIS2_PLACEMENT_3D('',#365,#296,#297);
#267=AXIS2_PLACEMENT_3D('',#368,#298,#299);
#268=AXIS2_PLACEMENT_3D('',#369,#300,#301);
#269=AXIS2_PLACEMENT_3D('',#371,#303,#304);
#270=AXIS2_PLACEMENT_3D('',#374,#305,#306);
#271=AXIS2_PLACEMENT_3D('',#375,#307,#308);
#272=AXIS2_PLACEMENT_3D('',#379,#310,#311);
#273=AXIS2_PLACEMENT_3D('',#380,#312,#313);
#274=AXIS2_PLACEMENT_3D('',#381,#314,#315);
#275=AXIS2_PLACEMENT_3D('',#384,#316,#317);
#276=AXIS2_PLACEMENT_3D('',#387,#319,#320);
#277=AXIS2_PLACEMENT_3D('',#388,#321,#322);
#278=AXIS2_PLACEMENT_3D('',#391,#323,#324);
#279=AXIS2_PLACEMENT_3D('',#392,#325,#326);
#280=AXIS2_PLACEMENT_3D('',#394,#328,#329);
#281=AXIS2_PLACEMENT_3D('',#403,#334,#335);
#282=AXIS2_PLACEMENT_3D('',#409,#339,#340);
#283=AXIS2_PLACEMENT_3D('',#415,#344,#345);
#284=AXIS2_PLACEMENT_3D('',#421,#349,#350);
#285=AXIS2_PLACEMENT_3D('',#424,#353,#354);
#286=AXIS2_PLACEMENT_3D('',#425,#355,#356);
#287=DIRECTION('axis',(0.,0.,1.));
#288=DIRECTION('refdir',(1.,0.,0.));
#289=DIRECTION('center_axis',(0.,-1.,-3.06161699786838E-16));
#290=DIRECTION('ref_axis',(1.,0.,0.));
#291=DIRECTION('center_axis',(0.,-1.,-3.06161699786838E-16));
#292=DIRECTION('ref_axis',(1.,0.,0.));
#293=DIRECTION('',(0.857167300702112,0.515038074910054,2.62657651583265E-16));
#294=DIRECTION('center_axis',(0.,-1.,-3.06161699786838E-16));
#295=DIRECTION('ref_axis',(1.,0.,0.));
#296=DIRECTION('center_axis',(0.,-1.,-3.06161699786838E-16));
#297=DIRECTION('ref_axis',(1.,0.,0.));
#298=DIRECTION('center_axis',(0.,1.,3.06161699786838E-16));
#299=DIRECTION('ref_axis',(1.,0.,0.));
#300=DIRECTION('center_axis',(0.,1.,3.06161699786838E-16));
#301=DIRECTION('ref_axis',(1.,0.,0.));
#302=DIRECTION('',(0.,1.,3.06161699786838E-16));
#303=DIRECTION('center_axis',(0.,-1.22464679914735E-16,1.));
#304=DIRECTION('ref_axis',(1.,0.,0.));
#305=DIRECTION('center_axis',(0.,1.22464679914735E-16,-1.));
#306=DIRECTION('ref_axis',(1.,0.,0.));
#307=DIRECTION('center_axis',(0.,1.22464679914735E-16,-1.));
#308=DIRECTION('ref_axis',(1.,0.,0.));
#309=DIRECTION('',(0.,1.22464679914735E-16,-1.));
#310=DIRECTION('center_axis',(0.,-0.524097425664335,0.851658316704544));
#311=DIRECTION('ref_axis',(0.,0.851658316704544,0.524097425664335));
#312=DIRECTION('center_axis',(0.,-0.524097425664335,0.851658316704544));
#313=DIRECTION('ref_axis',(0.,0.851658316704544,0.524097425664335));
#314=DIRECTION('center_axis',(0.,-1.22464679914735E-16,1.));
#315=DIRECTION('ref_axis',(1.,0.,0.));
#316=DIRECTION('center_axis',(0.,-1.22464679914735E-16,1.));
#317=DIRECTION('ref_axis',(1.,0.,0.));
#318=DIRECTION('',(0.857167300702112,1.68046692101623E-16,-0.515038074910054));
#319=DIRECTION('center_axis',(0.,-1.22464679914735E-16,1.));
#320=DIRECTION('ref_axis',(1.,0.,0.));
#321=DIRECTION('center_axis',(0.,-1.22464679914735E-16,1.));
#322=DIRECTION('ref_axis',(1.,0.,0.));
#323=DIRECTION('center_axis',(0.,1.22464679914735E-16,-1.));
#324=DIRECTION('ref_axis',(1.,0.,0.));
#325=DIRECTION('center_axis',(0.,1.22464679914735E-16,-1.));
#326=DIRECTION('ref_axis',(1.,0.,0.));
#327=DIRECTION('',(0.,1.22464679914735E-16,-1.));
#328=DIRECTION('center_axis',(0.,1.,0.));
#329=DIRECTION('ref_axis',(0.,0.,1.));
#330=DIRECTION('',(0.,0.,1.));
#331=DIRECTION('',(1.,0.,0.));
#332=DIRECTION('',(0.,0.,1.));
#333=DIRECTION('',(1.,0.,0.));
#334=DIRECTION('center_axis',(0.,0.524097425664335,-0.851658316704544));
#335=DIRECTION('ref_axis',(0.,0.851658316704544,0.524097425664335));
#336=DIRECTION('',(0.,0.851658316704544,0.524097425664335));
#337=DIRECTION('',(0.,0.851658316704544,0.524097425664335));
#338=DIRECTION('',(1.,0.,0.));
#339=DIRECTION('center_axis',(0.,0.,-1.));
#340=DIRECTION('ref_axis',(0.,1.,0.));
#341=DIRECTION('',(0.,1.,0.));
#342=DIRECTION('',(0.,1.,0.));
#343=DIRECTION('',(1.,0.,0.));
#344=DIRECTION('center_axis',(0.,-1.,-3.06161699786838E-16));
#345=DIRECTION('ref_axis',(0.,3.06161699786838E-16,-1.));
#346=DIRECTION('',(0.,3.06161699786838E-16,-1.));
#347=DIRECTION('',(0.,3.06161699786838E-16,-1.));
#348=DIRECTION('',(1.,0.,0.));
#349=DIRECTION('center_axis',(0.,-1.22464679914735E-16,1.));
#350=DIRECTION('ref_axis',(0.,-1.,-1.22464679914735E-16));
#351=DIRECTION('',(0.,-1.,-1.22464679914735E-16));
#352=DIRECTION('',(0.,-1.,-1.22464679914735E-16));
#353=DIRECTION('center_axis',(1.,0.,0.));
#354=DIRECTION('ref_axis',(0.,0.,-1.));
#355=DIRECTION('center_axis',(1.,0.,0.));
#356=DIRECTION('ref_axis',(0.,0.,-1.));
#357=CARTESIAN_POINT('',(0.,0.,0.));
#358=CARTESIAN_POINT('Origin',(3.5,9.1693790655472,-14.));
#359=CARTESIAN_POINT('',(4.7295,8.80000000000001,-14.));
#360=CARTESIAN_POINT('',(2.2705,8.8,-14.));
#361=CARTESIAN_POINT('Origin',(3.5,8.80000000000001,-14.));
#362=CARTESIAN_POINT('',(3.5,9.53875813109439,-14.));
#363=CARTESIAN_POINT('',(2.88525,9.1693790655472,-14.));
#364=CARTESIAN_POINT('Origin',(3.5,8.80000000000001,-14.));
#365=CARTESIAN_POINT('Origin',(3.5,4.4,-14.));
#366=CARTESIAN_POINT('',(4.7295,4.28626379701573E-15,-14.));
#367=CARTESIAN_POINT('',(2.2705,4.44089209850063E-15,-14.));
#368=CARTESIAN_POINT('Origin',(3.5,4.44089209850063E-15,-14.));
#369=CARTESIAN_POINT('Origin',(3.5,4.44089209850063E-15,-14.));
#370=CARTESIAN_POINT('',(2.2705,4.4,-14.));
#371=CARTESIAN_POINT('Origin',(3.5,27.25,-3.8));
#372=CARTESIAN_POINT('',(4.5065,27.25,3.33716252767654E-15));
#373=CARTESIAN_POINT('',(2.4935,27.25,3.33066907387547E-15));
#374=CARTESIAN_POINT('Origin',(3.5,27.25,3.33066907387547E-15));
#375=CARTESIAN_POINT('Origin',(3.5,27.25,3.33066907387547E-15));
#376=CARTESIAN_POINT('',(2.4935,27.25,-5.69230769230769));
#377=CARTESIAN_POINT('',(2.4935,27.25,-3.8));
#378=CARTESIAN_POINT('',(3.5,26.2435,-6.3116923076923));
#379=CARTESIAN_POINT('Origin',(3.5,27.25,-5.69230769230769));
#380=CARTESIAN_POINT('Origin',(3.5,27.25,-5.69230769230769));
#381=CARTESIAN_POINT('Origin',(3.5,5.,-7.90238310652562));
#382=CARTESIAN_POINT('',(4.5065,5.,-7.6));
#383=CARTESIAN_POINT('',(2.4935,5.,-7.6));
#384=CARTESIAN_POINT('Origin',(3.5,5.,-7.6));
#385=CARTESIAN_POINT('',(3.5,5.,-8.20476621305124));
#386=CARTESIAN_POINT('',(2.99675,5.,-7.90238310652562));
#387=CARTESIAN_POINT('Origin',(3.5,5.,-7.6));
#388=CARTESIAN_POINT('Origin',(3.5,5.,-3.8));
#389=CARTESIAN_POINT('',(4.5065,5.,6.12323399573677E-16));
#390=CARTESIAN_POINT('',(2.4935,5.,5.55111512312578E-16));
#391=CARTESIAN_POINT('Origin',(3.5,5.,5.55111512312578E-16));
#392=CARTESIAN_POINT('Origin',(3.5,5.,5.55111512312578E-16));
#393=CARTESIAN_POINT('',(2.4935,5.,-3.8));
#394=CARTESIAN_POINT('Origin',(0.,30.,-4.));
#395=CARTESIAN_POINT('',(0.,30.,-4.));
#396=CARTESIAN_POINT('',(0.,30.,3.67394039744206E-15));
#397=CARTESIAN_POINT('',(0.,30.,-4.));
#398=CARTESIAN_POINT('',(7.,30.,3.67394039744206E-15));
#399=CARTESIAN_POINT('',(0.,30.,3.67394039744206E-15));
#400=CARTESIAN_POINT('',(7.,30.,-4.));
#401=CARTESIAN_POINT('',(7.,30.,-4.));
#402=CARTESIAN_POINT('',(0.,30.,-4.));
#403=CARTESIAN_POINT('Origin',(0.,4.00000000000001,-20.));
#404=CARTESIAN_POINT('',(0.,4.00000000000001,-20.));
#405=CARTESIAN_POINT('',(0.,4.00000000000001,-20.));
#406=CARTESIAN_POINT('',(7.,4.00000000000001,-20.));
#407=CARTESIAN_POINT('',(7.,4.00000000000001,-20.));
#408=CARTESIAN_POINT('',(0.,4.00000000000001,-20.));
#409=CARTESIAN_POINT('Origin',(0.,6.12323399573677E-15,-20.));
#410=CARTESIAN_POINT('',(0.,6.12323399573677E-15,-20.));
#411=CARTESIAN_POINT('',(0.,6.10622663543836E-15,-20.));
#412=CARTESIAN_POINT('',(7.,4.44089209850063E-15,-20.));
#413=CARTESIAN_POINT('',(7.,6.10622663543836E-15,-20.));
#414=CARTESIAN_POINT('',(0.,6.12323399573677E-15,-20.));
#415=CARTESIAN_POINT('Origin',(0.,0.,0.));
#416=CARTESIAN_POINT('',(0.,0.,0.));
#417=CARTESIAN_POINT('',(0.,0.,0.));
#418=CARTESIAN_POINT('',(7.,0.,0.));
#419=CARTESIAN_POINT('',(7.,0.,0.));
#420=CARTESIAN_POINT('',(0.,0.,0.));
#421=CARTESIAN_POINT('Origin',(0.,30.,3.67394039744206E-15));
#422=CARTESIAN_POINT('',(0.,30.,3.67394039744206E-15));
#423=CARTESIAN_POINT('',(7.,30.,3.67394039744206E-15));
#424=CARTESIAN_POINT('Origin',(7.,15.,-10.));
#425=CARTESIAN_POINT('Origin',(0.,15.,-10.));
#426=UNCERTAINTY_MEASURE_WITH_UNIT(LENGTH_MEASURE(0.01),#430,
'DISTANCE_ACCURACY_VALUE',
'Maximum model space distance between geometric entities at asserted c
onnectivities');
#427=UNCERTAINTY_MEASURE_WITH_UNIT(LENGTH_MEASURE(0.01),#430,
'DISTANCE_ACCURACY_VALUE',
'Maximum model space distance between geometric entities at asserted c
onnectivities');
#428=(
GEOMETRIC_REPRESENTATION_CONTEXT(3)
GLOBAL_UNCERTAINTY_ASSIGNED_CONTEXT((#426))
GLOBAL_UNIT_ASSIGNED_CONTEXT((#430,#432,#433))
REPRESENTATION_CONTEXT('','3D')
);
#429=(
GEOMETRIC_REPRESENTATION_CONTEXT(3)
GLOBAL_UNCERTAINTY_ASSIGNED_CONTEXT((#427))
GLOBAL_UNIT_ASSIGNED_CONTEXT((#430,#432,#433))
REPRESENTATION_CONTEXT('','3D')
);
#430=(
LENGTH_UNIT()
NAMED_UNIT(*)
SI_UNIT(.MILLI.,.METRE.)
);
#431=(
LENGTH_UNIT()
NAMED_UNIT(*)
SI_UNIT(.CENTI.,.METRE.)
);
#432=(
NAMED_UNIT(*)
PLANE_ANGLE_UNIT()
SI_UNIT($,.RADIAN.)
);
#433=(
NAMED_UNIT(*)
SI_UNIT($,.STERADIAN.)
SOLID_ANGLE_UNIT()
);
#434=SHAPE_DEFINITION_REPRESENTATION(#435,#436);
#435=PRODUCT_DEFINITION_SHAPE('',$,#438);
#436=SHAPE_REPRESENTATION('',(#262),#428);
#437=PRODUCT_DEFINITION_CONTEXT('part definition',#442,'design');
#438=PRODUCT_DEFINITION('GSE-4003-002-001',
'GSE-4003-002-001-A - Square',#439,#437);
#439=PRODUCT_DEFINITION_FORMATION('',$,#444);
#440=PRODUCT_RELATED_PRODUCT_CATEGORY('GSE-4003-002-001-A - Square',
'GSE-4003-002-001-A - Square',(#444));
#441=APPLICATION_PROTOCOL_DEFINITION('international standard',
'automotive_design',2009,#442);
#442=APPLICATION_CONTEXT(
'Core Data for Automotive Mechanical Design Process');
#443=PRODUCT_CONTEXT('part definition',#442,'mechanical');
#444=PRODUCT('GSE-4003-002-001','GSE-4003-002-001-A - Square',$,(#443));
#445=PRESENTATION_STYLE_ASSIGNMENT((#446));
#446=SURFACE_STYLE_USAGE(.BOTH.,#449);
#447=SURFACE_STYLE_RENDERING_WITH_PROPERTIES($,#453,(#448));
#448=SURFACE_STYLE_TRANSPARENT(0.);
#449=SURFACE_SIDE_STYLE('',(#450,#447));
#450=SURFACE_STYLE_FILL_AREA(#451);
#451=FILL_AREA_STYLE('',(#452));
#452=FILL_AREA_STYLE_COLOUR('',#453);
#453=COLOUR_RGB('',0.996078431372549,0.996078431372549,1.);
ENDSEC;
END-ISO-10303-21;
