ISO-10303-21;
HEADER;
FILE_DESCRIPTION(('CATIA V5 STEP Exchange'),'2;1');

FILE_NAME('C:\\Users\\gdutordoir\\Desktop\\EGR\\JOINT EGR DIA12.stp','2019-09-25T10:17:26+00:00',('none'),('none'),'CATIA Version 5-6 Release 2014 SP5','CATIA V5 STEP AP203','none');

FILE_SCHEMA(('CONFIG_CONTROL_DESIGN'));

ENDSEC;
DATA;
#5=PRODUCT('JOINT EGR DIA12','','',(#2)) ;
#1=APPLICATION_CONTEXT('configuration controlled 3D design of mechanical parts and assemblies') ;
#14=PRODUCT_DEFINITION('',' ',#6,#3) ;
#16=SECURITY_CLASSIFICATION(' ',' ',#15) ;
#15=SECURITY_CLASSIFICATION_LEVEL('unclassified') ;
#46=CARTESIAN_POINT(' ',(0.,0.,0.)) ;
#51=CARTESIAN_POINT('Axis2P3D Location',(0.,0.,0.5)) ;
#56=CARTESIAN_POINT('Line Origine',(8.16,18.2596385506,0.5)) ;
#60=CARTESIAN_POINT('Vertex',(8.16,18.2596385506,0.)) ;
#62=CARTESIAN_POINT('Vertex',(8.16,18.2596385506,1.)) ;
#65=CARTESIAN_POINT('Axis2P3D Location',(0.,0.,0.)) ;
#69=CARTESIAN_POINT('Vertex',(-8.16,18.2596385506,0.)) ;
#72=CARTESIAN_POINT('Line Origine',(-8.16,18.2596385506,0.5)) ;
#76=CARTESIAN_POINT('Vertex',(-8.16,18.2596385506,1.)) ;
#79=CARTESIAN_POINT('Axis2P3D Location',(0.,0.,1.)) ;
#91=CARTESIAN_POINT('Axis2P3D Location',(-34.208,6.61911897461,0.)) ;
#96=CARTESIAN_POINT('Line Origine',(-21.184,12.4393787626,0.)) ;
#100=CARTESIAN_POINT('Vertex',(-34.208,6.61911897461,0.)) ;
#103=CARTESIAN_POINT('Line Origine',(-34.208,6.61911897461,0.5)) ;
#107=CARTESIAN_POINT('Vertex',(-34.208,6.61911897461,1.)) ;
#110=CARTESIAN_POINT('Line Origine',(-21.184,12.4393787626,1.)) ;
#122=CARTESIAN_POINT('Axis2P3D Location',(-31.25,-7.1054273576E-015,0.5)) ;
#127=CARTESIAN_POINT('Axis2P3D Location',(-31.25,-7.1054273576E-015,0.)) ;
#131=CARTESIAN_POINT('Vertex',(-34.208,-6.61911897461,0.)) ;
#134=CARTESIAN_POINT('Line Origine',(-34.208,-6.61911897461,0.5)) ;
#138=CARTESIAN_POINT('Vertex',(-34.208,-6.61911897461,1.)) ;
#141=CARTESIAN_POINT('Axis2P3D Location',(-31.25,-7.1054273576E-015,1.)) ;
#153=CARTESIAN_POINT('Axis2P3D Location',(-34.208,-6.61911897461,0.)) ;
#158=CARTESIAN_POINT('Line Origine',(-21.184,-12.4393787626,0.)) ;
#162=CARTESIAN_POINT('Vertex',(-8.16,-18.2596385506,0.)) ;
#165=CARTESIAN_POINT('Line Origine',(-8.16,-18.2596385506,0.5)) ;
#169=CARTESIAN_POINT('Vertex',(-8.16,-18.2596385506,1.)) ;
#172=CARTESIAN_POINT('Line Origine',(-21.184,-12.4393787626,1.)) ;
#184=CARTESIAN_POINT('Axis2P3D Location',(0.,0.,0.5)) ;
#189=CARTESIAN_POINT('Axis2P3D Location',(0.,0.,0.)) ;
#193=CARTESIAN_POINT('Vertex',(8.16,-18.2596385506,0.)) ;
#196=CARTESIAN_POINT('Line Origine',(8.16,-18.2596385506,0.5)) ;
#200=CARTESIAN_POINT('Vertex',(8.16,-18.2596385506,1.)) ;
#203=CARTESIAN_POINT('Axis2P3D Location',(0.,0.,1.)) ;
#215=CARTESIAN_POINT('Axis2P3D Location',(34.208,-6.61911897461,0.)) ;
#220=CARTESIAN_POINT('Line Origine',(21.184,-12.4393787626,0.)) ;
#224=CARTESIAN_POINT('Vertex',(34.208,-6.61911897461,0.)) ;
#227=CARTESIAN_POINT('Line Origine',(34.208,-6.61911897461,0.5)) ;
#231=CARTESIAN_POINT('Vertex',(34.208,-6.61911897461,1.)) ;
#234=CARTESIAN_POINT('Line Origine',(21.184,-12.4393787626,1.)) ;
#246=CARTESIAN_POINT('Axis2P3D Location',(31.25,-4.34027813689E-015,0.5)) ;
#251=CARTESIAN_POINT('Axis2P3D Location',(31.25,-4.34027813689E-015,0.)) ;
#255=CARTESIAN_POINT('Vertex',(34.208,6.61911897461,0.)) ;
#258=CARTESIAN_POINT('Line Origine',(34.208,6.61911897461,0.5)) ;
#262=CARTESIAN_POINT('Vertex',(34.208,6.61911897461,1.)) ;
#265=CARTESIAN_POINT('Axis2P3D Location',(31.25,-4.34027813689E-015,1.)) ;
#277=CARTESIAN_POINT('Axis2P3D Location',(34.208,6.61911897461,0.)) ;
#282=CARTESIAN_POINT('Line Origine',(21.184,12.4393787626,0.)) ;
#287=CARTESIAN_POINT('Line Origine',(21.184,12.4393787626,1.)) ;
#299=CARTESIAN_POINT('Axis2P3D Location',(0.,0.,0.5)) ;
#304=CARTESIAN_POINT('Axis2P3D Location',(0.,0.,1.)) ;
#308=CARTESIAN_POINT('Vertex',(-6.,7.34788079488E-016,1.)) ;
#310=CARTESIAN_POINT('Vertex',(6.,0.,1.)) ;
#313=CARTESIAN_POINT('Line Origine',(6.,-1.46957615898E-015,0.5)) ;
#317=CARTESIAN_POINT('Vertex',(6.,0.,0.)) ;
#320=CARTESIAN_POINT('Axis2P3D Location',(0.,0.,0.)) ;
#324=CARTESIAN_POINT('Vertex',(-6.,7.34788079488E-016,0.)) ;
#327=CARTESIAN_POINT('Line Origine',(-6.,7.34788079488E-016,0.5)) ;
#339=CARTESIAN_POINT('Axis2P3D Location',(0.,0.,1.)) ;
#344=CARTESIAN_POINT('Axis2P3D Location',(0.,0.,0.)) ;
#356=CARTESIAN_POINT('Axis2P3D Location',(-31.25,-7.1054273576E-015,0.5)) ;
#361=CARTESIAN_POINT('Axis2P3D Location',(-31.25,-7.1054273576E-015,1.)) ;
#365=CARTESIAN_POINT('Vertex',(-35.,-4.98085027098E-015,1.)) ;
#367=CARTESIAN_POINT('Vertex',(-27.5,-7.1054273576E-015,1.)) ;
#370=CARTESIAN_POINT('Line Origine',(-27.5,-1.13545815308E-014,0.5)) ;
#374=CARTESIAN_POINT('Vertex',(-27.5,-7.1054273576E-015,0.)) ;
#377=CARTESIAN_POINT('Axis2P3D Location',(-31.25,-7.1054273576E-015,0.)) ;
#381=CARTESIAN_POINT('Vertex',(-35.,-4.98085027098E-015,0.)) ;
#384=CARTESIAN_POINT('Line Origine',(-35.,-4.98085027098E-015,0.5)) ;
#396=CARTESIAN_POINT('Axis2P3D Location',(-31.25,-7.1054273576E-015,1.)) ;
#401=CARTESIAN_POINT('Axis2P3D Location',(-31.25,-7.1054273576E-015,0.)) ;
#413=CARTESIAN_POINT('Axis2P3D Location',(31.25,0.,0.5)) ;
#418=CARTESIAN_POINT('Axis2P3D Location',(31.25,0.,1.)) ;
#422=CARTESIAN_POINT('Vertex',(27.5,2.12457708662E-015,1.)) ;
#424=CARTESIAN_POINT('Vertex',(35.,0.,1.)) ;
#427=CARTESIAN_POINT('Line Origine',(35.,-4.24915417324E-015,0.5)) ;
#431=CARTESIAN_POINT('Vertex',(35.,0.,0.)) ;
#434=CARTESIAN_POINT('Axis2P3D Location',(31.25,0.,0.)) ;
#438=CARTESIAN_POINT('Vertex',(27.5,2.12457708662E-015,0.)) ;
#441=CARTESIAN_POINT('Line Origine',(27.5,2.12457708662E-015,0.5)) ;
#453=CARTESIAN_POINT('Axis2P3D Location',(31.25,0.,1.)) ;
#458=CARTESIAN_POINT('Axis2P3D Location',(31.25,0.,0.)) ;
#470=CARTESIAN_POINT('Axis2P3D Location',(0.,0.,0.)) ;
#498=CARTESIAN_POINT('Axis2P3D Location',(0.,0.,1.)) ;
#529=CARTESIAN_POINT('Axis2P3D Location',(0.,0.,0.)) ;
#52=DIRECTION('Axis2P3D Direction',(0.,0.,1.)) ;
#53=DIRECTION('Axis2P3D XDirection',(0.408,0.912981927532,0.)) ;
#57=DIRECTION('Vector Direction',(0.,0.,1.)) ;
#66=DIRECTION('Axis2P3D Direction',(0.,0.,1.)) ;
#73=DIRECTION('Vector Direction',(0.,0.,1.)) ;
#80=DIRECTION('Axis2P3D Direction',(0.,0.,1.)) ;
#92=DIRECTION('Axis2P3D Direction',(0.408,-0.912981927532,0.)) ;
#93=DIRECTION('Axis2P3D XDirection',(0.912981927532,0.408,0.)) ;
#97=DIRECTION('Vector Direction',(0.912981927532,0.408,0.)) ;
#104=DIRECTION('Vector Direction',(0.,0.,1.)) ;
#111=DIRECTION('Vector Direction',(0.912981927532,0.408,0.)) ;
#123=DIRECTION('Axis2P3D Direction',(0.,0.,1.)) ;
#124=DIRECTION('Axis2P3D XDirection',(-0.408,0.912981927532,0.)) ;
#128=DIRECTION('Axis2P3D Direction',(0.,0.,1.)) ;
#135=DIRECTION('Vector Direction',(0.,0.,1.)) ;
#142=DIRECTION('Axis2P3D Direction',(0.,0.,1.)) ;
#154=DIRECTION('Axis2P3D Direction',(-0.408,-0.912981927532,0.)) ;
#155=DIRECTION('Axis2P3D XDirection',(0.912981927532,-0.408,0.)) ;
#159=DIRECTION('Vector Direction',(0.912981927532,-0.408,0.)) ;
#166=DIRECTION('Vector Direction',(0.,0.,1.)) ;
#173=DIRECTION('Vector Direction',(0.912981927532,-0.408,0.)) ;
#185=DIRECTION('Axis2P3D Direction',(0.,0.,1.)) ;
#186=DIRECTION('Axis2P3D XDirection',(-0.408,-0.912981927532,-0.)) ;
#190=DIRECTION('Axis2P3D Direction',(0.,0.,1.)) ;
#197=DIRECTION('Vector Direction',(0.,0.,1.)) ;
#204=DIRECTION('Axis2P3D Direction',(0.,0.,1.)) ;
#216=DIRECTION('Axis2P3D Direction',(-0.408,0.912981927532,0.)) ;
#217=DIRECTION('Axis2P3D XDirection',(-0.912981927532,-0.408,0.)) ;
#221=DIRECTION('Vector Direction',(-0.912981927532,-0.408,0.)) ;
#228=DIRECTION('Vector Direction',(0.,0.,1.)) ;
#235=DIRECTION('Vector Direction',(-0.912981927532,-0.408,0.)) ;
#247=DIRECTION('Axis2P3D Direction',(0.,0.,1.)) ;
#248=DIRECTION('Axis2P3D XDirection',(0.408,-0.912981927532,0.)) ;
#252=DIRECTION('Axis2P3D Direction',(0.,0.,1.)) ;
#259=DIRECTION('Vector Direction',(0.,0.,1.)) ;
#266=DIRECTION('Axis2P3D Direction',(0.,0.,1.)) ;
#278=DIRECTION('Axis2P3D Direction',(0.408,0.912981927532,-0.)) ;
#279=DIRECTION('Axis2P3D XDirection',(-0.912981927532,0.408,0.)) ;
#283=DIRECTION('Vector Direction',(-0.912981927532,0.408,0.)) ;
#288=DIRECTION('Vector Direction',(-0.912981927532,0.408,0.)) ;
#300=DIRECTION('Axis2P3D Direction',(0.,0.,1.)) ;
#301=DIRECTION('Axis2P3D XDirection',(1.,0.,0.)) ;
#305=DIRECTION('Axis2P3D Direction',(0.,0.,1.)) ;
#314=DIRECTION('Vector Direction',(0.,0.,1.)) ;
#321=DIRECTION('Axis2P3D Direction',(0.,0.,1.)) ;
#328=DIRECTION('Vector Direction',(0.,0.,1.)) ;
#340=DIRECTION('Axis2P3D Direction',(0.,0.,1.)) ;
#345=DIRECTION('Axis2P3D Direction',(0.,0.,1.)) ;
#357=DIRECTION('Axis2P3D Direction',(0.,0.,1.)) ;
#358=DIRECTION('Axis2P3D XDirection',(1.,0.,0.)) ;
#362=DIRECTION('Axis2P3D Direction',(0.,0.,1.)) ;
#371=DIRECTION('Vector Direction',(0.,0.,1.)) ;
#378=DIRECTION('Axis2P3D Direction',(0.,0.,1.)) ;
#385=DIRECTION('Vector Direction',(0.,0.,1.)) ;
#397=DIRECTION('Axis2P3D Direction',(0.,0.,1.)) ;
#402=DIRECTION('Axis2P3D Direction',(0.,0.,1.)) ;
#414=DIRECTION('Axis2P3D Direction',(0.,0.,1.)) ;
#415=DIRECTION('Axis2P3D XDirection',(1.,0.,0.)) ;
#419=DIRECTION('Axis2P3D Direction',(0.,0.,1.)) ;
#428=DIRECTION('Vector Direction',(0.,0.,1.)) ;
#435=DIRECTION('Axis2P3D Direction',(0.,0.,1.)) ;
#442=DIRECTION('Vector Direction',(0.,0.,1.)) ;
#454=DIRECTION('Axis2P3D Direction',(0.,0.,1.)) ;
#459=DIRECTION('Axis2P3D Direction',(0.,0.,1.)) ;
#471=DIRECTION('Axis2P3D Direction',(0.,0.,1.)) ;
#472=DIRECTION('Axis2P3D XDirection',(1.,0.,0.)) ;
#499=DIRECTION('Axis2P3D Direction',(0.,0.,1.)) ;
#500=DIRECTION('Axis2P3D XDirection',(1.,0.,0.)) ;
#530=DIRECTION('Axis2P3D Direction',(0.,0.,1.)) ;
#531=DIRECTION('Axis2P3D XDirection',(1.,0.,0.)) ;
#47=AXIS2_PLACEMENT_3D(' ',#46,$,$) ;
#54=AXIS2_PLACEMENT_3D('Cylinder Axis2P3D',#51,#52,#53) ;
#67=AXIS2_PLACEMENT_3D('Circle Axis2P3D',#65,#66,$) ;
#81=AXIS2_PLACEMENT_3D('Circle Axis2P3D',#79,#80,$) ;
#94=AXIS2_PLACEMENT_3D('Plane Axis2P3D',#91,#92,#93) ;
#125=AXIS2_PLACEMENT_3D('Cylinder Axis2P3D',#122,#123,#124) ;
#129=AXIS2_PLACEMENT_3D('Circle Axis2P3D',#127,#128,$) ;
#143=AXIS2_PLACEMENT_3D('Circle Axis2P3D',#141,#142,$) ;
#156=AXIS2_PLACEMENT_3D('Plane Axis2P3D',#153,#154,#155) ;
#187=AXIS2_PLACEMENT_3D('Cylinder Axis2P3D',#184,#185,#186) ;
#191=AXIS2_PLACEMENT_3D('Circle Axis2P3D',#189,#190,$) ;
#205=AXIS2_PLACEMENT_3D('Circle Axis2P3D',#203,#204,$) ;
#218=AXIS2_PLACEMENT_3D('Plane Axis2P3D',#215,#216,#217) ;
#249=AXIS2_PLACEMENT_3D('Cylinder Axis2P3D',#246,#247,#248) ;
#253=AXIS2_PLACEMENT_3D('Circle Axis2P3D',#251,#252,$) ;
#267=AXIS2_PLACEMENT_3D('Circle Axis2P3D',#265,#266,$) ;
#280=AXIS2_PLACEMENT_3D('Plane Axis2P3D',#277,#278,#279) ;
#302=AXIS2_PLACEMENT_3D('Cylinder Axis2P3D',#299,#300,#301) ;
#306=AXIS2_PLACEMENT_3D('Circle Axis2P3D',#304,#305,$) ;
#322=AXIS2_PLACEMENT_3D('Circle Axis2P3D',#320,#321,$) ;
#341=AXIS2_PLACEMENT_3D('Circle Axis2P3D',#339,#340,$) ;
#346=AXIS2_PLACEMENT_3D('Circle Axis2P3D',#344,#345,$) ;
#359=AXIS2_PLACEMENT_3D('Cylinder Axis2P3D',#356,#357,#358) ;
#363=AXIS2_PLACEMENT_3D('Circle Axis2P3D',#361,#362,$) ;
#379=AXIS2_PLACEMENT_3D('Circle Axis2P3D',#377,#378,$) ;
#398=AXIS2_PLACEMENT_3D('Circle Axis2P3D',#396,#397,$) ;
#403=AXIS2_PLACEMENT_3D('Circle Axis2P3D',#401,#402,$) ;
#416=AXIS2_PLACEMENT_3D('Cylinder Axis2P3D',#413,#414,#415) ;
#420=AXIS2_PLACEMENT_3D('Circle Axis2P3D',#418,#419,$) ;
#436=AXIS2_PLACEMENT_3D('Circle Axis2P3D',#434,#435,$) ;
#455=AXIS2_PLACEMENT_3D('Circle Axis2P3D',#453,#454,$) ;
#460=AXIS2_PLACEMENT_3D('Circle Axis2P3D',#458,#459,$) ;
#473=AXIS2_PLACEMENT_3D('Plane Axis2P3D',#470,#471,#472) ;
#501=AXIS2_PLACEMENT_3D('Plane Axis2P3D',#498,#499,#500) ;
#532=AXIS2_PLACEMENT_3D('Rep\X2\00E8\X0\re absolu',#529,#530,#531) ;
#40=PRODUCT_DEFINITION_SHAPE(' ',' ',#14) ;
#31=APPROVAL_PERSON_ORGANIZATION(#25,#21,#19) ;
#25=PERSON_AND_ORGANIZATION(#22,#23) ;
#22=PERSON(' ',' ',' ',$,$,$) ;
#23=ORGANIZATION(' ',' ',' ') ;
#21=APPROVAL(#20,' ') ;
#20=APPROVAL_STATUS('not_yet_approved') ;
#19=APPROVAL_ROLE('APPROVER') ;
#13=DATE_AND_TIME(#11,#12) ;
#12=LOCAL_TIME(12,17,26.,#10) ;
#10=COORDINATED_UNIVERSAL_TIME_OFFSET(0,0,.AHEAD.) ;
#85=ORIENTED_EDGE('',*,*,#64,.F.) ;
#86=ORIENTED_EDGE('',*,*,#71,.T.) ;
#87=ORIENTED_EDGE('',*,*,#78,.T.) ;
#88=ORIENTED_EDGE('',*,*,#83,.F.) ;
#116=ORIENTED_EDGE('',*,*,#78,.F.) ;
#117=ORIENTED_EDGE('',*,*,#102,.T.) ;
#118=ORIENTED_EDGE('',*,*,#109,.T.) ;
#119=ORIENTED_EDGE('',*,*,#114,.F.) ;
#147=ORIENTED_EDGE('',*,*,#109,.F.) ;
#148=ORIENTED_EDGE('',*,*,#133,.T.) ;
#149=ORIENTED_EDGE('',*,*,#140,.T.) ;
#150=ORIENTED_EDGE('',*,*,#145,.F.) ;
#178=ORIENTED_EDGE('',*,*,#140,.F.) ;
#179=ORIENTED_EDGE('',*,*,#164,.T.) ;
#180=ORIENTED_EDGE('',*,*,#171,.T.) ;
#181=ORIENTED_EDGE('',*,*,#176,.F.) ;
#209=ORIENTED_EDGE('',*,*,#171,.F.) ;
#210=ORIENTED_EDGE('',*,*,#195,.T.) ;
#211=ORIENTED_EDGE('',*,*,#202,.T.) ;
#212=ORIENTED_EDGE('',*,*,#207,.F.) ;
#240=ORIENTED_EDGE('',*,*,#202,.F.) ;
#241=ORIENTED_EDGE('',*,*,#226,.T.) ;
#242=ORIENTED_EDGE('',*,*,#233,.T.) ;
#243=ORIENTED_EDGE('',*,*,#238,.F.) ;
#271=ORIENTED_EDGE('',*,*,#233,.F.) ;
#272=ORIENTED_EDGE('',*,*,#257,.T.) ;
#273=ORIENTED_EDGE('',*,*,#264,.T.) ;
#274=ORIENTED_EDGE('',*,*,#269,.F.) ;
#293=ORIENTED_EDGE('',*,*,#264,.F.) ;
#294=ORIENTED_EDGE('',*,*,#286,.T.) ;
#295=ORIENTED_EDGE('',*,*,#64,.T.) ;
#296=ORIENTED_EDGE('',*,*,#291,.F.) ;
#333=ORIENTED_EDGE('',*,*,#312,.T.) ;
#334=ORIENTED_EDGE('',*,*,#319,.F.) ;
#335=ORIENTED_EDGE('',*,*,#326,.F.) ;
#336=ORIENTED_EDGE('',*,*,#331,.T.) ;
#350=ORIENTED_EDGE('',*,*,#343,.T.) ;
#351=ORIENTED_EDGE('',*,*,#331,.F.) ;
#352=ORIENTED_EDGE('',*,*,#348,.F.) ;
#353=ORIENTED_EDGE('',*,*,#319,.T.) ;
#390=ORIENTED_EDGE('',*,*,#369,.T.) ;
#391=ORIENTED_EDGE('',*,*,#376,.F.) ;
#392=ORIENTED_EDGE('',*,*,#383,.F.) ;
#393=ORIENTED_EDGE('',*,*,#388,.T.) ;
#407=ORIENTED_EDGE('',*,*,#400,.T.) ;
#408=ORIENTED_EDGE('',*,*,#388,.F.) ;
#409=ORIENTED_EDGE('',*,*,#405,.F.) ;
#410=ORIENTED_EDGE('',*,*,#376,.T.) ;
#447=ORIENTED_EDGE('',*,*,#426,.T.) ;
#448=ORIENTED_EDGE('',*,*,#433,.F.) ;
#449=ORIENTED_EDGE('',*,*,#440,.F.) ;
#450=ORIENTED_EDGE('',*,*,#445,.T.) ;
#464=ORIENTED_EDGE('',*,*,#457,.T.) ;
#465=ORIENTED_EDGE('',*,*,#445,.F.) ;
#466=ORIENTED_EDGE('',*,*,#462,.F.) ;
#467=ORIENTED_EDGE('',*,*,#433,.T.) ;
#476=ORIENTED_EDGE('',*,*,#286,.F.) ;
#477=ORIENTED_EDGE('',*,*,#257,.F.) ;
#478=ORIENTED_EDGE('',*,*,#226,.F.) ;
#479=ORIENTED_EDGE('',*,*,#195,.F.) ;
#480=ORIENTED_EDGE('',*,*,#164,.F.) ;
#481=ORIENTED_EDGE('',*,*,#133,.F.) ;
#482=ORIENTED_EDGE('',*,*,#102,.F.) ;
#483=ORIENTED_EDGE('',*,*,#71,.F.) ;
#486=ORIENTED_EDGE('',*,*,#348,.T.) ;
#487=ORIENTED_EDGE('',*,*,#326,.T.) ;
#490=ORIENTED_EDGE('',*,*,#405,.T.) ;
#491=ORIENTED_EDGE('',*,*,#383,.T.) ;
#494=ORIENTED_EDGE('',*,*,#462,.T.) ;
#495=ORIENTED_EDGE('',*,*,#440,.T.) ;
#504=ORIENTED_EDGE('',*,*,#83,.T.) ;
#505=ORIENTED_EDGE('',*,*,#114,.T.) ;
#506=ORIENTED_EDGE('',*,*,#145,.T.) ;
#507=ORIENTED_EDGE('',*,*,#176,.T.) ;
#508=ORIENTED_EDGE('',*,*,#207,.T.) ;
#509=ORIENTED_EDGE('',*,*,#238,.T.) ;
#510=ORIENTED_EDGE('',*,*,#269,.T.) ;
#511=ORIENTED_EDGE('',*,*,#291,.T.) ;
#514=ORIENTED_EDGE('',*,*,#312,.F.) ;
#515=ORIENTED_EDGE('',*,*,#343,.F.) ;
#518=ORIENTED_EDGE('',*,*,#369,.F.) ;
#519=ORIENTED_EDGE('',*,*,#400,.F.) ;
#522=ORIENTED_EDGE('',*,*,#426,.F.) ;
#523=ORIENTED_EDGE('',*,*,#457,.F.) ;
#488=FACE_BOUND('',#485,.T.) ;
#492=FACE_BOUND('',#489,.T.) ;
#496=FACE_BOUND('',#493,.T.) ;
#516=FACE_BOUND('',#513,.T.) ;
#520=FACE_BOUND('',#517,.T.) ;
#524=FACE_BOUND('',#521,.T.) ;
#50=CLOSED_SHELL('Closed Shell',(#90,#121,#152,#183,#214,#245,#276,#298,#338,#355,#395,#412,#452,#469,#497,#525)) ;
#58=VECTOR('Line Direction',#57,1.) ;
#74=VECTOR('Line Direction',#73,1.) ;
#98=VECTOR('Line Direction',#97,1.) ;
#105=VECTOR('Line Direction',#104,1.) ;
#112=VECTOR('Line Direction',#111,1.) ;
#136=VECTOR('Line Direction',#135,1.) ;
#160=VECTOR('Line Direction',#159,1.) ;
#167=VECTOR('Line Direction',#166,1.) ;
#174=VECTOR('Line Direction',#173,1.) ;
#198=VECTOR('Line Direction',#197,1.) ;
#222=VECTOR('Line Direction',#221,1.) ;
#229=VECTOR('Line Direction',#228,1.) ;
#236=VECTOR('Line Direction',#235,1.) ;
#260=VECTOR('Line Direction',#259,1.) ;
#284=VECTOR('Line Direction',#283,1.) ;
#289=VECTOR('Line Direction',#288,1.) ;
#315=VECTOR('Line Direction',#314,1.) ;
#329=VECTOR('Line Direction',#328,1.) ;
#372=VECTOR('Line Direction',#371,1.) ;
#386=VECTOR('Line Direction',#385,1.) ;
#429=VECTOR('Line Direction',#428,1.) ;
#443=VECTOR('Line Direction',#442,1.) ;
#527=ADVANCED_BREP_SHAPE_REPRESENTATION('NONE',(#526),#45) ;
#48=SHAPE_REPRESENTATION(' ',(#47),#45) ;
#90=ADVANCED_FACE('Corps principal',(#89),#55,.T.) ;
#121=ADVANCED_FACE('Corps principal',(#120),#95,.F.) ;
#152=ADVANCED_FACE('Corps principal',(#151),#126,.T.) ;
#183=ADVANCED_FACE('Corps principal',(#182),#157,.T.) ;
#214=ADVANCED_FACE('Corps principal',(#213),#188,.T.) ;
#245=ADVANCED_FACE('Corps principal',(#244),#219,.F.) ;
#276=ADVANCED_FACE('Corps principal',(#275),#250,.T.) ;
#298=ADVANCED_FACE('Corps principal',(#297),#281,.T.) ;
#338=ADVANCED_FACE('Corps principal',(#337),#303,.F.) ;
#355=ADVANCED_FACE('Corps principal',(#354),#303,.F.) ;
#395=ADVANCED_FACE('Corps principal',(#394),#360,.F.) ;
#412=ADVANCED_FACE('Corps principal',(#411),#360,.F.) ;
#452=ADVANCED_FACE('Corps principal',(#451),#417,.F.) ;
#469=ADVANCED_FACE('Corps principal',(#468),#417,.F.) ;
#497=ADVANCED_FACE('Corps principal',(#484,#488,#492,#496),#474,.F.) ;
#525=ADVANCED_FACE('Corps principal',(#512,#516,#520,#524),#502,.T.) ;
#4=APPLICATION_PROTOCOL_DEFINITION('international standard','config_control_design',1994,#1) ;
#32=APPROVAL_DATE_TIME(#13,#21) ;
#526=MANIFOLD_SOLID_BREP('Corps principal',#50) ;
#11=CALENDAR_DATE(2019,25,9) ;
#30=CC_DESIGN_APPROVAL(#21,(#16,#6,#14)) ;
#18=CC_DESIGN_DATE_AND_TIME_ASSIGNMENT(#13,#17,(#16)) ;
#29=CC_DESIGN_DATE_AND_TIME_ASSIGNMENT(#13,#28,(#14)) ;
#17=DATE_TIME_ROLE('classification_date') ;
#28=DATE_TIME_ROLE('creation_date') ;
#27=CC_DESIGN_PERSON_AND_ORGANIZATION_ASSIGNMENT(#25,#26,(#16)) ;
#33=CC_DESIGN_PERSON_AND_ORGANIZATION_ASSIGNMENT(#25,#34,(#6)) ;
#35=CC_DESIGN_PERSON_AND_ORGANIZATION_ASSIGNMENT(#25,#36,(#6,#14)) ;
#37=CC_DESIGN_PERSON_AND_ORGANIZATION_ASSIGNMENT(#25,#38,(#5)) ;
#26=PERSON_AND_ORGANIZATION_ROLE('classification_officer') ;
#34=PERSON_AND_ORGANIZATION_ROLE('design_supplier') ;
#36=PERSON_AND_ORGANIZATION_ROLE('creator') ;
#38=PERSON_AND_ORGANIZATION_ROLE('design_owner') ;
#39=CC_DESIGN_SECURITY_CLASSIFICATION(#16,(#6)) ;
#68=CIRCLE('generated circle',#67,20.) ;
#82=CIRCLE('generated circle',#81,20.) ;
#130=CIRCLE('generated circle',#129,7.25) ;
#144=CIRCLE('generated circle',#143,7.25) ;
#192=CIRCLE('generated circle',#191,20.) ;
#206=CIRCLE('generated circle',#205,20.) ;
#254=CIRCLE('generated circle',#253,7.25) ;
#268=CIRCLE('generated circle',#267,7.25) ;
#307=CIRCLE('generated circle',#306,6.) ;
#323=CIRCLE('generated circle',#322,6.) ;
#342=CIRCLE('generated circle',#341,6.) ;
#347=CIRCLE('generated circle',#346,6.) ;
#364=CIRCLE('generated circle',#363,3.75) ;
#380=CIRCLE('generated circle',#379,3.75) ;
#399=CIRCLE('generated circle',#398,3.75) ;
#404=CIRCLE('generated circle',#403,3.75) ;
#421=CIRCLE('generated circle',#420,3.75) ;
#437=CIRCLE('generated circle',#436,3.75) ;
#456=CIRCLE('generated circle',#455,3.75) ;
#461=CIRCLE('generated circle',#460,3.75) ;
#528=SHAPE_REPRESENTATION_RELATIONSHIP(' ',' ',#48,#527) ;
#55=CYLINDRICAL_SURFACE('generated cylinder',#54,20.) ;
#126=CYLINDRICAL_SURFACE('generated cylinder',#125,7.25) ;
#188=CYLINDRICAL_SURFACE('generated cylinder',#187,20.) ;
#250=CYLINDRICAL_SURFACE('generated cylinder',#249,7.25) ;
#303=CYLINDRICAL_SURFACE('generated cylinder',#302,6.) ;
#360=CYLINDRICAL_SURFACE('generated cylinder',#359,3.75) ;
#417=CYLINDRICAL_SURFACE('generated cylinder',#416,3.75) ;
#3=DESIGN_CONTEXT(' ',#1,'design') ;
#64=EDGE_CURVE('',#61,#63,#59,.T.) ;
#71=EDGE_CURVE('',#61,#70,#68,.T.) ;
#78=EDGE_CURVE('',#70,#77,#75,.T.) ;
#83=EDGE_CURVE('',#63,#77,#82,.T.) ;
#102=EDGE_CURVE('',#70,#101,#99,.F.) ;
#109=EDGE_CURVE('',#101,#108,#106,.T.) ;
#114=EDGE_CURVE('',#77,#108,#113,.F.) ;
#133=EDGE_CURVE('',#101,#132,#130,.T.) ;
#140=EDGE_CURVE('',#132,#139,#137,.T.) ;
#145=EDGE_CURVE('',#108,#139,#144,.T.) ;
#164=EDGE_CURVE('',#132,#163,#161,.T.) ;
#171=EDGE_CURVE('',#163,#170,#168,.T.) ;
#176=EDGE_CURVE('',#139,#170,#175,.T.) ;
#195=EDGE_CURVE('',#163,#194,#192,.T.) ;
#202=EDGE_CURVE('',#194,#201,#199,.T.) ;
#207=EDGE_CURVE('',#170,#201,#206,.T.) ;
#226=EDGE_CURVE('',#194,#225,#223,.F.) ;
#233=EDGE_CURVE('',#225,#232,#230,.T.) ;
#238=EDGE_CURVE('',#201,#232,#237,.F.) ;
#257=EDGE_CURVE('',#225,#256,#254,.T.) ;
#264=EDGE_CURVE('',#256,#263,#261,.T.) ;
#269=EDGE_CURVE('',#232,#263,#268,.T.) ;
#286=EDGE_CURVE('',#256,#61,#285,.T.) ;
#291=EDGE_CURVE('',#263,#63,#290,.T.) ;
#312=EDGE_CURVE('',#309,#311,#307,.T.) ;
#319=EDGE_CURVE('',#318,#311,#316,.T.) ;
#326=EDGE_CURVE('',#325,#318,#323,.T.) ;
#331=EDGE_CURVE('',#325,#309,#330,.T.) ;
#343=EDGE_CURVE('',#311,#309,#342,.T.) ;
#348=EDGE_CURVE('',#318,#325,#347,.T.) ;
#369=EDGE_CURVE('',#366,#368,#364,.T.) ;
#376=EDGE_CURVE('',#375,#368,#373,.T.) ;
#383=EDGE_CURVE('',#382,#375,#380,.T.) ;
#388=EDGE_CURVE('',#382,#366,#387,.T.) ;
#400=EDGE_CURVE('',#368,#366,#399,.T.) ;
#405=EDGE_CURVE('',#375,#382,#404,.T.) ;
#426=EDGE_CURVE('',#423,#425,#421,.T.) ;
#433=EDGE_CURVE('',#432,#425,#430,.T.) ;
#440=EDGE_CURVE('',#439,#432,#437,.T.) ;
#445=EDGE_CURVE('',#439,#423,#444,.T.) ;
#457=EDGE_CURVE('',#425,#423,#456,.T.) ;
#462=EDGE_CURVE('',#432,#439,#461,.T.) ;
#84=EDGE_LOOP('',(#85,#86,#87,#88)) ;
#115=EDGE_LOOP('',(#116,#117,#118,#119)) ;
#146=EDGE_LOOP('',(#147,#148,#149,#150)) ;
#177=EDGE_LOOP('',(#178,#179,#180,#181)) ;
#208=EDGE_LOOP('',(#209,#210,#211,#212)) ;
#239=EDGE_LOOP('',(#240,#241,#242,#243)) ;
#270=EDGE_LOOP('',(#271,#272,#273,#274)) ;
#292=EDGE_LOOP('',(#293,#294,#295,#296)) ;
#332=EDGE_LOOP('',(#333,#334,#335,#336)) ;
#349=EDGE_LOOP('',(#350,#351,#352,#353)) ;
#389=EDGE_LOOP('',(#390,#391,#392,#393)) ;
#406=EDGE_LOOP('',(#407,#408,#409,#410)) ;
#446=EDGE_LOOP('',(#447,#448,#449,#450)) ;
#463=EDGE_LOOP('',(#464,#465,#466,#467)) ;
#475=EDGE_LOOP('',(#476,#477,#478,#479,#480,#481,#482,#483)) ;
#485=EDGE_LOOP('',(#486,#487)) ;
#489=EDGE_LOOP('',(#490,#491)) ;
#493=EDGE_LOOP('',(#494,#495)) ;
#503=EDGE_LOOP('',(#504,#505,#506,#507,#508,#509,#510,#511)) ;
#513=EDGE_LOOP('',(#514,#515)) ;
#517=EDGE_LOOP('',(#518,#519)) ;
#521=EDGE_LOOP('',(#522,#523)) ;
#89=FACE_OUTER_BOUND('',#84,.T.) ;
#120=FACE_OUTER_BOUND('',#115,.T.) ;
#151=FACE_OUTER_BOUND('',#146,.T.) ;
#182=FACE_OUTER_BOUND('',#177,.T.) ;
#213=FACE_OUTER_BOUND('',#208,.T.) ;
#244=FACE_OUTER_BOUND('',#239,.T.) ;
#275=FACE_OUTER_BOUND('',#270,.T.) ;
#297=FACE_OUTER_BOUND('',#292,.T.) ;
#337=FACE_OUTER_BOUND('',#332,.T.) ;
#354=FACE_OUTER_BOUND('',#349,.T.) ;
#394=FACE_OUTER_BOUND('',#389,.T.) ;
#411=FACE_OUTER_BOUND('',#406,.T.) ;
#451=FACE_OUTER_BOUND('',#446,.T.) ;
#468=FACE_OUTER_BOUND('',#463,.T.) ;
#484=FACE_OUTER_BOUND('',#475,.T.) ;
#512=FACE_OUTER_BOUND('',#503,.T.) ;
#44=UNCERTAINTY_MEASURE_WITH_UNIT(LENGTH_MEASURE(0.005),#41,'distance_accuracy_value','CONFUSED CURVE UNCERTAINTY') ;
#59=LINE('Line',#56,#58) ;
#75=LINE('Line',#72,#74) ;
#99=LINE('Line',#96,#98) ;
#106=LINE('Line',#103,#105) ;
#113=LINE('Line',#110,#112) ;
#137=LINE('Line',#134,#136) ;
#161=LINE('Line',#158,#160) ;
#168=LINE('Line',#165,#167) ;
#175=LINE('Line',#172,#174) ;
#199=LINE('Line',#196,#198) ;
#223=LINE('Line',#220,#222) ;
#230=LINE('Line',#227,#229) ;
#237=LINE('Line',#234,#236) ;
#261=LINE('Line',#258,#260) ;
#285=LINE('Line',#282,#284) ;
#290=LINE('Line',#287,#289) ;
#316=LINE('Line',#313,#315) ;
#330=LINE('Line',#327,#329) ;
#373=LINE('Line',#370,#372) ;
#387=LINE('Line',#384,#386) ;
#430=LINE('Line',#427,#429) ;
#444=LINE('Line',#441,#443) ;
#2=MECHANICAL_CONTEXT(' ',#1,'mechanical') ;
#24=PERSONAL_ADDRESS(' ',' ',' ',' ',' ',' ',' ',' ',' ',' ',' ',' ',(#22),' ') ;
#95=PLANE('',#94) ;
#157=PLANE('',#156) ;
#219=PLANE('',#218) ;
#281=PLANE('',#280) ;
#474=PLANE('',#473) ;
#502=PLANE('',#501) ;
#7=PRODUCT_CATEGORY('part',$) ;
#9=PRODUCT_CATEGORY_RELATIONSHIP(' ',' ',#7,#8) ;
#6=PRODUCT_DEFINITION_FORMATION_WITH_SPECIFIED_SOURCE('',' ',#5,.NOT_KNOWN.) ;
#8=PRODUCT_RELATED_PRODUCT_CATEGORY('detail',$,(#5)) ;
#49=SHAPE_DEFINITION_REPRESENTATION(#40,#48) ;
#61=VERTEX_POINT('',#60) ;
#63=VERTEX_POINT('',#62) ;
#70=VERTEX_POINT('',#69) ;
#77=VERTEX_POINT('',#76) ;
#101=VERTEX_POINT('',#100) ;
#108=VERTEX_POINT('',#107) ;
#132=VERTEX_POINT('',#131) ;
#139=VERTEX_POINT('',#138) ;
#163=VERTEX_POINT('',#162) ;
#170=VERTEX_POINT('',#169) ;
#194=VERTEX_POINT('',#193) ;
#201=VERTEX_POINT('',#200) ;
#225=VERTEX_POINT('',#224) ;
#232=VERTEX_POINT('',#231) ;
#256=VERTEX_POINT('',#255) ;
#263=VERTEX_POINT('',#262) ;
#309=VERTEX_POINT('',#308) ;
#311=VERTEX_POINT('',#310) ;
#318=VERTEX_POINT('',#317) ;
#325=VERTEX_POINT('',#324) ;
#366=VERTEX_POINT('',#365) ;
#368=VERTEX_POINT('',#367) ;
#375=VERTEX_POINT('',#374) ;
#382=VERTEX_POINT('',#381) ;
#423=VERTEX_POINT('',#422) ;
#425=VERTEX_POINT('',#424) ;
#432=VERTEX_POINT('',#431) ;
#439=VERTEX_POINT('',#438) ;
#41=(LENGTH_UNIT()NAMED_UNIT(*)SI_UNIT(.MILLI.,.METRE.)) ;
#42=(NAMED_UNIT(*)PLANE_ANGLE_UNIT()SI_UNIT($,.RADIAN.)) ;
#43=(NAMED_UNIT(*)SI_UNIT($,.STERADIAN.)SOLID_ANGLE_UNIT()) ;
#45=(GEOMETRIC_REPRESENTATION_CONTEXT(3)GLOBAL_UNCERTAINTY_ASSIGNED_CONTEXT((#44))GLOBAL_UNIT_ASSIGNED_CONTEXT((#41,#42,#43))REPRESENTATION_CONTEXT(' ',' ')) ;
ENDSEC;
END-ISO-10303-21;
