ISO-10303-21;
HEADER;
FILE_DESCRIPTION (( 'STEP AP214' ),
    '1' );
FILE_NAME ('Support_feux_usinage.STEP',
    '2019-09-03T07:48:45',
    ( '' ),
    ( '' ),
    'SwSTEP 2.0',
    'SolidWorks 2018',
    '' );
FILE_SCHEMA (( 'AUTOMOTIVE_DESIGN' ));
ENDSEC;

DATA;
#1 = VERTEX_POINT ( 'NONE', #179 ) ;
#2 = ORIENTED_EDGE ( 'NONE', *, *, #80, .F. ) ;
#3 =( NAMED_UNIT ( * ) SI_UNIT ( $, .STERADIAN. ) SOLID_ANGLE_UNIT ( ) );
#4 = COLOUR_RGB ( '',0.7921568627450980005, 0.8196078431372548767, 0.9333333333333333481 ) ;
#5 = ADVANCED_BREP_SHAPE_REPRESENTATION ( 'Support_feux_usinage', ( #162, #110 ), #12 ) ;
#6 = DIRECTION ( 'NONE',  ( 3.973710174291126020E-17, -1.000000000000000000, 0.0000000000000000000 ) ) ;
#7 = CARTESIAN_POINT ( 'NONE',  ( 7.985518645904212676, 17.12499999999999645, 9.999999999999998224 ) ) ;
#8 =( NAMED_UNIT ( * ) SI_UNIT ( $, .STERADIAN. ) SOLID_ANGLE_UNIT ( ) );
#9 = VERTEX_POINT ( 'NONE', #104 ) ;
#10 = PLANE ( 'NONE',  #190 ) ;
#11 = CARTESIAN_POINT ( 'NONE',  ( 6.003711098745501573, 12.87499999999999822, 9.999999999999998224 ) ) ;
#12 =( GEOMETRIC_REPRESENTATION_CONTEXT ( 3 ) GLOBAL_UNCERTAINTY_ASSIGNED_CONTEXT ( ( #157 ) ) GLOBAL_UNIT_ASSIGNED_CONTEXT ( ( #108, #198, #89 ) ) REPRESENTATION_CONTEXT ( 'NONE', 'WORKASPACE' ) );
#13 = CARTESIAN_POINT ( 'NONE',  ( 6.003711098745501573, 12.87499999999999822, 9.999999999999998224 ) ) ;
#14 = AXIS2_PLACEMENT_3D ( 'NONE', #90, #184, #72 ) ;
#15 = FACE_OUTER_BOUND ( 'NONE', #125, .T. ) ;
#16 =( GEOMETRIC_REPRESENTATION_CONTEXT ( 3 ) GLOBAL_UNCERTAINTY_ASSIGNED_CONTEXT ( ( #44 ) ) GLOBAL_UNIT_ASSIGNED_CONTEXT ( ( #19, #122, #3 ) ) REPRESENTATION_CONTEXT ( 'NONE', 'WORKASPACE' ) );
#17 = AXIS2_PLACEMENT_3D ( 'NONE', #171, #91, #75 ) ;
#18 = PRESENTATION_LAYER_ASSIGNMENT (  '', '', ( #29 ) ) ;
#19 =( LENGTH_UNIT ( ) NAMED_UNIT ( * ) SI_UNIT ( .MILLI., .METRE. ) );
#20 = CARTESIAN_POINT ( 'NONE',  ( -5.960565261436688475E-16, 14.99999999999999822, 9.999999999999998224 ) ) ;
#21 = CARTESIAN_POINT ( 'NONE',  ( 13.99122974464972202, 12.87499999999999822, 9.999999999999998224 ) ) ;
#22 =( LENGTH_UNIT ( ) NAMED_UNIT ( * ) SI_UNIT ( .MILLI., .METRE. ) );
#23 = CARTESIAN_POINT ( 'NONE',  ( -1.192113052287337695E-15, 30.00000000000000000, 20.00000000000000000 ) ) ;
#24 = CARTESIAN_POINT ( 'NONE',  ( 7.985518645904212676, 17.12499999999999645, 9.999999999999998224 ) ) ;
#25 = DIRECTION ( 'NONE',  ( -1.000000000000000000, -3.973710174291126020E-17, -0.0000000000000000000 ) ) ;
#26 =( BOUNDED_CURVE ( )  B_SPLINE_CURVE ( 3, ( #79, #147, #156, #42 ),
 .UNSPECIFIED., .F., .T. ) 
 B_SPLINE_CURVE_WITH_KNOTS ( ( 4, 4 ),
 ( 3.141592653589793116, 6.283185307179586232 ),
 .UNSPECIFIED. ) 
 CURVE ( )  GEOMETRIC_REPRESENTATION_ITEM ( )  RATIONAL_B_SPLINE_CURVE ( ( 1.000000000000000000, 0.3333333333333333703, 0.3333333333333333703, 1.000000000000000000 ) ) 
 REPRESENTATION_ITEM ( '' )  );
#27 = ORIENTED_EDGE ( 'NONE', *, *, #74, .F. ) ;
#28 = AXIS2_PLACEMENT_3D ( 'NONE', #115, #64, #103 ) ;
#29 = STYLED_ITEM ( 'NONE', ( #47 ), #162 ) ;
#30 = ORIENTED_EDGE ( 'NONE', *, *, #97, .T. ) ;
#31 = STYLED_ITEM ( 'NONE', ( #98 ), #5 ) ;
#32 = LINE ( 'NONE', #21, #37 ) ;
#33 = UNCERTAINTY_MEASURE_WITH_UNIT (LENGTH_MEASURE( 1.000000000000000082E-05 ), #22, 'distance_accuracy_value', 'NONE');
#34 = SURFACE_SIDE_STYLE ('',( #137 ) ) ;
#35 = ADVANCED_FACE ( 'NONE', ( #100, #49 ), #114, .F. ) ;
#36 = EDGE_LOOP ( 'NONE', ( #82, #159, #50, #120 ) ) ;
#37 = VECTOR ( 'NONE', #126, 1000.000000000000000 ) ;
#38 = AXIS2_PLACEMENT_3D ( 'NONE', #153, #76, #202 ) ;
#39 = SURFACE_SIDE_STYLE ('',( #146 ) ) ;
#40 = CIRCLE ( 'NONE', #14, 2.125000000000000000 ) ;
#41 = DIRECTION ( 'NONE',  ( -1.000000000000000000, -3.973710174291126020E-17, -0.0000000000000000000 ) ) ;
#42 = CARTESIAN_POINT ( 'NONE',  ( 3.672172807970549346, 7.874999999999996447, 9.999999999999998224 ) ) ;
#43 = DIRECTION ( 'NONE',  ( 3.973710174291126020E-17, -1.000000000000000000, 0.0000000000000000000 ) ) ;
#44 = UNCERTAINTY_MEASURE_WITH_UNIT (LENGTH_MEASURE( 1.000000000000000082E-05 ), #19, 'distance_accuracy_value', 'NONE');
#45 = EDGE_LOOP ( 'NONE', ( #86, #88, #101, #160 ) ) ;
#46 = PRESENTATION_LAYER_ASSIGNMENT (  '', '', ( #31 ) ) ;
#47 = PRESENTATION_STYLE_ASSIGNMENT (( #142 ) ) ;
#48 = EDGE_CURVE ( 'NONE', #9, #1, #199, .T. ) ;
#49 = FACE_OUTER_BOUND ( 'NONE', #200, .T. ) ;
#50 = ORIENTED_EDGE ( 'NONE', *, *, #102, .T. ) ;
#51 = ADVANCED_FACE ( 'NONE', ( #15 ), #188, .F. ) ;
#52 = APPLICATION_CONTEXT ( 'automotive_design' ) ;
#53 = CARTESIAN_POINT ( 'NONE',  ( 0.0000000000000000000, 0.0000000000000000000, 0.0000000000000000000 ) ) ;
#54 = ORIENTED_EDGE ( 'NONE', *, *, #97, .F. ) ;
#55 = CARTESIAN_POINT ( 'NONE',  ( 6.003711098745501573, 12.87499999999999822, 9.999999999999998224 ) ) ;
#56 = AXIS2_PLACEMENT_3D ( 'NONE', #187, #41, #145 ) ;
#57 = DIRECTION ( 'NONE',  ( -1.000000000000000000, -3.973710174291126020E-17, 0.0000000000000000000 ) ) ;
#58 = DIRECTION ( 'NONE',  ( -1.000000000000000000, -3.973710174291126020E-17, -0.0000000000000000000 ) ) ;
#59 = EDGE_LOOP ( 'NONE', ( #138, #27 ) ) ;
#60 = DIRECTION ( 'NONE',  ( -1.000000000000000000, -3.973710174291126020E-17, 0.0000000000000000000 ) ) ;
#61 = CARTESIAN_POINT ( 'NONE',  ( 10.31705693667916712, 22.12500000000000000, 10.00000000000000000 ) ) ;
#62 = AXIS2_PLACEMENT_3D ( 'NONE', #174, #57, #154 ) ;
#63 = FACE_OUTER_BOUND ( 'NONE', #185, .T. ) ;
#64 = DIRECTION ( 'NONE',  ( -0.9063077870366527122, 0.4226182617406935016, 0.0000000000000000000 ) ) ;
#65 = EDGE_CURVE ( 'NONE', #73, #66, #149, .T. ) ;
#66 = VERTEX_POINT ( 'NONE', #191 ) ;
#67 = MECHANICAL_DESIGN_GEOMETRIC_PRESENTATION_REPRESENTATION (  '', ( #31 ), #16 ) ;
#68 = LINE ( 'NONE', #78, #193 ) ;
#69 = APPLICATION_CONTEXT ( 'automotive_design' ) ;
#70 = APPLICATION_PROTOCOL_DEFINITION ( 'draft international standard', 'automotive_design', 1998, #52 ) ;
#71 = ORIENTED_EDGE ( 'NONE', *, *, #85, .F. ) ;
#72 = DIRECTION ( 'NONE',  ( 3.973710174291126020E-17, -1.000000000000000000, 0.0000000000000000000 ) ) ;
#73 = VERTEX_POINT ( 'NONE', #208 ) ;
#74 = EDGE_CURVE ( 'NONE', #201, #152, #134, .T. ) ;
#75 = DIRECTION ( 'NONE',  ( 0.0000000000000000000, -1.000000000000000000, 0.0000000000000000000 ) ) ;
#76 = DIRECTION ( 'NONE',  ( -1.000000000000000000, -3.973710174291126020E-17, -0.0000000000000000000 ) ) ;
#77 = CARTESIAN_POINT ( 'NONE',  ( 7.985518645904212676, 17.12499999999999645, 9.999999999999998224 ) ) ;
#78 = CARTESIAN_POINT ( 'NONE',  ( 13.98922974464972135, 7.874999999999996447, 9.999999999999998224 ) ) ;
#79 = CARTESIAN_POINT ( 'NONE',  ( 10.31705693667916712, 22.12500000000000000, 10.00000000000000000 ) ) ;
#80 = EDGE_CURVE ( 'NONE', #1, #9, #26, .T. ) ;
#81 = DIRECTION ( 'NONE',  ( 0.0000000000000000000, -1.000000000000000000, 0.0000000000000000000 ) ) ;
#82 = ORIENTED_EDGE ( 'NONE', *, *, #118, .F. ) ;
#83 = PRODUCT_DEFINITION_SHAPE ( 'NONE', 'NONE',  #121 ) ;
#84 = CYLINDRICAL_SURFACE ( 'NONE', #56, 7.125000000000000888 ) ;
#85 = EDGE_CURVE ( 'NONE', #201, #195, #181, .T. ) ;
#86 = ORIENTED_EDGE ( 'NONE', *, *, #48, .T. ) ;
#87 = DIRECTION ( 'NONE',  ( 1.000000000000000000, 0.0000000000000000000, 0.0000000000000000000 ) ) ;
#88 = ORIENTED_EDGE ( 'NONE', *, *, #118, .T. ) ;
#89 =( NAMED_UNIT ( * ) SI_UNIT ( $, .STERADIAN. ) SOLID_ANGLE_UNIT ( ) );
#90 = CARTESIAN_POINT ( 'NONE',  ( -5.960565261436688475E-16, 14.99999999999999822, 9.999999999999998224 ) ) ;
#91 = DIRECTION ( 'NONE',  ( -1.000000000000000000, -3.973710174291126020E-17, -0.0000000000000000000 ) ) ;
#92 = DIRECTION ( 'NONE',  ( -3.973710174291126020E-17, 1.000000000000000000, 0.0000000000000000000 ) ) ;
#93 = AXIS2_PLACEMENT_3D ( 'NONE', #214, #25, #81 ) ;
#94 = FILL_AREA_STYLE ('',( #172 ) ) ;
#95 = FACE_BOUND ( 'NONE', #99, .T. ) ;
#96 = CARTESIAN_POINT ( 'NONE',  ( 3.672172807970549346, 7.874999999999996447, 9.999999999999998224 ) ) ;
#97 = EDGE_CURVE ( 'NONE', #195, #209, #177, .T. ) ;
#98 = PRESENTATION_STYLE_ASSIGNMENT (( #141 ) ) ;
#99 = EDGE_LOOP ( 'NONE', ( #161, #54 ) ) ;
#100 = FACE_BOUND ( 'NONE', #59, .T. ) ;
#101 = ORIENTED_EDGE ( 'NONE', *, *, #65, .F. ) ;
#102 = EDGE_CURVE ( 'NONE', #9, #73, #68, .T. ) ;
#103 = DIRECTION ( 'NONE',  ( -0.4226182617406935016, -0.9063077870366527122, 0.0000000000000000000 ) ) ;
#104 = CARTESIAN_POINT ( 'NONE',  ( 3.672172807970549346, 7.874999999999996447, 9.999999999999998224 ) ) ;
#105 = AXIS2_PLACEMENT_3D ( 'NONE', #175, #60, #43 ) ;
#106 =( BOUNDED_CURVE ( )  B_SPLINE_CURVE ( 3, ( #11, #131, #186, #77 ),
 .UNSPECIFIED., .F., .T. ) 
 B_SPLINE_CURVE_WITH_KNOTS ( ( 4, 4 ),
 ( 0.0000000000000000000, 3.141592653589793116 ),
 .UNSPECIFIED. ) 
 CURVE ( )  GEOMETRIC_REPRESENTATION_ITEM ( )  RATIONAL_B_SPLINE_CURVE ( ( 1.000000000000000000, 0.3333333333333333703, 0.3333333333333333703, 1.000000000000000000 ) ) 
 REPRESENTATION_ITEM ( '' )  );
#107 = ADVANCED_FACE ( 'NONE', ( #140 ), #84, .T. ) ;
#108 =( LENGTH_UNIT ( ) NAMED_UNIT ( * ) SI_UNIT ( .MILLI., .METRE. ) );
#109 = CARTESIAN_POINT ( 'NONE',  ( -6.804978673473552208E-16, 17.12499999999999645, 9.999999999999998224 ) ) ;
#110 = AXIS2_PLACEMENT_3D ( 'NONE', #53, #197, #87 ) ;
#111 = VECTOR ( 'NONE', #58, 1000.000000000000000 ) ;
#112 = CARTESIAN_POINT ( 'NONE',  ( 7.985518645904212676, 17.12499999999999645, 14.24999999999999822 ) ) ;
#113 = EDGE_CURVE ( 'NONE', #152, #201, #106, .T. ) ;
#114 = PLANE ( 'NONE',  #28 ) ;
#115 = CARTESIAN_POINT ( 'NONE',  ( 0.0000000000000000000, 0.0000000000000000000, 20.00000000000000000 ) ) ;
#116 = ORIENTED_EDGE ( 'NONE', *, *, #85, .T. ) ;
#117 = SHAPE_DEFINITION_REPRESENTATION ( #83, #5 ) ;
#118 = EDGE_CURVE ( 'NONE', #1, #66, #150, .T. ) ;
#119 = VECTOR ( 'NONE', #144, 1000.000000000000000 ) ;
#120 = ORIENTED_EDGE ( 'NONE', *, *, #213, .F. ) ;
#121 = PRODUCT_DEFINITION ( 'UNKNOWN', '', #203, #170 ) ;
#122 =( NAMED_UNIT ( * ) PLANE_ANGLE_UNIT ( ) SI_UNIT ( $, .RADIAN. ) );
#123 = ADVANCED_FACE ( 'NONE', ( #95, #63 ), #10, .F. ) ;
#124 = DIRECTION ( 'NONE',  ( -1.000000000000000000, -3.973710174291126020E-17, 0.0000000000000000000 ) ) ;
#125 = EDGE_LOOP ( 'NONE', ( #71, #168, #206, #148 ) ) ;
#126 = DIRECTION ( 'NONE',  ( -1.000000000000000000, -3.973710174291126020E-17, -0.0000000000000000000 ) ) ;
#127 =( NAMED_UNIT ( * ) PLANE_ANGLE_UNIT ( ) SI_UNIT ( $, .RADIAN. ) );
#128 = CARTESIAN_POINT ( 'NONE',  ( -5.116151849399823757E-16, 12.87499999999999822, 9.999999999999998224 ) ) ;
#129 = CYLINDRICAL_SURFACE ( 'NONE', #38, 7.125000000000000888 ) ;
#130 = PRODUCT_RELATED_PRODUCT_CATEGORY ( 'part', '', ( #135 ) ) ;
#131 = CARTESIAN_POINT ( 'NONE',  ( 6.003711098745503350, 12.87500000000000000, 5.750000000000000000 ) ) ;
#132 = CARTESIAN_POINT ( 'NONE',  ( 6.003711098745503350, 12.87500000000000000, 14.24999999999999822 ) ) ;
#133 = ORIENTED_EDGE ( 'NONE', *, *, #192, .F. ) ;
#134 =( BOUNDED_CURVE ( )  B_SPLINE_CURVE ( 3, ( #24, #112, #132, #13 ),
 .UNSPECIFIED., .F., .T. ) 
 B_SPLINE_CURVE_WITH_KNOTS ( ( 4, 4 ),
 ( 3.141592653589793116, 6.283185307179586232 ),
 .UNSPECIFIED. ) 
 CURVE ( )  GEOMETRIC_REPRESENTATION_ITEM ( )  RATIONAL_B_SPLINE_CURVE ( ( 1.000000000000000000, 0.3333333333333333703, 0.3333333333333333703, 1.000000000000000000 ) ) 
 REPRESENTATION_ITEM ( '' )  );
#135 = PRODUCT ( 'Support_feux_usinage', 'Support_feux_usinage', '', ( #182 ) ) ;
#136 = CLOSED_SHELL ( 'NONE', ( #107, #183, #123, #35, #51, #167 ) ) ;
#137 = SURFACE_STYLE_FILL_AREA ( #151 ) ;
#138 = ORIENTED_EDGE ( 'NONE', *, *, #113, .F. ) ;
#139 = AXIS2_PLACEMENT_3D ( 'NONE', #20, #124, #6 ) ;
#140 = FACE_OUTER_BOUND ( 'NONE', #45, .T. ) ;
#141 = SURFACE_STYLE_USAGE ( .BOTH. , #34 ) ;
#142 = SURFACE_STYLE_USAGE ( .BOTH. , #39 ) ;
#143 = COLOUR_RGB ( '',0.7921568627450980005, 0.8196078431372548767, 0.9333333333333333481 ) ;
#144 = DIRECTION ( 'NONE',  ( -1.000000000000000000, -3.973710174291126020E-17, -0.0000000000000000000 ) ) ;
#145 = DIRECTION ( 'NONE',  ( 0.0000000000000000000, -1.000000000000000000, 0.0000000000000000000 ) ) ;
#146 = SURFACE_STYLE_FILL_AREA ( #94 ) ;
#147 = CARTESIAN_POINT ( 'NONE',  ( 10.31705693667916712, 22.12500000000000355, -4.250000000000001776 ) ) ;
#148 = ORIENTED_EDGE ( 'NONE', *, *, #194, .T. ) ;
#149 = CIRCLE ( 'NONE', #105, 7.125000000000000888 ) ;
#150 = LINE ( 'NONE', #205, #119 ) ;
#151 = FILL_AREA_STYLE ('',( #169 ) ) ;
#152 = VERTEX_POINT ( 'NONE', #55 ) ;
#153 = CARTESIAN_POINT ( 'NONE',  ( 13.98922974464972135, 14.99999999999999822, 9.999999999999998224 ) ) ;
#154 = DIRECTION ( 'NONE',  ( 3.973710174291126020E-17, -1.000000000000000000, 0.0000000000000000000 ) ) ;
#155 = EDGE_LOOP ( 'NONE', ( #173, #116, #30, #133 ) ) ;
#156 = CARTESIAN_POINT ( 'NONE',  ( 3.672172807970550235, 7.874999999999996447, -4.250000000000003553 ) ) ;
#157 = UNCERTAINTY_MEASURE_WITH_UNIT (LENGTH_MEASURE( 1.000000000000000082E-05 ), #108, 'distance_accuracy_value', 'NONE');
#158 = ORIENTED_EDGE ( 'NONE', *, *, #65, .T. ) ;
#159 = ORIENTED_EDGE ( 'NONE', *, *, #80, .T. ) ;
#160 = ORIENTED_EDGE ( 'NONE', *, *, #102, .F. ) ;
#161 = ORIENTED_EDGE ( 'NONE', *, *, #194, .F. ) ;
#162 = MANIFOLD_SOLID_BREP ( 'Enlèv. mat.-Extru.5', #136 ) ;
#163 = FACE_OUTER_BOUND ( 'NONE', #155, .T. ) ;
#164 = CIRCLE ( 'NONE', #139, 7.125000000000000888 ) ;
#165 = APPLICATION_PROTOCOL_DEFINITION ( 'draft international standard', 'automotive_design', 1998, #69 ) ;
#166 = ORIENTED_EDGE ( 'NONE', *, *, #48, .F. ) ;
#167 = ADVANCED_FACE ( 'NONE', ( #211 ), #129, .T. ) ;
#168 = ORIENTED_EDGE ( 'NONE', *, *, #74, .T. ) ;
#169 = FILL_AREA_STYLE_COLOUR ( '', #143 ) ;
#170 = PRODUCT_DEFINITION_CONTEXT ( 'detailed design', #69, 'design' ) ;
#171 = CARTESIAN_POINT ( 'NONE',  ( 13.99122974464972202, 14.99999999999999822, 9.999999999999998224 ) ) ;
#172 = FILL_AREA_STYLE_COLOUR ( '', #4 ) ;
#173 = ORIENTED_EDGE ( 'NONE', *, *, #113, .T. ) ;
#174 = CARTESIAN_POINT ( 'NONE',  ( -5.960565261436688475E-16, 14.99999999999999822, 9.999999999999998224 ) ) ;
#175 = CARTESIAN_POINT ( 'NONE',  ( -5.960565261436688475E-16, 14.99999999999999822, 9.999999999999998224 ) ) ;
#176 = CARTESIAN_POINT ( 'NONE',  ( 10.31705693667916712, 22.12499999999999645, 24.25000000000000000 ) ) ;
#177 = CIRCLE ( 'NONE', #62, 2.125000000000000000 ) ;
#178 = MECHANICAL_DESIGN_GEOMETRIC_PRESENTATION_REPRESENTATION (  '', ( #29 ), #196 ) ;
#179 = CARTESIAN_POINT ( 'NONE',  ( 10.31705693667916712, 22.12500000000000000, 10.00000000000000000 ) ) ;
#180 = ORIENTED_EDGE ( 'NONE', *, *, #213, .T. ) ;
#181 = LINE ( 'NONE', #189, #111 ) ;
#182 = PRODUCT_CONTEXT ( 'NONE', #52, 'mechanical' ) ;
#183 = ADVANCED_FACE ( 'NONE', ( #163 ), #212, .F. ) ;
#184 = DIRECTION ( 'NONE',  ( -1.000000000000000000, -3.973710174291126020E-17, 0.0000000000000000000 ) ) ;
#185 = EDGE_LOOP ( 'NONE', ( #158, #180 ) ) ;
#186 = CARTESIAN_POINT ( 'NONE',  ( 7.985518645904212676, 17.12499999999999645, 5.750000000000000000 ) ) ;
#187 = CARTESIAN_POINT ( 'NONE',  ( 13.98922974464972135, 14.99999999999999822, 9.999999999999998224 ) ) ;
#188 = CYLINDRICAL_SURFACE ( 'NONE', #93, 2.125000000000000000 ) ;
#189 = CARTESIAN_POINT ( 'NONE',  ( 13.99122974464972202, 17.12499999999999645, 9.999999999999998224 ) ) ;
#190 = AXIS2_PLACEMENT_3D ( 'NONE', #23, #204, #92 ) ;
#191 = CARTESIAN_POINT ( 'NONE',  ( -8.791833760619115033E-16, 22.12500000000000000, 10.00000000000000000 ) ) ;
#192 = EDGE_CURVE ( 'NONE', #152, #209, #32, .T. ) ;
#193 = VECTOR ( 'NONE', #207, 1000.000000000000000 ) ;
#194 = EDGE_CURVE ( 'NONE', #209, #195, #40, .T. ) ;
#195 = VERTEX_POINT ( 'NONE', #109 ) ;
#196 =( GEOMETRIC_REPRESENTATION_CONTEXT ( 3 ) GLOBAL_UNCERTAINTY_ASSIGNED_CONTEXT ( ( #33 ) ) GLOBAL_UNIT_ASSIGNED_CONTEXT ( ( #22, #127, #8 ) ) REPRESENTATION_CONTEXT ( 'NONE', 'WORKASPACE' ) );
#197 = DIRECTION ( 'NONE',  ( 0.0000000000000000000, 0.0000000000000000000, 1.000000000000000000 ) ) ;
#198 =( NAMED_UNIT ( * ) PLANE_ANGLE_UNIT ( ) SI_UNIT ( $, .RADIAN. ) );
#199 =( BOUNDED_CURVE ( )  B_SPLINE_CURVE ( 3, ( #96, #210, #176, #61 ),
 .UNSPECIFIED., .F., .T. ) 
 B_SPLINE_CURVE_WITH_KNOTS ( ( 4, 4 ),
 ( 0.0000000000000000000, 3.141592653589793116 ),
 .UNSPECIFIED. ) 
 CURVE ( )  GEOMETRIC_REPRESENTATION_ITEM ( )  RATIONAL_B_SPLINE_CURVE ( ( 1.000000000000000000, 0.3333333333333333703, 0.3333333333333333703, 1.000000000000000000 ) ) 
 REPRESENTATION_ITEM ( '' )  );
#200 = EDGE_LOOP ( 'NONE', ( #166, #2 ) ) ;
#201 = VERTEX_POINT ( 'NONE', #7 ) ;
#202 = DIRECTION ( 'NONE',  ( 0.0000000000000000000, -1.000000000000000000, 0.0000000000000000000 ) ) ;
#203 = PRODUCT_DEFINITION_FORMATION_WITH_SPECIFIED_SOURCE ( 'ANY', '', #135, .NOT_KNOWN. ) ;
#204 = DIRECTION ( 'NONE',  ( 1.000000000000000000, 3.973710174291126020E-17, -0.0000000000000000000 ) ) ;
#205 = CARTESIAN_POINT ( 'NONE',  ( 13.98922974464972135, 22.12500000000000000, 10.00000000000000000 ) ) ;
#206 = ORIENTED_EDGE ( 'NONE', *, *, #192, .T. ) ;
#207 = DIRECTION ( 'NONE',  ( -1.000000000000000000, -3.973710174291126020E-17, -0.0000000000000000000 ) ) ;
#208 = CARTESIAN_POINT ( 'NONE',  ( -3.129296762254260439E-16, 7.874999999999996447, 9.999999999999998224 ) ) ;
#209 = VERTEX_POINT ( 'NONE', #128 ) ;
#210 = CARTESIAN_POINT ( 'NONE',  ( 3.672172807970550235, 7.874999999999996447, 24.25000000000000000 ) ) ;
#211 = FACE_OUTER_BOUND ( 'NONE', #36, .T. ) ;
#212 = CYLINDRICAL_SURFACE ( 'NONE', #17, 2.125000000000000000 ) ;
#213 = EDGE_CURVE ( 'NONE', #66, #73, #164, .T. ) ;
#214 = CARTESIAN_POINT ( 'NONE',  ( 13.99122974464972202, 14.99999999999999822, 9.999999999999998224 ) ) ;
ENDSEC;
END-ISO-10303-21;
