ISO-10303-21;
HEADER;
FILE_DESCRIPTION (( 'STEP AP214' ),
    '1' );
FILE_NAME ('Lame de coupe.STEP',
    '2019-06-11T13:47:54',
    ( '' ),
    ( '' ),
    'SwSTEP 2.0',
    'SolidWorks 2014',
    '' );
FILE_SCHEMA (( 'AUTOMOTIVE_DESIGN' ));
ENDSEC;

DATA;
#1 = PLANE ( 'NONE',  #197 ) ;
#2 = ORIENTED_EDGE ( 'NONE', *, *, #189, .F. ) ;
#3 =( GEOMETRIC_REPRESENTATION_CONTEXT ( 3 ) GLOBAL_UNCERTAINTY_ASSIGNED_CONTEXT ( ( #273 ) ) GLOBAL_UNIT_ASSIGNED_CONTEXT ( ( #77, #186, #233 ) ) REPRESENTATION_CONTEXT ( 'NONE', 'WORKASPACE' ) );
#4 = CARTESIAN_POINT ( 'NONE',  ( 6.000000000000000000, -6.000000000000000000, 0.0000000000000000000 ) ) ;
#5 = ADVANCED_FACE ( 'NONE', ( #31 ), #91, .F. ) ;
#6 = VECTOR ( 'NONE', #203, 1000.000000000000000 ) ;
#7 = DIRECTION ( 'NONE',  ( 0.0000000000000000000, 0.0000000000000000000, -1.000000000000000000 ) ) ;
#8 = ORIENTED_EDGE ( 'NONE', *, *, #165, .T. ) ;
#9 = ORIENTED_EDGE ( 'NONE', *, *, #146, .F. ) ;
#10 = VECTOR ( 'NONE', #235, 1000.000000000000000 ) ;
#11 = EDGE_LOOP ( 'NONE', ( #27, #90, #145, #66 ) ) ;
#12 = PRODUCT_DEFINITION ( 'UNKNOWN', '', #76, #256 ) ;
#13 = LINE ( 'NONE', #175, #167 ) ;
#14 = VERTEX_POINT ( 'NONE', #259 ) ;
#15 = DIRECTION ( 'NONE',  ( 0.9286830669316111800, -0.3708743199447712100, 0.0000000000000000000 ) ) ;
#16 = CARTESIAN_POINT ( 'NONE',  ( 59.03733979976226500, -21.88158487674151700, 1.000000000000000000 ) ) ;
#17 = VECTOR ( 'NONE', #265, 1000.000000000000000 ) ;
#18 = UNCERTAINTY_MEASURE_WITH_UNIT (LENGTH_MEASURE( 1.000000000000000100E-005 ), #88, 'distance_accuracy_value', 'NONE');
#19 = ORIENTED_EDGE ( 'NONE', *, *, #254, .F. ) ;
#20 = EDGE_CURVE ( 'NONE', #111, #216, #277, .T. ) ;
#21 = LINE ( 'NONE', #34, #179 ) ;
#22 = DIRECTION ( 'NONE',  ( -0.0000000000000000000, -0.0000000000000000000, -1.000000000000000000 ) ) ;
#23 =( NAMED_UNIT ( * ) SI_UNIT ( $, .STERADIAN. ) SOLID_ANGLE_UNIT ( ) );
#24 = CARTESIAN_POINT ( 'NONE',  ( 4.245038850797154600, -7.703719777548943400E-031, 1.000000000000000000 ) ) ;
#25 = ORIENTED_EDGE ( 'NONE', *, *, #189, .T. ) ;
#26 = PLANE ( 'NONE',  #109 ) ;
#27 = ORIENTED_EDGE ( 'NONE', *, *, #20, .T. ) ;
#28 =( NAMED_UNIT ( * ) PLANE_ANGLE_UNIT ( ) SI_UNIT ( $, .RADIAN. ) );
#29 = CARTESIAN_POINT ( 'NONE',  ( 59.03733979976226500, -35.88158487674151300, 1.000000000000000000 ) ) ;
#30 = EDGE_CURVE ( 'NONE', #137, #295, #33, .T. ) ;
#31 = FACE_OUTER_BOUND ( 'NONE', #141, .T. ) ;
#32 = LINE ( 'NONE', #48, #296 ) ;
#33 = LINE ( 'NONE', #129, #79 ) ;
#34 = CARTESIAN_POINT ( 'NONE',  ( 6.000000000000000000, -15.00000000000000000, 1.000000000000000000 ) ) ;
#35 = EDGE_CURVE ( 'NONE', #14, #279, #84, .T. ) ;
#36 = VECTOR ( 'NONE', #291, 1000.000000000000000 ) ;
#37 = VECTOR ( 'NONE', #225, 1000.000000000000100 ) ;
#38 = LINE ( 'NONE', #147, #190 ) ;
#39 = LINE ( 'NONE', #40, #226 ) ;
#40 = CARTESIAN_POINT ( 'NONE',  ( 59.03733979976226500, -21.88158487674151700, 0.0000000000000000000 ) ) ;
#41 = ORIENTED_EDGE ( 'NONE', *, *, #65, .T. ) ;
#42 =( GEOMETRIC_REPRESENTATION_CONTEXT ( 3 ) GLOBAL_UNCERTAINTY_ASSIGNED_CONTEXT ( ( #18 ) ) GLOBAL_UNIT_ASSIGNED_CONTEXT ( ( #88, #152, #230 ) ) REPRESENTATION_CONTEXT ( 'NONE', 'WORKASPACE' ) );
#43 = CARTESIAN_POINT ( 'NONE',  ( 59.03733979976226500, -35.88158487674151300, 1.000000000000000000 ) ) ;
#44 = LINE ( 'NONE', #29, #161 ) ;
#45 = ORIENTED_EDGE ( 'NONE', *, *, #201, .F. ) ;
#46 = PRODUCT_DEFINITION_SHAPE ( 'NONE', 'NONE',  #12 ) ;
#47 = ORIENTED_EDGE ( 'NONE', *, *, #113, .F. ) ;
#48 = CARTESIAN_POINT ( 'NONE',  ( 4.245038850797154600, -7.703719777548943400E-031, 1.000000000000000000 ) ) ;
#49 = EDGE_CURVE ( 'NONE', #279, #216, #133, .T. ) ;
#50 = CARTESIAN_POINT ( 'NONE',  ( 59.03733979976226500, -21.88158487674151700, 1.000000000000000000 ) ) ;
#51 = CARTESIAN_POINT ( 'NONE',  ( 6.000000000000000000, -15.00000000000000000, 1.000000000000000000 ) ) ;
#52 = LINE ( 'NONE', #140, #178 ) ;
#53 = ORIENTED_EDGE ( 'NONE', *, *, #285, .F. ) ;
#54 = DIRECTION ( 'NONE',  ( -0.0000000000000000000, -0.0000000000000000000, -1.000000000000000000 ) ) ;
#55 = SHAPE_DEFINITION_REPRESENTATION ( #46, #173 ) ;
#56 = DIRECTION ( 'NONE',  ( -0.0000000000000000000, -1.000000000000000000, -0.0000000000000000000 ) ) ;
#57 = ORIENTED_EDGE ( 'NONE', *, *, #224, .T. ) ;
#58 = FILL_AREA_STYLE ('',( #117 ) ) ;
#59 = ADVANCED_FACE ( 'NONE', ( #119 ), #237, .T. ) ;
#60 = DIRECTION ( 'NONE',  ( 1.000000000000000000, -0.0000000000000000000, -0.0000000000000000000 ) ) ;
#61 = SURFACE_SIDE_STYLE ('',( #275 ) ) ;
#62 = ADVANCED_FACE ( 'NONE', ( #227 ), #251, .F. ) ;
#63 = FACE_OUTER_BOUND ( 'NONE', #258, .T. ) ;
#64 = CARTESIAN_POINT ( 'NONE',  ( 4.245038850797154600, -7.703719777548943400E-031, 0.0000000000000000000 ) ) ;
#65 = EDGE_CURVE ( 'NONE', #279, #162, #101, .T. ) ;
#66 = ORIENTED_EDGE ( 'NONE', *, *, #285, .T. ) ;
#67 = ORIENTED_EDGE ( 'NONE', *, *, #165, .F. ) ;
#68 = PLANE ( 'NONE',  #171 ) ;
#69 = ORIENTED_EDGE ( 'NONE', *, *, #240, .T. ) ;
#70 = CARTESIAN_POINT ( 'NONE',  ( 0.0000000000000000000, 0.0000000000000000000, 1.000000000000000000 ) ) ;
#71 = ORIENTED_EDGE ( 'NONE', *, *, #92, .F. ) ;
#72 = ORIENTED_EDGE ( 'NONE', *, *, #271, .T. ) ;
#73 = DIRECTION ( 'NONE',  ( 0.0000000000000000000, 0.0000000000000000000, -1.000000000000000000 ) ) ;
#74 = ORIENTED_EDGE ( 'NONE', *, *, #30, .T. ) ;
#75 = DIRECTION ( 'NONE',  ( -0.0000000000000000000, -0.0000000000000000000, -1.000000000000000000 ) ) ;
#76 = PRODUCT_DEFINITION_FORMATION_WITH_SPECIFIED_SOURCE ( 'ANY', '', #202, .NOT_KNOWN. ) ;
#77 =( LENGTH_UNIT ( ) NAMED_UNIT ( * ) SI_UNIT ( .MILLI., .METRE. ) );
#78 = SURFACE_STYLE_FILL_AREA ( #268 ) ;
#79 = VECTOR ( 'NONE', #181, 1000.000000000000000 ) ;
#80 = CARTESIAN_POINT ( 'NONE',  ( 4.245038850797154600, -7.703719777548943400E-031, 0.0000000000000000000 ) ) ;
#81 = EDGE_CURVE ( 'NONE', #102, #120, #38, .T. ) ;
#82 = UNCERTAINTY_MEASURE_WITH_UNIT (LENGTH_MEASURE( 1.000000000000000100E-005 ), #246, 'distance_accuracy_value', 'NONE');
#83 = EDGE_LOOP ( 'NONE', ( #8, #71, #2, #57 ) ) ;
#84 = LINE ( 'NONE', #70, #215 ) ;
#85 = ORIENTED_EDGE ( 'NONE', *, *, #35, .T. ) ;
#86 = VERTEX_POINT ( 'NONE', #142 ) ;
#87 = AXIS2_PLACEMENT_3D ( 'NONE', #132, #7, #194 ) ;
#88 =( LENGTH_UNIT ( ) NAMED_UNIT ( * ) SI_UNIT ( .MILLI., .METRE. ) );
#89 = APPLICATION_CONTEXT ( 'automotive_design' ) ;
#90 = ORIENTED_EDGE ( 'NONE', *, *, #49, .F. ) ;
#91 = PLANE ( 'NONE',  #134 ) ;
#92 = EDGE_CURVE ( 'NONE', #192, #86, #267, .T. ) ;
#93 = VECTOR ( 'NONE', #54, 1000.000000000000000 ) ;
#94 = MECHANICAL_DESIGN_GEOMETRIC_PRESENTATION_REPRESENTATION (  '', ( #229 ), #42 ) ;
#95 = CARTESIAN_POINT ( 'NONE',  ( 0.0000000000000000000, -6.000000000000000000, 0.0000000000000000000 ) ) ;
#96 = PLANE ( 'NONE',  #266 ) ;
#97 = FACE_OUTER_BOUND ( 'NONE', #209, .T. ) ;
#98 = DIRECTION ( 'NONE',  ( 1.000000000000000000, 0.0000000000000000000, 0.0000000000000000000 ) ) ;
#99 = CARTESIAN_POINT ( 'NONE',  ( 0.0000000000000000000, 0.0000000000000000000, 1.000000000000000000 ) ) ;
#100 = CARTESIAN_POINT ( 'NONE',  ( 59.03733979976226500, -35.88158487674151300, 0.0000000000000000000 ) ) ;
#101 = LINE ( 'NONE', #263, #293 ) ;
#102 = VERTEX_POINT ( 'NONE', #278 ) ;
#103 = DIRECTION ( 'NONE',  ( 0.0000000000000000000, 0.0000000000000000000, 1.000000000000000000 ) ) ;
#104 = ORIENTED_EDGE ( 'NONE', *, *, #130, .F. ) ;
#105 = PLANE ( 'NONE',  #262 ) ;
#106 = DIRECTION ( 'NONE',  ( -0.9304796456098634000, 0.3663435943287982100, 0.0000000000000000000 ) ) ;
#107 = VERTEX_POINT ( 'NONE', #248 ) ;
#108 = DIRECTION ( 'NONE',  ( 0.0000000000000000000, 1.000000000000000000, -0.0000000000000000000 ) ) ;
#109 = AXIS2_PLACEMENT_3D ( 'NONE', #50, #188, #301 ) ;
#110 = LINE ( 'NONE', #206, #264 ) ;
#111 = VERTEX_POINT ( 'NONE', #64 ) ;
#112 = EDGE_LOOP ( 'NONE', ( #74, #184, #228, #176 ) ) ;
#113 = EDGE_CURVE ( 'NONE', #272, #107, #21, .T. ) ;
#114 = DIRECTION ( 'NONE',  ( -1.814758368136560400E-031, -1.000000000000000000, 0.0000000000000000000 ) ) ;
#115 = VECTOR ( 'NONE', #286, 1000.000000000000000 ) ;
#116 = ORIENTED_EDGE ( 'NONE', *, *, #92, .T. ) ;
#117 = FILL_AREA_STYLE_COLOUR ( '', #242 ) ;
#118 = FACE_OUTER_BOUND ( 'NONE', #168, .T. ) ;
#119 = FACE_OUTER_BOUND ( 'NONE', #260, .T. ) ;
#120 = VERTEX_POINT ( 'NONE', #4 ) ;
#121 = ADVANCED_FACE ( 'NONE', ( #172 ), #105, .F. ) ;
#122 = DIRECTION ( 'NONE',  ( -0.0000000000000000000, -1.000000000000000000, -0.0000000000000000000 ) ) ;
#123 = APPLICATION_CONTEXT ( 'automotive_design' ) ;
#124 = ORIENTED_EDGE ( 'NONE', *, *, #240, .F. ) ;
#125 = AXIS2_PLACEMENT_3D ( 'NONE', #281, #177, #106 ) ;
#126 = APPLICATION_PROTOCOL_DEFINITION ( 'draft international standard', 'automotive_design', 1998, #123 ) ;
#127 = ORIENTED_EDGE ( 'NONE', *, *, #254, .T. ) ;
#128 = CLOSED_SHELL ( 'NONE', ( #231, #153, #212, #62, #252, #5, #249, #121, #59 ) ) ;
#129 = CARTESIAN_POINT ( 'NONE',  ( 59.03733979976226500, -35.88158487674151300, 0.0000000000000000000 ) ) ;
#130 = EDGE_CURVE ( 'NONE', #120, #137, #13, .T. ) ;
#131 = ORIENTED_EDGE ( 'NONE', *, *, #299, .F. ) ;
#132 = CARTESIAN_POINT ( 'NONE',  ( 0.0000000000000000000, 0.0000000000000000000, 0.0000000000000000000 ) ) ;
#133 = LINE ( 'NONE', #261, #10 ) ;
#134 = AXIS2_PLACEMENT_3D ( 'NONE', #24, #182, #15 ) ;
#135 = DIRECTION ( 'NONE',  ( -0.0000000000000000000, 1.000000000000000000, -0.0000000000000000000 ) ) ;
#136 = ORIENTED_EDGE ( 'NONE', *, *, #81, .T. ) ;
#137 = VERTEX_POINT ( 'NONE', #253 ) ;
#138 = CARTESIAN_POINT ( 'NONE',  ( 59.03733979976226500, -35.88158487674151300, 1.000000000000000000 ) ) ;
#139 = DIRECTION ( 'NONE',  ( 1.000000000000000000, -1.814758368136560400E-031, 0.0000000000000000000 ) ) ;
#140 = CARTESIAN_POINT ( 'NONE',  ( 0.0000000000000000000, -6.000000000000000000, 1.000000000000000000 ) ) ;
#141 = EDGE_LOOP ( 'NONE', ( #127, #53, #300, #116 ) ) ;
#142 = CARTESIAN_POINT ( 'NONE',  ( 59.03733979976226500, -21.88158487674151700, 0.0000000000000000000 ) ) ;
#143 = ORIENTED_EDGE ( 'NONE', *, *, #217, .F. ) ;
#144 = DIRECTION ( 'NONE',  ( 0.0000000000000000000, 0.0000000000000000000, -1.000000000000000000 ) ) ;
#145 = ORIENTED_EDGE ( 'NONE', *, *, #35, .F. ) ;
#146 = EDGE_CURVE ( 'NONE', #162, #272, #287, .T. ) ;
#147 = CARTESIAN_POINT ( 'NONE',  ( 6.000000000000000000, -6.000000000000000000, 0.0000000000000000000 ) ) ;
#148 = DIRECTION ( 'NONE',  ( 1.000000000000000000, 0.0000000000000000000, 0.0000000000000000000 ) ) ;
#149 = COLOUR_RGB ( '',0.7529411764705882200, 0.7529411764705882200, 0.7529411764705882200 ) ;
#150 = CARTESIAN_POINT ( 'NONE',  ( 0.0000000000000000000, -6.000000000000000000, 1.000000000000000000 ) ) ;
#151 = AXIS2_PLACEMENT_3D ( 'NONE', #99, #114, #139 ) ;
#152 =( NAMED_UNIT ( * ) PLANE_ANGLE_UNIT ( ) SI_UNIT ( $, .RADIAN. ) );
#153 = ADVANCED_FACE ( 'NONE', ( #118 ), #68, .F. ) ;
#154 = DIRECTION ( 'NONE',  ( 0.0000000000000000000, 0.0000000000000000000, 1.000000000000000000 ) ) ;
#155 = LINE ( 'NONE', #16, #115 ) ;
#156 = ORIENTED_EDGE ( 'NONE', *, *, #299, .T. ) ;
#157 = PRESENTATION_LAYER_ASSIGNMENT (  '', '', ( #219 ) ) ;
#158 = CARTESIAN_POINT ( 'NONE',  ( 59.03733979976226500, -21.88158487674151700, 1.000000000000000000 ) ) ;
#159 = ORIENTED_EDGE ( 'NONE', *, *, #20, .F. ) ;
#160 = DIRECTION ( 'NONE',  ( -0.9286830669316111800, 0.3708743199447711600, -0.0000000000000000000 ) ) ;
#161 = VECTOR ( 'NONE', #223, 1000.000000000000000 ) ;
#162 = VERTEX_POINT ( 'NONE', #150 ) ;
#163 = FILL_AREA_STYLE_COLOUR ( '', #149 ) ;
#164 = SURFACE_SIDE_STYLE ('',( #78 ) ) ;
#165 = EDGE_CURVE ( 'NONE', #295, #86, #39, .T. ) ;
#166 = LINE ( 'NONE', #95, #6 ) ;
#167 = VECTOR ( 'NONE', #122, 1000.000000000000000 ) ;
#168 = EDGE_LOOP ( 'NONE', ( #136, #143, #9, #69 ) ) ;
#169 = CARTESIAN_POINT ( 'NONE',  ( 6.000000000000000000, -6.000000000000000000, 1.000000000000000000 ) ) ;
#170 = FACE_OUTER_BOUND ( 'NONE', #11, .T. ) ;
#171 = AXIS2_PLACEMENT_3D ( 'NONE', #290, #108, #154 ) ;
#172 = FACE_OUTER_BOUND ( 'NONE', #297, .T. ) ;
#173 = ADVANCED_BREP_SHAPE_REPRESENTATION ( 'Lame de coupe', ( #220, #294 ), #3 ) ;
#174 = VECTOR ( 'NONE', #160, 1000.000000000000100 ) ;
#175 = CARTESIAN_POINT ( 'NONE',  ( 6.000000000000000000, -15.00000000000000000, 0.0000000000000000000 ) ) ;
#176 = ORIENTED_EDGE ( 'NONE', *, *, #201, .T. ) ;
#177 = DIRECTION ( 'NONE',  ( 0.3663435943287982100, 0.9304796456098634000, -0.0000000000000000000 ) ) ;
#178 = VECTOR ( 'NONE', #244, 1000.000000000000000 ) ;
#179 = VECTOR ( 'NONE', #56, 1000.000000000000000 ) ;
#180 = DIRECTION ( 'NONE',  ( 1.000000000000000000, -0.0000000000000000000, -0.0000000000000000000 ) ) ;
#181 = DIRECTION ( 'NONE',  ( 0.9304796456098634000, -0.3663435943287981500, -0.0000000000000000000 ) ) ;
#182 = DIRECTION ( 'NONE',  ( -0.3708743199447712700, -0.9286830669316112900, 0.0000000000000000000 ) ) ;
#183 = CARTESIAN_POINT ( 'NONE',  ( 0.0000000000000000000, 0.0000000000000000000, 0.0000000000000000000 ) ) ;
#184 = ORIENTED_EDGE ( 'NONE', *, *, #224, .F. ) ;
#185 = PRESENTATION_STYLE_ASSIGNMENT (( #196 ) ) ;
#186 =( NAMED_UNIT ( * ) PLANE_ANGLE_UNIT ( ) SI_UNIT ( $, .RADIAN. ) );
#187 = ORIENTED_EDGE ( 'NONE', *, *, #113, .T. ) ;
#188 = DIRECTION ( 'NONE',  ( -1.000000000000000000, 0.0000000000000000000, 0.0000000000000000000 ) ) ;
#189 = EDGE_CURVE ( 'NONE', #193, #192, #155, .T. ) ;
#190 = VECTOR ( 'NONE', #60, 1000.000000000000000 ) ;
#191 = CARTESIAN_POINT ( 'NONE',  ( 0.0000000000000000000, 0.0000000000000000000, 0.0000000000000000000 ) ) ;
#192 = VERTEX_POINT ( 'NONE', #236 ) ;
#193 = VERTEX_POINT ( 'NONE', #43 ) ;
#194 = DIRECTION ( 'NONE',  ( -1.000000000000000000, 0.0000000000000000000, -0.0000000000000000000 ) ) ;
#195 = APPLICATION_PROTOCOL_DEFINITION ( 'draft international standard', 'automotive_design', 1998, #89 ) ;
#196 = SURFACE_STYLE_USAGE ( .BOTH. , #61 ) ;
#197 = AXIS2_PLACEMENT_3D ( 'NONE', #51, #247, #73 ) ;
#198 = DIRECTION ( 'NONE',  ( -1.000000000000000000, 1.814758368136560400E-031, -0.0000000000000000000 ) ) ;
#199 = DIRECTION ( 'NONE',  ( -0.0000000000000000000, -1.000000000000000000, -0.0000000000000000000 ) ) ;
#200 = LINE ( 'NONE', #138, #232 ) ;
#201 = EDGE_CURVE ( 'NONE', #107, #137, #204, .T. ) ;
#202 = PRODUCT ( 'Lame de coupe', 'Lame de coupe', '', ( #214 ) ) ;
#203 = DIRECTION ( 'NONE',  ( -0.0000000000000000000, -1.000000000000000000, -0.0000000000000000000 ) ) ;
#204 = LINE ( 'NONE', #282, #17 ) ;
#205 = ORIENTED_EDGE ( 'NONE', *, *, #217, .T. ) ;
#206 = CARTESIAN_POINT ( 'NONE',  ( 6.000000000000000000, -6.000000000000000000, 1.000000000000000000 ) ) ;
#207 = MECHANICAL_DESIGN_GEOMETRIC_PRESENTATION_REPRESENTATION (  '', ( #219 ), #234 ) ;
#208 = ORIENTED_EDGE ( 'NONE', *, *, #130, .T. ) ;
#209 = EDGE_LOOP ( 'NONE', ( #208, #45, #47, #205 ) ) ;
#210 = DIRECTION ( 'NONE',  ( -1.000000000000000000, 0.0000000000000000000, -0.0000000000000000000 ) ) ;
#211 = EDGE_CURVE ( 'NONE', #192, #14, #213, .T. ) ;
#212 = ADVANCED_FACE ( 'NONE', ( #97 ), #1, .F. ) ;
#213 = LINE ( 'NONE', #218, #174 ) ;
#214 = PRODUCT_CONTEXT ( 'NONE', #123, 'mechanical' ) ;
#215 = VECTOR ( 'NONE', #198, 1000.000000000000000 ) ;
#216 = VERTEX_POINT ( 'NONE', #183 ) ;
#217 = EDGE_CURVE ( 'NONE', #272, #120, #110, .T. ) ;
#218 = CARTESIAN_POINT ( 'NONE',  ( 4.245038850797154600, -7.703719777548943400E-031, 1.000000000000000000 ) ) ;
#219 = STYLED_ITEM ( 'NONE', ( #239 ), #220 ) ;
#220 = MANIFOLD_SOLID_BREP ( 'Boss.-Extru.1', #128 ) ;
#221 = ORIENTED_EDGE ( 'NONE', *, *, #49, .T. ) ;
#222 = SURFACE_STYLE_USAGE ( .BOTH. , #164 ) ;
#223 = DIRECTION ( 'NONE',  ( 0.9304796456098634000, -0.3663435943287981500, -0.0000000000000000000 ) ) ;
#224 = EDGE_CURVE ( 'NONE', #193, #295, #200, .T. ) ;
#225 = DIRECTION ( 'NONE',  ( -0.9286830669316111800, 0.3708743199447711600, -0.0000000000000000000 ) ) ;
#226 = VECTOR ( 'NONE', #135, 1000.000000000000000 ) ;
#227 = FACE_OUTER_BOUND ( 'NONE', #112, .T. ) ;
#228 = ORIENTED_EDGE ( 'NONE', *, *, #271, .F. ) ;
#229 = STYLED_ITEM ( 'NONE', ( #185 ), #173 ) ;
#230 =( NAMED_UNIT ( * ) SI_UNIT ( $, .STERADIAN. ) SOLID_ANGLE_UNIT ( ) );
#231 = ADVANCED_FACE ( 'NONE', ( #63 ), #96, .F. ) ;
#232 = VECTOR ( 'NONE', #22, 1000.000000000000000 ) ;
#233 =( NAMED_UNIT ( * ) SI_UNIT ( $, .STERADIAN. ) SOLID_ANGLE_UNIT ( ) );
#234 =( GEOMETRIC_REPRESENTATION_CONTEXT ( 3 ) GLOBAL_UNCERTAINTY_ASSIGNED_CONTEXT ( ( #82 ) ) GLOBAL_UNIT_ASSIGNED_CONTEXT ( ( #246, #28, #23 ) ) REPRESENTATION_CONTEXT ( 'NONE', 'WORKASPACE' ) );
#235 = DIRECTION ( 'NONE',  ( -0.0000000000000000000, -0.0000000000000000000, -1.000000000000000000 ) ) ;
#236 = CARTESIAN_POINT ( 'NONE',  ( 59.03733979976226500, -21.88158487674151700, 1.000000000000000000 ) ) ;
#237 = PLANE ( 'NONE',  #87 ) ;
#238 = ORIENTED_EDGE ( 'NONE', *, *, #146, .T. ) ;
#239 = PRESENTATION_STYLE_ASSIGNMENT (( #222 ) ) ;
#240 = EDGE_CURVE ( 'NONE', #162, #102, #52, .T. ) ;
#241 = PRESENTATION_LAYER_ASSIGNMENT (  '', '', ( #229 ) ) ;
#242 = COLOUR_RGB ( '',0.7529411764705882200, 0.7529411764705882200, 0.7529411764705882200 ) ;
#243 = ORIENTED_EDGE ( 'NONE', *, *, #211, .T. ) ;
#244 = DIRECTION ( 'NONE',  ( -0.0000000000000000000, -0.0000000000000000000, -1.000000000000000000 ) ) ;
#245 = PLANE ( 'NONE',  #151 ) ;
#246 =( LENGTH_UNIT ( ) NAMED_UNIT ( * ) SI_UNIT ( .MILLI., .METRE. ) );
#247 = DIRECTION ( 'NONE',  ( 1.000000000000000000, 0.0000000000000000000, 0.0000000000000000000 ) ) ;
#248 = CARTESIAN_POINT ( 'NONE',  ( 6.000000000000000000, -15.00000000000000000, 1.000000000000000000 ) ) ;
#249 = ADVANCED_FACE ( 'NONE', ( #170 ), #245, .F. ) ;
#250 = CARTESIAN_POINT ( 'NONE',  ( 0.0000000000000000000, 0.0000000000000000000, 1.000000000000000000 ) ) ;
#251 = PLANE ( 'NONE',  #125 ) ;
#252 = ADVANCED_FACE ( 'NONE', ( #284 ), #26, .F. ) ;
#253 = CARTESIAN_POINT ( 'NONE',  ( 6.000000000000000000, -15.00000000000000000, 0.0000000000000000000 ) ) ;
#254 = EDGE_CURVE ( 'NONE', #86, #111, #292, .T. ) ;
#255 = ORIENTED_EDGE ( 'NONE', *, *, #81, .F. ) ;
#256 = PRODUCT_DEFINITION_CONTEXT ( 'detailed design', #89, 'design' ) ;
#257 = PRODUCT_RELATED_PRODUCT_CATEGORY ( 'part', '', ( #202 ) ) ;
#258 = EDGE_LOOP ( 'NONE', ( #156, #124, #288, #221 ) ) ;
#259 = CARTESIAN_POINT ( 'NONE',  ( 4.245038850797154600, -7.703719777548943400E-031, 1.000000000000000000 ) ) ;
#260 = EDGE_LOOP ( 'NONE', ( #131, #159, #19, #67, #280, #104, #255 ) ) ;
#261 = CARTESIAN_POINT ( 'NONE',  ( 0.0000000000000000000, 0.0000000000000000000, 1.000000000000000000 ) ) ;
#262 = AXIS2_PLACEMENT_3D ( 'NONE', #250, #144, #210 ) ;
#263 = CARTESIAN_POINT ( 'NONE',  ( 0.0000000000000000000, -6.000000000000000000, 1.000000000000000000 ) ) ;
#264 = VECTOR ( 'NONE', #274, 1000.000000000000000 ) ;
#265 = DIRECTION ( 'NONE',  ( -0.0000000000000000000, -0.0000000000000000000, -1.000000000000000000 ) ) ;
#266 = AXIS2_PLACEMENT_3D ( 'NONE', #269, #98, #270 ) ;
#267 = LINE ( 'NONE', #158, #93 ) ;
#268 = FILL_AREA_STYLE ('',( #163 ) ) ;
#269 = CARTESIAN_POINT ( 'NONE',  ( 0.0000000000000000000, -6.000000000000000000, 1.000000000000000000 ) ) ;
#270 = DIRECTION ( 'NONE',  ( 0.0000000000000000000, 0.0000000000000000000, -1.000000000000000000 ) ) ;
#271 = EDGE_CURVE ( 'NONE', #107, #193, #44, .T. ) ;
#272 = VERTEX_POINT ( 'NONE', #169 ) ;
#273 = UNCERTAINTY_MEASURE_WITH_UNIT (LENGTH_MEASURE( 1.000000000000000100E-005 ), #77, 'distance_accuracy_value', 'NONE');
#274 = DIRECTION ( 'NONE',  ( -0.0000000000000000000, -0.0000000000000000000, -1.000000000000000000 ) ) ;
#275 = SURFACE_STYLE_FILL_AREA ( #58 ) ;
#276 = VECTOR ( 'NONE', #180, 1000.000000000000000 ) ;
#277 = LINE ( 'NONE', #289, #36 ) ;
#278 = CARTESIAN_POINT ( 'NONE',  ( 0.0000000000000000000, -6.000000000000000000, 0.0000000000000000000 ) ) ;
#279 = VERTEX_POINT ( 'NONE', #298 ) ;
#280 = ORIENTED_EDGE ( 'NONE', *, *, #30, .F. ) ;
#281 = CARTESIAN_POINT ( 'NONE',  ( 59.03733979976226500, -35.88158487674151300, 1.000000000000000000 ) ) ;
#282 = CARTESIAN_POINT ( 'NONE',  ( 6.000000000000000000, -15.00000000000000000, 1.000000000000000000 ) ) ;
#283 = CARTESIAN_POINT ( 'NONE',  ( 6.000000000000000000, -6.000000000000000000, 1.000000000000000000 ) ) ;
#284 = FACE_OUTER_BOUND ( 'NONE', #83, .T. ) ;
#285 = EDGE_CURVE ( 'NONE', #14, #111, #32, .T. ) ;
#286 = DIRECTION ( 'NONE',  ( -0.0000000000000000000, 1.000000000000000000, -0.0000000000000000000 ) ) ;
#287 = LINE ( 'NONE', #283, #276 ) ;
#288 = ORIENTED_EDGE ( 'NONE', *, *, #65, .F. ) ;
#289 = CARTESIAN_POINT ( 'NONE',  ( 0.0000000000000000000, 0.0000000000000000000, 0.0000000000000000000 ) ) ;
#290 = CARTESIAN_POINT ( 'NONE',  ( 6.000000000000000000, -6.000000000000000000, 1.000000000000000000 ) ) ;
#291 = DIRECTION ( 'NONE',  ( -1.000000000000000000, 1.814758368136560400E-031, -0.0000000000000000000 ) ) ;
#292 = LINE ( 'NONE', #80, #37 ) ;
#293 = VECTOR ( 'NONE', #199, 1000.000000000000000 ) ;
#294 = AXIS2_PLACEMENT_3D ( 'NONE', #191, #103, #148 ) ;
#295 = VERTEX_POINT ( 'NONE', #100 ) ;
#296 = VECTOR ( 'NONE', #75, 1000.000000000000000 ) ;
#297 = EDGE_LOOP ( 'NONE', ( #41, #238, #187, #72, #25, #243, #85 ) ) ;
#298 = CARTESIAN_POINT ( 'NONE',  ( 0.0000000000000000000, 0.0000000000000000000, 1.000000000000000000 ) ) ;
#299 = EDGE_CURVE ( 'NONE', #216, #102, #166, .T. ) ;
#300 = ORIENTED_EDGE ( 'NONE', *, *, #211, .F. ) ;
#301 = DIRECTION ( 'NONE',  ( 0.0000000000000000000, 0.0000000000000000000, 1.000000000000000000 ) ) ;
ENDSEC;
END-ISO-10303-21;
