ISO-10303-21;
HEADER;
FILE_DESCRIPTION(('CATIA V5 STEP Exchange'),'2;1');

FILE_NAME('P:\\ANCIENNES-AFFAIRES\\BE\\DIVERS-CFM46\\UTILISATEURS\\Arnaud\\Divers CATIA\\REHAUSSE.stp','2019-08-27T06:10:08+00:00',('none'),('none'),'CATIA Version 5 Release 21 SP 6 (IN-10)','CATIA V5 STEP AP203','none');

FILE_SCHEMA(('CONFIG_CONTROL_DESIGN'));

ENDSEC;
DATA;
#5=PRODUCT('Part1','','',(#2)) ;
#1=APPLICATION_CONTEXT('configuration controlled 3D design of mechanical parts and assemblies') ;
#14=PRODUCT_DEFINITION('',' ',#6,#3) ;
#16=SECURITY_CLASSIFICATION(' ',' ',#15) ;
#15=SECURITY_CLASSIFICATION_LEVEL('unclassified') ;
#46=CARTESIAN_POINT(' ',(0.,0.,0.)) ;
#51=CARTESIAN_POINT('Axis2P3D Location',(-9.,30.5,-0.1)) ;
#56=CARTESIAN_POINT('Line Origine',(-12.9491215285,32.6574149237,-17.5)) ;
#60=CARTESIAN_POINT('Vertex',(-12.9491215285,32.6574149237,-35.)) ;
#62=CARTESIAN_POINT('Vertex',(-12.9491215285,32.6574149237,-3.60822483003E-016)) ;
#65=CARTESIAN_POINT('Axis2P3D Location',(-9.,30.5,-35.)) ;
#69=CARTESIAN_POINT('Vertex',(-5.05087847149,28.3425850763,-35.)) ;
#72=CARTESIAN_POINT('Line Origine',(-5.05087847149,28.3425850763,-17.5)) ;
#76=CARTESIAN_POINT('Vertex',(-5.05087847149,28.3425850763,-3.60822483003E-016)) ;
#79=CARTESIAN_POINT('Axis2P3D Location',(-9.,30.5,0.)) ;
#91=CARTESIAN_POINT('Axis2P3D Location',(0.,0.,0.)) ;
#96=CARTESIAN_POINT('Axis2P3D Location',(0.,0.,0.)) ;
#100=CARTESIAN_POINT('Vertex',(-26.4633214046,7.47947994443,0.)) ;
#102=CARTESIAN_POINT('Vertex',(26.4633214046,7.47947994443,0.)) ;
#105=CARTESIAN_POINT('Line Origine',(21.643189003,24.53370215,0.)) ;
#109=CARTESIAN_POINT('Vertex',(16.8230566015,41.5879243556,0.)) ;
#112=CARTESIAN_POINT('Axis2P3D Location',(12.9738462154,40.5,0.)) ;
#116=CARTESIAN_POINT('Vertex',(12.9738462154,44.5,0.)) ;
#119=CARTESIAN_POINT('Line Origine',(0.,44.5,0.)) ;
#123=CARTESIAN_POINT('Vertex',(-12.9738462154,44.5,0.)) ;
#126=CARTESIAN_POINT('Axis2P3D Location',(-12.9738462154,40.5,0.)) ;
#130=CARTESIAN_POINT('Vertex',(-16.8230566015,41.5879243556,0.)) ;
#133=CARTESIAN_POINT('Line Origine',(-21.643189003,24.53370215,0.)) ;
#146=CARTESIAN_POINT('Axis2P3D Location',(9.,30.5,0.)) ;
#150=CARTESIAN_POINT('Vertex',(12.9491215285,28.3425850763,0.)) ;
#152=CARTESIAN_POINT('Vertex',(5.05087847149,32.6574149237,0.)) ;
#155=CARTESIAN_POINT('Axis2P3D Location',(9.,30.5,0.)) ;
#164=CARTESIAN_POINT('Axis2P3D Location',(-9.,30.5,0.)) ;
#173=CARTESIAN_POINT('Axis2P3D Location',(0.,0.,0.)) ;
#177=CARTESIAN_POINT('Vertex',(22.5,0.,0.)) ;
#179=CARTESIAN_POINT('Vertex',(-22.5,2.75545529808E-015,0.)) ;
#182=CARTESIAN_POINT('Axis2P3D Location',(0.,0.,0.)) ;
#192=CARTESIAN_POINT('Axis2P3D Location',(-9.,30.5,-35.)) ;
#204=CARTESIAN_POINT('Axis2P3D Location',(0.,0.,-17.5)) ;
#209=CARTESIAN_POINT('Axis2P3D Location',(0.,0.,-35.)) ;
#213=CARTESIAN_POINT('Vertex',(-26.4633214046,7.47947994443,-35.)) ;
#215=CARTESIAN_POINT('Vertex',(26.4633214046,7.47947994443,-35.)) ;
#218=CARTESIAN_POINT('Line Origine',(26.4633214046,7.47947994443,-17.5)) ;
#223=CARTESIAN_POINT('Line Origine',(-26.4633214046,7.47947994443,-17.5)) ;
#235=CARTESIAN_POINT('Axis2P3D Location',(16.8230566015,41.5879243556,0.)) ;
#240=CARTESIAN_POINT('Line Origine',(21.643189003,24.53370215,-35.)) ;
#244=CARTESIAN_POINT('Vertex',(16.8230566015,41.5879243556,-35.)) ;
#247=CARTESIAN_POINT('Line Origine',(16.8230566015,41.5879243556,-17.5)) ;
#259=CARTESIAN_POINT('Axis2P3D Location',(12.9738462154,40.5,-17.5)) ;
#264=CARTESIAN_POINT('Axis2P3D Location',(12.9738462154,40.5,-35.)) ;
#268=CARTESIAN_POINT('Vertex',(12.9738462154,44.5,-35.)) ;
#271=CARTESIAN_POINT('Line Origine',(12.9738462154,44.5,-17.5)) ;
#283=CARTESIAN_POINT('Axis2P3D Location',(-12.9738462154,44.5,0.)) ;
#288=CARTESIAN_POINT('Line Origine',(0.,44.5,-35.)) ;
#292=CARTESIAN_POINT('Vertex',(-12.9738462154,44.5,-35.)) ;
#295=CARTESIAN_POINT('Line Origine',(-12.9738462154,44.5,-17.5)) ;
#307=CARTESIAN_POINT('Axis2P3D Location',(-12.9738462154,40.5,-17.5)) ;
#312=CARTESIAN_POINT('Axis2P3D Location',(-12.9738462154,40.5,-35.)) ;
#316=CARTESIAN_POINT('Vertex',(-16.8230566015,41.5879243556,-35.)) ;
#319=CARTESIAN_POINT('Line Origine',(-16.8230566015,41.5879243556,-17.5)) ;
#331=CARTESIAN_POINT('Axis2P3D Location',(-16.8230566015,41.5879243556,0.)) ;
#336=CARTESIAN_POINT('Line Origine',(-21.643189003,24.53370215,-35.)) ;
#348=CARTESIAN_POINT('Axis2P3D Location',(0.,0.,-10.)) ;
#353=CARTESIAN_POINT('Axis2P3D Location',(0.,0.,-10.)) ;
#357=CARTESIAN_POINT('Vertex',(22.5,0.,-10.)) ;
#359=CARTESIAN_POINT('Vertex',(-22.5,-2.75545529808E-015,-10.)) ;
#362=CARTESIAN_POINT('Axis2P3D Location',(0.,0.,-10.)) ;
#372=CARTESIAN_POINT('Axis2P3D Location',(0.,0.,25.)) ;
#377=CARTESIAN_POINT('Axis2P3D Location',(0.,0.,25.)) ;
#381=CARTESIAN_POINT('Vertex',(22.5,0.,25.)) ;
#383=CARTESIAN_POINT('Vertex',(-22.5,2.75545529808E-015,25.)) ;
#386=CARTESIAN_POINT('Axis2P3D Location',(0.,0.,25.)) ;
#396=CARTESIAN_POINT('Axis2P3D Location',(0.,0.,-22.5)) ;
#401=CARTESIAN_POINT('Line Origine',(-22.5,-2.75545529808E-015,-22.5)) ;
#405=CARTESIAN_POINT('Vertex',(-22.5,-2.75545529808E-015,-35.)) ;
#408=CARTESIAN_POINT('Axis2P3D Location',(0.,0.,-35.)) ;
#412=CARTESIAN_POINT('Vertex',(22.5,0.,-35.)) ;
#415=CARTESIAN_POINT('Line Origine',(22.5,5.51091059616E-015,-22.5)) ;
#427=CARTESIAN_POINT('Axis2P3D Location',(0.,0.,-35.)) ;
#439=CARTESIAN_POINT('Axis2P3D Location',(0.,0.,12.5)) ;
#444=CARTESIAN_POINT('Line Origine',(-22.5,2.75545529808E-015,12.5)) ;
#449=CARTESIAN_POINT('Line Origine',(22.5,-5.51091059616E-015,12.5)) ;
#468=CARTESIAN_POINT('Axis2P3D Location',(0.,0.,-35.)) ;
#481=CARTESIAN_POINT('Axis2P3D Location',(9.,30.5,-35.)) ;
#485=CARTESIAN_POINT('Vertex',(5.05087847149,32.6574149237,-35.)) ;
#487=CARTESIAN_POINT('Vertex',(12.9491215285,28.3425850763,-35.)) ;
#490=CARTESIAN_POINT('Axis2P3D Location',(9.,30.5,-35.)) ;
#508=CARTESIAN_POINT('Axis2P3D Location',(9.,30.5,-0.1)) ;
#513=CARTESIAN_POINT('Line Origine',(5.05087847149,32.6574149237,-17.5)) ;
#518=CARTESIAN_POINT('Line Origine',(12.9491215285,28.3425850763,-17.5)) ;
#52=DIRECTION('Axis2P3D Direction',(0.,-0.,-1.)) ;
#53=DIRECTION('Axis2P3D XDirection',(0.87758256189,-0.479425538604,0.)) ;
#57=DIRECTION('Vector Direction',(0.,0.,-1.)) ;
#66=DIRECTION('Axis2P3D Direction',(0.,-0.,-1.)) ;
#73=DIRECTION('Vector Direction',(0.,0.,-1.)) ;
#80=DIRECTION('Axis2P3D Direction',(0.,-0.,-1.)) ;
#92=DIRECTION('Axis2P3D Direction',(0.,0.,1.)) ;
#93=DIRECTION('Axis2P3D XDirection',(1.,0.,0.)) ;
#97=DIRECTION('Axis2P3D Direction',(0.,0.,1.)) ;
#106=DIRECTION('Vector Direction',(0.271981088888,-0.962302596529,0.)) ;
#113=DIRECTION('Axis2P3D Direction',(0.,0.,1.)) ;
#120=DIRECTION('Vector Direction',(1.,0.,0.)) ;
#127=DIRECTION('Axis2P3D Direction',(0.,0.,1.)) ;
#134=DIRECTION('Vector Direction',(-0.271981088888,-0.962302596529,0.)) ;
#147=DIRECTION('Axis2P3D Direction',(0.,0.,1.)) ;
#156=DIRECTION('Axis2P3D Direction',(0.,0.,1.)) ;
#165=DIRECTION('Axis2P3D Direction',(0.,0.,1.)) ;
#174=DIRECTION('Axis2P3D Direction',(0.,0.,1.)) ;
#183=DIRECTION('Axis2P3D Direction',(0.,0.,1.)) ;
#193=DIRECTION('Axis2P3D Direction',(0.,-0.,-1.)) ;
#205=DIRECTION('Axis2P3D Direction',(0.,0.,1.)) ;
#206=DIRECTION('Axis2P3D XDirection',(-0.962302596529,0.271981088888,0.)) ;
#210=DIRECTION('Axis2P3D Direction',(0.,0.,1.)) ;
#219=DIRECTION('Vector Direction',(0.,0.,1.)) ;
#224=DIRECTION('Vector Direction',(0.,0.,1.)) ;
#236=DIRECTION('Axis2P3D Direction',(0.962302596529,0.271981088888,0.)) ;
#237=DIRECTION('Axis2P3D XDirection',(0.271981088888,-0.962302596529,0.)) ;
#241=DIRECTION('Vector Direction',(0.271981088888,-0.962302596529,0.)) ;
#248=DIRECTION('Vector Direction',(0.,0.,-1.)) ;
#260=DIRECTION('Axis2P3D Direction',(0.,0.,1.)) ;
#261=DIRECTION('Axis2P3D XDirection',(0.962302596529,0.271981088888,0.)) ;
#265=DIRECTION('Axis2P3D Direction',(0.,0.,1.)) ;
#272=DIRECTION('Vector Direction',(0.,0.,1.)) ;
#284=DIRECTION('Axis2P3D Direction',(-0.,1.,0.)) ;
#285=DIRECTION('Axis2P3D XDirection',(1.,0.,0.)) ;
#289=DIRECTION('Vector Direction',(1.,0.,0.)) ;
#296=DIRECTION('Vector Direction',(0.,0.,-1.)) ;
#308=DIRECTION('Axis2P3D Direction',(0.,0.,1.)) ;
#309=DIRECTION('Axis2P3D XDirection',(6.12323399574E-017,1.,0.)) ;
#313=DIRECTION('Axis2P3D Direction',(0.,0.,1.)) ;
#320=DIRECTION('Vector Direction',(0.,0.,1.)) ;
#332=DIRECTION('Axis2P3D Direction',(0.962302596529,-0.271981088888,0.)) ;
#333=DIRECTION('Axis2P3D XDirection',(-0.271981088888,-0.962302596529,-0.)) ;
#337=DIRECTION('Vector Direction',(-0.271981088888,-0.962302596529,0.)) ;
#349=DIRECTION('Axis2P3D Direction',(0.,0.,-1.)) ;
#350=DIRECTION('Axis2P3D XDirection',(1.,0.,0.)) ;
#354=DIRECTION('Axis2P3D Direction',(0.,0.,-1.)) ;
#363=DIRECTION('Axis2P3D Direction',(0.,0.,-1.)) ;
#373=DIRECTION('Axis2P3D Direction',(0.,0.,1.)) ;
#374=DIRECTION('Axis2P3D XDirection',(1.,0.,0.)) ;
#378=DIRECTION('Axis2P3D Direction',(0.,0.,1.)) ;
#387=DIRECTION('Axis2P3D Direction',(0.,0.,1.)) ;
#397=DIRECTION('Axis2P3D Direction',(0.,0.,-1.)) ;
#398=DIRECTION('Axis2P3D XDirection',(1.,0.,0.)) ;
#402=DIRECTION('Vector Direction',(0.,0.,-1.)) ;
#409=DIRECTION('Axis2P3D Direction',(0.,0.,-1.)) ;
#416=DIRECTION('Vector Direction',(0.,0.,-1.)) ;
#428=DIRECTION('Axis2P3D Direction',(0.,0.,-1.)) ;
#440=DIRECTION('Axis2P3D Direction',(0.,0.,1.)) ;
#441=DIRECTION('Axis2P3D XDirection',(1.,0.,0.)) ;
#445=DIRECTION('Vector Direction',(0.,0.,1.)) ;
#450=DIRECTION('Vector Direction',(0.,0.,1.)) ;
#469=DIRECTION('Axis2P3D Direction',(0.,0.,1.)) ;
#470=DIRECTION('Axis2P3D XDirection',(1.,0.,0.)) ;
#482=DIRECTION('Axis2P3D Direction',(0.,0.,1.)) ;
#491=DIRECTION('Axis2P3D Direction',(0.,0.,1.)) ;
#509=DIRECTION('Axis2P3D Direction',(0.,-0.,-1.)) ;
#510=DIRECTION('Axis2P3D XDirection',(0.87758256189,-0.479425538604,0.)) ;
#514=DIRECTION('Vector Direction',(0.,0.,-1.)) ;
#519=DIRECTION('Vector Direction',(0.,0.,-1.)) ;
#47=AXIS2_PLACEMENT_3D(' ',#46,$,$) ;
#54=AXIS2_PLACEMENT_3D('Cylinder Axis2P3D',#51,#52,#53) ;
#67=AXIS2_PLACEMENT_3D('Circle Axis2P3D',#65,#66,$) ;
#81=AXIS2_PLACEMENT_3D('Circle Axis2P3D',#79,#80,$) ;
#94=AXIS2_PLACEMENT_3D('Plane Axis2P3D',#91,#92,#93) ;
#98=AXIS2_PLACEMENT_3D('Circle Axis2P3D',#96,#97,$) ;
#114=AXIS2_PLACEMENT_3D('Circle Axis2P3D',#112,#113,$) ;
#128=AXIS2_PLACEMENT_3D('Circle Axis2P3D',#126,#127,$) ;
#148=AXIS2_PLACEMENT_3D('Circle Axis2P3D',#146,#147,$) ;
#157=AXIS2_PLACEMENT_3D('Circle Axis2P3D',#155,#156,$) ;
#166=AXIS2_PLACEMENT_3D('Circle Axis2P3D',#164,#165,$) ;
#175=AXIS2_PLACEMENT_3D('Circle Axis2P3D',#173,#174,$) ;
#184=AXIS2_PLACEMENT_3D('Circle Axis2P3D',#182,#183,$) ;
#194=AXIS2_PLACEMENT_3D('Circle Axis2P3D',#192,#193,$) ;
#207=AXIS2_PLACEMENT_3D('Cylinder Axis2P3D',#204,#205,#206) ;
#211=AXIS2_PLACEMENT_3D('Circle Axis2P3D',#209,#210,$) ;
#238=AXIS2_PLACEMENT_3D('Plane Axis2P3D',#235,#236,#237) ;
#262=AXIS2_PLACEMENT_3D('Cylinder Axis2P3D',#259,#260,#261) ;
#266=AXIS2_PLACEMENT_3D('Circle Axis2P3D',#264,#265,$) ;
#286=AXIS2_PLACEMENT_3D('Plane Axis2P3D',#283,#284,#285) ;
#310=AXIS2_PLACEMENT_3D('Cylinder Axis2P3D',#307,#308,#309) ;
#314=AXIS2_PLACEMENT_3D('Circle Axis2P3D',#312,#313,$) ;
#334=AXIS2_PLACEMENT_3D('Plane Axis2P3D',#331,#332,#333) ;
#351=AXIS2_PLACEMENT_3D('Plane Axis2P3D',#348,#349,#350) ;
#355=AXIS2_PLACEMENT_3D('Circle Axis2P3D',#353,#354,$) ;
#364=AXIS2_PLACEMENT_3D('Circle Axis2P3D',#362,#363,$) ;
#375=AXIS2_PLACEMENT_3D('Plane Axis2P3D',#372,#373,#374) ;
#379=AXIS2_PLACEMENT_3D('Circle Axis2P3D',#377,#378,$) ;
#388=AXIS2_PLACEMENT_3D('Circle Axis2P3D',#386,#387,$) ;
#399=AXIS2_PLACEMENT_3D('Cylinder Axis2P3D',#396,#397,#398) ;
#410=AXIS2_PLACEMENT_3D('Circle Axis2P3D',#408,#409,$) ;
#429=AXIS2_PLACEMENT_3D('Circle Axis2P3D',#427,#428,$) ;
#442=AXIS2_PLACEMENT_3D('Cylinder Axis2P3D',#439,#440,#441) ;
#471=AXIS2_PLACEMENT_3D('Plane Axis2P3D',#468,#469,#470) ;
#483=AXIS2_PLACEMENT_3D('Circle Axis2P3D',#481,#482,$) ;
#492=AXIS2_PLACEMENT_3D('Circle Axis2P3D',#490,#491,$) ;
#511=AXIS2_PLACEMENT_3D('Cylinder Axis2P3D',#508,#509,#510) ;
#40=PRODUCT_DEFINITION_SHAPE(' ',' ',#14) ;
#31=APPROVAL_PERSON_ORGANIZATION(#25,#21,#19) ;
#25=PERSON_AND_ORGANIZATION(#22,#23) ;
#22=PERSON(' ',' ',' ',$,$,$) ;
#23=ORGANIZATION(' ',' ',' ') ;
#21=APPROVAL(#20,' ') ;
#20=APPROVAL_STATUS('not_yet_approved') ;
#19=APPROVAL_ROLE('APPROVER') ;
#13=DATE_AND_TIME(#11,#12) ;
#12=LOCAL_TIME(8,10,8.,#10) ;
#10=COORDINATED_UNIVERSAL_TIME_OFFSET(0,0,.AHEAD.) ;
#85=ORIENTED_EDGE('',*,*,#64,.F.) ;
#86=ORIENTED_EDGE('',*,*,#71,.F.) ;
#87=ORIENTED_EDGE('',*,*,#78,.T.) ;
#88=ORIENTED_EDGE('',*,*,#83,.T.) ;
#139=ORIENTED_EDGE('',*,*,#104,.T.) ;
#140=ORIENTED_EDGE('',*,*,#111,.T.) ;
#141=ORIENTED_EDGE('',*,*,#118,.T.) ;
#142=ORIENTED_EDGE('',*,*,#125,.T.) ;
#143=ORIENTED_EDGE('',*,*,#132,.T.) ;
#144=ORIENTED_EDGE('',*,*,#137,.T.) ;
#161=ORIENTED_EDGE('',*,*,#154,.F.) ;
#162=ORIENTED_EDGE('',*,*,#159,.F.) ;
#170=ORIENTED_EDGE('',*,*,#168,.F.) ;
#171=ORIENTED_EDGE('',*,*,#83,.F.) ;
#188=ORIENTED_EDGE('',*,*,#181,.F.) ;
#189=ORIENTED_EDGE('',*,*,#186,.F.) ;
#198=ORIENTED_EDGE('',*,*,#78,.F.) ;
#199=ORIENTED_EDGE('',*,*,#196,.F.) ;
#200=ORIENTED_EDGE('',*,*,#64,.T.) ;
#201=ORIENTED_EDGE('',*,*,#168,.T.) ;
#229=ORIENTED_EDGE('',*,*,#217,.T.) ;
#230=ORIENTED_EDGE('',*,*,#222,.F.) ;
#231=ORIENTED_EDGE('',*,*,#104,.F.) ;
#232=ORIENTED_EDGE('',*,*,#227,.T.) ;
#253=ORIENTED_EDGE('',*,*,#246,.T.) ;
#254=ORIENTED_EDGE('',*,*,#251,.F.) ;
#255=ORIENTED_EDGE('',*,*,#111,.F.) ;
#256=ORIENTED_EDGE('',*,*,#222,.T.) ;
#277=ORIENTED_EDGE('',*,*,#270,.T.) ;
#278=ORIENTED_EDGE('',*,*,#275,.F.) ;
#279=ORIENTED_EDGE('',*,*,#118,.F.) ;
#280=ORIENTED_EDGE('',*,*,#251,.T.) ;
#301=ORIENTED_EDGE('',*,*,#294,.T.) ;
#302=ORIENTED_EDGE('',*,*,#299,.F.) ;
#303=ORIENTED_EDGE('',*,*,#125,.F.) ;
#304=ORIENTED_EDGE('',*,*,#275,.T.) ;
#325=ORIENTED_EDGE('',*,*,#318,.T.) ;
#326=ORIENTED_EDGE('',*,*,#323,.F.) ;
#327=ORIENTED_EDGE('',*,*,#132,.F.) ;
#328=ORIENTED_EDGE('',*,*,#299,.T.) ;
#342=ORIENTED_EDGE('',*,*,#340,.T.) ;
#343=ORIENTED_EDGE('',*,*,#227,.F.) ;
#344=ORIENTED_EDGE('',*,*,#137,.F.) ;
#345=ORIENTED_EDGE('',*,*,#323,.T.) ;
#368=ORIENTED_EDGE('',*,*,#361,.T.) ;
#369=ORIENTED_EDGE('',*,*,#366,.T.) ;
#392=ORIENTED_EDGE('',*,*,#385,.T.) ;
#393=ORIENTED_EDGE('',*,*,#390,.T.) ;
#421=ORIENTED_EDGE('',*,*,#407,.F.) ;
#422=ORIENTED_EDGE('',*,*,#414,.T.) ;
#423=ORIENTED_EDGE('',*,*,#419,.T.) ;
#424=ORIENTED_EDGE('',*,*,#366,.F.) ;
#433=ORIENTED_EDGE('',*,*,#419,.F.) ;
#434=ORIENTED_EDGE('',*,*,#431,.T.) ;
#435=ORIENTED_EDGE('',*,*,#407,.T.) ;
#436=ORIENTED_EDGE('',*,*,#361,.F.) ;
#455=ORIENTED_EDGE('',*,*,#448,.F.) ;
#456=ORIENTED_EDGE('',*,*,#186,.T.) ;
#457=ORIENTED_EDGE('',*,*,#453,.T.) ;
#458=ORIENTED_EDGE('',*,*,#390,.F.) ;
#462=ORIENTED_EDGE('',*,*,#453,.F.) ;
#463=ORIENTED_EDGE('',*,*,#181,.T.) ;
#464=ORIENTED_EDGE('',*,*,#448,.T.) ;
#465=ORIENTED_EDGE('',*,*,#385,.F.) ;
#474=ORIENTED_EDGE('',*,*,#340,.F.) ;
#475=ORIENTED_EDGE('',*,*,#318,.F.) ;
#476=ORIENTED_EDGE('',*,*,#294,.F.) ;
#477=ORIENTED_EDGE('',*,*,#270,.F.) ;
#478=ORIENTED_EDGE('',*,*,#246,.F.) ;
#479=ORIENTED_EDGE('',*,*,#217,.F.) ;
#496=ORIENTED_EDGE('',*,*,#489,.T.) ;
#497=ORIENTED_EDGE('',*,*,#494,.T.) ;
#500=ORIENTED_EDGE('',*,*,#71,.T.) ;
#501=ORIENTED_EDGE('',*,*,#196,.T.) ;
#504=ORIENTED_EDGE('',*,*,#414,.F.) ;
#505=ORIENTED_EDGE('',*,*,#431,.F.) ;
#524=ORIENTED_EDGE('',*,*,#517,.F.) ;
#525=ORIENTED_EDGE('',*,*,#494,.F.) ;
#526=ORIENTED_EDGE('',*,*,#522,.T.) ;
#527=ORIENTED_EDGE('',*,*,#154,.T.) ;
#531=ORIENTED_EDGE('',*,*,#522,.F.) ;
#532=ORIENTED_EDGE('',*,*,#489,.F.) ;
#533=ORIENTED_EDGE('',*,*,#517,.T.) ;
#534=ORIENTED_EDGE('',*,*,#159,.T.) ;
#163=FACE_BOUND('',#160,.T.) ;
#172=FACE_BOUND('',#169,.T.) ;
#190=FACE_BOUND('',#187,.T.) ;
#498=FACE_BOUND('',#495,.T.) ;
#502=FACE_BOUND('',#499,.T.) ;
#506=FACE_BOUND('',#503,.T.) ;
#50=CLOSED_SHELL('Closed Shell',(#90,#191,#203,#234,#258,#282,#306,#330,#347,#371,#395,#426,#438,#460,#467,#507,#529,#536)) ;
#58=VECTOR('Line Direction',#57,1.) ;
#74=VECTOR('Line Direction',#73,1.) ;
#107=VECTOR('Line Direction',#106,1.) ;
#121=VECTOR('Line Direction',#120,1.) ;
#135=VECTOR('Line Direction',#134,1.) ;
#220=VECTOR('Line Direction',#219,1.) ;
#225=VECTOR('Line Direction',#224,1.) ;
#242=VECTOR('Line Direction',#241,1.) ;
#249=VECTOR('Line Direction',#248,1.) ;
#273=VECTOR('Line Direction',#272,1.) ;
#290=VECTOR('Line Direction',#289,1.) ;
#297=VECTOR('Line Direction',#296,1.) ;
#321=VECTOR('Line Direction',#320,1.) ;
#338=VECTOR('Line Direction',#337,1.) ;
#403=VECTOR('Line Direction',#402,1.) ;
#417=VECTOR('Line Direction',#416,1.) ;
#446=VECTOR('Line Direction',#445,1.) ;
#451=VECTOR('Line Direction',#450,1.) ;
#515=VECTOR('Line Direction',#514,1.) ;
#520=VECTOR('Line Direction',#519,1.) ;
#538=ADVANCED_BREP_SHAPE_REPRESENTATION('NONE',(#537),#45) ;
#48=SHAPE_REPRESENTATION(' ',(#47),#45) ;
#90=ADVANCED_FACE('Corps principal',(#89),#55,.F.) ;
#191=ADVANCED_FACE('Corps principal',(#145,#163,#172,#190),#95,.T.) ;
#203=ADVANCED_FACE('Corps principal',(#202),#55,.F.) ;
#234=ADVANCED_FACE('Corps principal',(#233),#208,.T.) ;
#258=ADVANCED_FACE('Corps principal',(#257),#239,.T.) ;
#282=ADVANCED_FACE('Corps principal',(#281),#263,.T.) ;
#306=ADVANCED_FACE('Corps principal',(#305),#287,.T.) ;
#330=ADVANCED_FACE('Corps principal',(#329),#311,.T.) ;
#347=ADVANCED_FACE('Corps principal',(#346),#335,.F.) ;
#371=ADVANCED_FACE('Corps principal',(#370),#352,.T.) ;
#395=ADVANCED_FACE('Corps principal',(#394),#376,.T.) ;
#426=ADVANCED_FACE('Corps principal',(#425),#400,.F.) ;
#438=ADVANCED_FACE('Corps principal',(#437),#400,.F.) ;
#460=ADVANCED_FACE('Corps principal',(#459),#443,.T.) ;
#467=ADVANCED_FACE('Corps principal',(#466),#443,.T.) ;
#507=ADVANCED_FACE('Corps principal',(#480,#498,#502,#506),#472,.F.) ;
#529=ADVANCED_FACE('Corps principal',(#528),#512,.F.) ;
#536=ADVANCED_FACE('Corps principal',(#535),#512,.F.) ;
#4=APPLICATION_PROTOCOL_DEFINITION('international standard','config_control_design',1994,#1) ;
#32=APPROVAL_DATE_TIME(#13,#21) ;
#537=MANIFOLD_SOLID_BREP('Corps principal',#50) ;
#11=CALENDAR_DATE(2019,27,8) ;
#30=CC_DESIGN_APPROVAL(#21,(#16,#6,#14)) ;
#18=CC_DESIGN_DATE_AND_TIME_ASSIGNMENT(#13,#17,(#16)) ;
#29=CC_DESIGN_DATE_AND_TIME_ASSIGNMENT(#13,#28,(#14)) ;
#17=DATE_TIME_ROLE('classification_date') ;
#28=DATE_TIME_ROLE('creation_date') ;
#27=CC_DESIGN_PERSON_AND_ORGANIZATION_ASSIGNMENT(#25,#26,(#16)) ;
#33=CC_DESIGN_PERSON_AND_ORGANIZATION_ASSIGNMENT(#25,#34,(#6)) ;
#35=CC_DESIGN_PERSON_AND_ORGANIZATION_ASSIGNMENT(#25,#36,(#6,#14)) ;
#37=CC_DESIGN_PERSON_AND_ORGANIZATION_ASSIGNMENT(#25,#38,(#5)) ;
#26=PERSON_AND_ORGANIZATION_ROLE('classification_officer') ;
#34=PERSON_AND_ORGANIZATION_ROLE('design_supplier') ;
#36=PERSON_AND_ORGANIZATION_ROLE('creator') ;
#38=PERSON_AND_ORGANIZATION_ROLE('design_owner') ;
#39=CC_DESIGN_SECURITY_CLASSIFICATION(#16,(#6)) ;
#68=CIRCLE('generated circle',#67,4.5) ;
#82=CIRCLE('generated circle',#81,4.5) ;
#99=CIRCLE('generated circle',#98,27.5) ;
#115=CIRCLE('generated circle',#114,4.) ;
#129=CIRCLE('generated circle',#128,4.) ;
#149=CIRCLE('generated circle',#148,4.5) ;
#158=CIRCLE('generated circle',#157,4.5) ;
#167=CIRCLE('generated circle',#166,4.5) ;
#176=CIRCLE('generated circle',#175,22.5) ;
#185=CIRCLE('generated circle',#184,22.5) ;
#195=CIRCLE('generated circle',#194,4.5) ;
#212=CIRCLE('generated circle',#211,27.5) ;
#267=CIRCLE('generated circle',#266,4.) ;
#315=CIRCLE('generated circle',#314,4.) ;
#356=CIRCLE('generated circle',#355,22.5) ;
#365=CIRCLE('generated circle',#364,22.5) ;
#380=CIRCLE('generated circle',#379,22.5) ;
#389=CIRCLE('generated circle',#388,22.5) ;
#411=CIRCLE('generated circle',#410,22.5) ;
#430=CIRCLE('generated circle',#429,22.5) ;
#484=CIRCLE('generated circle',#483,4.5) ;
#493=CIRCLE('generated circle',#492,4.5) ;
#539=SHAPE_REPRESENTATION_RELATIONSHIP(' ',' ',#48,#538) ;
#55=CYLINDRICAL_SURFACE('generated cylinder',#54,4.5) ;
#208=CYLINDRICAL_SURFACE('generated cylinder',#207,27.5) ;
#263=CYLINDRICAL_SURFACE('generated cylinder',#262,4.) ;
#311=CYLINDRICAL_SURFACE('generated cylinder',#310,4.) ;
#400=CYLINDRICAL_SURFACE('generated cylinder',#399,22.5) ;
#443=CYLINDRICAL_SURFACE('generated cylinder',#442,22.5) ;
#512=CYLINDRICAL_SURFACE('generated cylinder',#511,4.5) ;
#3=DESIGN_CONTEXT(' ',#1,'design') ;
#64=EDGE_CURVE('',#61,#63,#59,.F.) ;
#71=EDGE_CURVE('',#70,#61,#68,.F.) ;
#78=EDGE_CURVE('',#70,#77,#75,.F.) ;
#83=EDGE_CURVE('',#77,#63,#82,.F.) ;
#104=EDGE_CURVE('',#101,#103,#99,.T.) ;
#111=EDGE_CURVE('',#103,#110,#108,.F.) ;
#118=EDGE_CURVE('',#110,#117,#115,.T.) ;
#125=EDGE_CURVE('',#117,#124,#122,.F.) ;
#132=EDGE_CURVE('',#124,#131,#129,.T.) ;
#137=EDGE_CURVE('',#131,#101,#136,.T.) ;
#154=EDGE_CURVE('',#151,#153,#149,.T.) ;
#159=EDGE_CURVE('',#153,#151,#158,.T.) ;
#168=EDGE_CURVE('',#63,#77,#167,.T.) ;
#181=EDGE_CURVE('',#178,#180,#176,.T.) ;
#186=EDGE_CURVE('',#180,#178,#185,.T.) ;
#196=EDGE_CURVE('',#61,#70,#195,.F.) ;
#217=EDGE_CURVE('',#214,#216,#212,.T.) ;
#222=EDGE_CURVE('',#103,#216,#221,.F.) ;
#227=EDGE_CURVE('',#101,#214,#226,.F.) ;
#246=EDGE_CURVE('',#216,#245,#243,.F.) ;
#251=EDGE_CURVE('',#110,#245,#250,.T.) ;
#270=EDGE_CURVE('',#245,#269,#267,.T.) ;
#275=EDGE_CURVE('',#117,#269,#274,.F.) ;
#294=EDGE_CURVE('',#269,#293,#291,.F.) ;
#299=EDGE_CURVE('',#124,#293,#298,.T.) ;
#318=EDGE_CURVE('',#293,#317,#315,.T.) ;
#323=EDGE_CURVE('',#131,#317,#322,.F.) ;
#340=EDGE_CURVE('',#317,#214,#339,.T.) ;
#361=EDGE_CURVE('',#358,#360,#356,.T.) ;
#366=EDGE_CURVE('',#360,#358,#365,.T.) ;
#385=EDGE_CURVE('',#382,#384,#380,.T.) ;
#390=EDGE_CURVE('',#384,#382,#389,.T.) ;
#407=EDGE_CURVE('',#406,#360,#404,.F.) ;
#414=EDGE_CURVE('',#406,#413,#411,.T.) ;
#419=EDGE_CURVE('',#413,#358,#418,.F.) ;
#431=EDGE_CURVE('',#413,#406,#430,.T.) ;
#448=EDGE_CURVE('',#180,#384,#447,.T.) ;
#453=EDGE_CURVE('',#178,#382,#452,.T.) ;
#489=EDGE_CURVE('',#486,#488,#484,.T.) ;
#494=EDGE_CURVE('',#488,#486,#493,.T.) ;
#517=EDGE_CURVE('',#486,#153,#516,.F.) ;
#522=EDGE_CURVE('',#488,#151,#521,.F.) ;
#84=EDGE_LOOP('',(#85,#86,#87,#88)) ;
#138=EDGE_LOOP('',(#139,#140,#141,#142,#143,#144)) ;
#160=EDGE_LOOP('',(#161,#162)) ;
#169=EDGE_LOOP('',(#170,#171)) ;
#187=EDGE_LOOP('',(#188,#189)) ;
#197=EDGE_LOOP('',(#198,#199,#200,#201)) ;
#228=EDGE_LOOP('',(#229,#230,#231,#232)) ;
#252=EDGE_LOOP('',(#253,#254,#255,#256)) ;
#276=EDGE_LOOP('',(#277,#278,#279,#280)) ;
#300=EDGE_LOOP('',(#301,#302,#303,#304)) ;
#324=EDGE_LOOP('',(#325,#326,#327,#328)) ;
#341=EDGE_LOOP('',(#342,#343,#344,#345)) ;
#367=EDGE_LOOP('',(#368,#369)) ;
#391=EDGE_LOOP('',(#392,#393)) ;
#420=EDGE_LOOP('',(#421,#422,#423,#424)) ;
#432=EDGE_LOOP('',(#433,#434,#435,#436)) ;
#454=EDGE_LOOP('',(#455,#456,#457,#458)) ;
#461=EDGE_LOOP('',(#462,#463,#464,#465)) ;
#473=EDGE_LOOP('',(#474,#475,#476,#477,#478,#479)) ;
#495=EDGE_LOOP('',(#496,#497)) ;
#499=EDGE_LOOP('',(#500,#501)) ;
#503=EDGE_LOOP('',(#504,#505)) ;
#523=EDGE_LOOP('',(#524,#525,#526,#527)) ;
#530=EDGE_LOOP('',(#531,#532,#533,#534)) ;
#89=FACE_OUTER_BOUND('',#84,.T.) ;
#145=FACE_OUTER_BOUND('',#138,.T.) ;
#202=FACE_OUTER_BOUND('',#197,.T.) ;
#233=FACE_OUTER_BOUND('',#228,.T.) ;
#257=FACE_OUTER_BOUND('',#252,.T.) ;
#281=FACE_OUTER_BOUND('',#276,.T.) ;
#305=FACE_OUTER_BOUND('',#300,.T.) ;
#329=FACE_OUTER_BOUND('',#324,.T.) ;
#346=FACE_OUTER_BOUND('',#341,.T.) ;
#370=FACE_OUTER_BOUND('',#367,.T.) ;
#394=FACE_OUTER_BOUND('',#391,.T.) ;
#425=FACE_OUTER_BOUND('',#420,.T.) ;
#437=FACE_OUTER_BOUND('',#432,.T.) ;
#459=FACE_OUTER_BOUND('',#454,.T.) ;
#466=FACE_OUTER_BOUND('',#461,.T.) ;
#480=FACE_OUTER_BOUND('',#473,.T.) ;
#528=FACE_OUTER_BOUND('',#523,.T.) ;
#535=FACE_OUTER_BOUND('',#530,.T.) ;
#44=UNCERTAINTY_MEASURE_WITH_UNIT(LENGTH_MEASURE(0.005),#41,'distance_accuracy_value','CONFUSED CURVE UNCERTAINTY') ;
#59=LINE('Line',#56,#58) ;
#75=LINE('Line',#72,#74) ;
#108=LINE('Line',#105,#107) ;
#122=LINE('Line',#119,#121) ;
#136=LINE('Line',#133,#135) ;
#221=LINE('Line',#218,#220) ;
#226=LINE('Line',#223,#225) ;
#243=LINE('Line',#240,#242) ;
#250=LINE('Line',#247,#249) ;
#274=LINE('Line',#271,#273) ;
#291=LINE('Line',#288,#290) ;
#298=LINE('Line',#295,#297) ;
#322=LINE('Line',#319,#321) ;
#339=LINE('Line',#336,#338) ;
#404=LINE('Line',#401,#403) ;
#418=LINE('Line',#415,#417) ;
#447=LINE('Line',#444,#446) ;
#452=LINE('Line',#449,#451) ;
#516=LINE('Line',#513,#515) ;
#521=LINE('Line',#518,#520) ;
#2=MECHANICAL_CONTEXT(' ',#1,'mechanical') ;
#24=PERSONAL_ADDRESS(' ',' ',' ',' ',' ',' ',' ',' ',' ',' ',' ',' ',(#22),' ') ;
#95=PLANE('',#94) ;
#239=PLANE('',#238) ;
#287=PLANE('',#286) ;
#335=PLANE('',#334) ;
#352=PLANE('',#351) ;
#376=PLANE('',#375) ;
#472=PLANE('',#471) ;
#7=PRODUCT_CATEGORY('part',$) ;
#9=PRODUCT_CATEGORY_RELATIONSHIP(' ',' ',#7,#8) ;
#6=PRODUCT_DEFINITION_FORMATION_WITH_SPECIFIED_SOURCE('',' ',#5,.NOT_KNOWN.) ;
#8=PRODUCT_RELATED_PRODUCT_CATEGORY('detail',$,(#5)) ;
#49=SHAPE_DEFINITION_REPRESENTATION(#40,#48) ;
#61=VERTEX_POINT('',#60) ;
#63=VERTEX_POINT('',#62) ;
#70=VERTEX_POINT('',#69) ;
#77=VERTEX_POINT('',#76) ;
#101=VERTEX_POINT('',#100) ;
#103=VERTEX_POINT('',#102) ;
#110=VERTEX_POINT('',#109) ;
#117=VERTEX_POINT('',#116) ;
#124=VERTEX_POINT('',#123) ;
#131=VERTEX_POINT('',#130) ;
#151=VERTEX_POINT('',#150) ;
#153=VERTEX_POINT('',#152) ;
#178=VERTEX_POINT('',#177) ;
#180=VERTEX_POINT('',#179) ;
#214=VERTEX_POINT('',#213) ;
#216=VERTEX_POINT('',#215) ;
#245=VERTEX_POINT('',#244) ;
#269=VERTEX_POINT('',#268) ;
#293=VERTEX_POINT('',#292) ;
#317=VERTEX_POINT('',#316) ;
#358=VERTEX_POINT('',#357) ;
#360=VERTEX_POINT('',#359) ;
#382=VERTEX_POINT('',#381) ;
#384=VERTEX_POINT('',#383) ;
#406=VERTEX_POINT('',#405) ;
#413=VERTEX_POINT('',#412) ;
#486=VERTEX_POINT('',#485) ;
#488=VERTEX_POINT('',#487) ;
#41=(LENGTH_UNIT()NAMED_UNIT(*)SI_UNIT(.MILLI.,.METRE.)) ;
#42=(NAMED_UNIT(*)PLANE_ANGLE_UNIT()SI_UNIT($,.RADIAN.)) ;
#43=(NAMED_UNIT(*)SI_UNIT($,.STERADIAN.)SOLID_ANGLE_UNIT()) ;
#45=(GEOMETRIC_REPRESENTATION_CONTEXT(3)GLOBAL_UNCERTAINTY_ASSIGNED_CONTEXT((#44))GLOBAL_UNIT_ASSIGNED_CONTEXT((#41,#42,#43))REPRESENTATION_CONTEXT(' ',' ')) ;
ENDSEC;
END-ISO-10303-21;
