ISO-10303-21;
HEADER;
FILE_DESCRIPTION (( 'STEP AP203' ),
    '1' );
FILE_NAME ('076602_-.step',
    '2019-08-07T07:44:58',
    ( '' ),
    ( '' ),
    'SwSTEP 2.0',
    'SolidWorks 2017',
    '' );
FILE_SCHEMA (( 'CONFIG_CONTROL_DESIGN' ));
ENDSEC;

DATA;
#1 = CARTESIAN_POINT ( 'NONE',  ( -23.75000000000001100, 92.74999999999997200, 0.0000000000000000000 ) ) ;
#2 = CARTESIAN_POINT ( 'NONE',  ( -23.74999999999998200, -92.75000000000002800, 0.0000000000000000000 ) ) ;
#3 = FACE_OUTER_BOUND ( 'NONE', #56, .T. ) ;
#4 = ORIENTED_EDGE ( 'NONE', *, *, #198, .T. ) ;
#5 = LOCAL_TIME ( 9, 44, 58.00000000000000000, #73 ) ;
#6 = FACE_BOUND ( 'NONE', #197, .T. ) ;
#7 = CC_DESIGN_DATE_AND_TIME_ASSIGNMENT ( #223, #13, ( #303 ) ) ;
#8 = LINE ( 'NONE', #106, #78 ) ;
#9 = ORIENTED_EDGE ( 'NONE', *, *, #237, .F. ) ;
#10 = CALENDAR_DATE ( 2019, 7, 8 ) ;
#11 = APPLICATION_PROTOCOL_DEFINITION ( 'international standard', 'config_control_design', 1994, #34 ) ;
#12 = ORIENTED_EDGE ( 'NONE', *, *, #293, .F. ) ;
#13 = DATE_TIME_ROLE ( 'creation_date' ) ;
#14 = LINE ( 'NONE', #209, #291 ) ;
#15 = DIRECTION ( 'NONE',  ( 1.496257445586464300E-016, -1.000000000000000000, 0.0000000000000000000 ) ) ;
#16 = EDGE_LOOP ( 'NONE', ( #140, #321, #120, #153 ) ) ;
#17 = DIRECTION ( 'NONE',  ( 1.496257445586464300E-016, -1.000000000000000000, 0.0000000000000000000 ) ) ;
#18 = ADVANCED_FACE ( 'NONE', ( #154, #6 ), #40, .F. ) ;
#19 = DIRECTION ( 'NONE',  ( 0.0000000000000000000, -1.000000000000000000, 0.0000000000000000000 ) ) ;
#20 = CARTESIAN_POINT ( 'NONE',  ( 23.74999999999998900, 92.74999999999997200, 87.00000000000000000 ) ) ;
#21 = PERSON_AND_ORGANIZATION ( #239, #267 ) ;
#22 = ORIENTED_EDGE ( 'NONE', *, *, #70, .F. ) ;
#23 = PRODUCT_DEFINITION_FORMATION_WITH_SPECIFIED_SOURCE ( 'ANY', '', #208, .NOT_KNOWN. ) ;
#24 = CARTESIAN_POINT ( 'NONE',  ( -21.75000000000000700, 90.74999999999997200, 87.00000000000000000 ) ) ;
#25 = VECTOR ( 'NONE', #136, 1000.000000000000000 ) ;
#26 = ORIENTED_EDGE ( 'NONE', *, *, #266, .T. ) ;
#27 = ORIENTED_EDGE ( 'NONE', *, *, #278, .F. ) ;
#28 = VECTOR ( 'NONE', #102, 1000.000000000000000 ) ;
#29 = ORIENTED_EDGE ( 'NONE', *, *, #159, .F. ) ;
#30 = AXIS2_PLACEMENT_3D ( 'NONE', #276, #244, #94 ) ;
#31 = DIRECTION ( 'NONE',  ( -1.000000000000000000, -0.0000000000000000000, -0.0000000000000000000 ) ) ;
#32 = VERTEX_POINT ( 'NONE', #183 ) ;
#33 = PLANE ( 'NONE',  #369 ) ;
#34 = APPLICATION_CONTEXT ( 'configuration controlled 3d designs of mechanical parts and assemblies' ) ;
#35 = APPROVAL ( #211, 'UNSPECIFIED' ) ;
#36 = APPROVAL_ROLE ( '' ) ;
#37 = COORDINATED_UNIVERSAL_TIME_OFFSET ( 1, 0, .AHEAD. ) ;
#38 = VECTOR ( 'NONE', #279, 1000.000000000000000 ) ;
#39 = ORIENTED_EDGE ( 'NONE', *, *, #172, .T. ) ;
#40 = PLANE ( 'NONE',  #30 ) ;
#41 = CARTESIAN_POINT ( 'NONE',  ( -21.74999999999998600, -90.75000000000002800, 0.0000000000000000000 ) ) ;
#42 = VECTOR ( 'NONE', #57, 1000.000000000000000 ) ;
#43 = CARTESIAN_POINT ( 'NONE',  ( 21.74999999999999300, 90.74999999999997200, 0.0000000000000000000 ) ) ;
#44 = ORIENTED_EDGE ( 'NONE', *, *, #86, .T. ) ;
#45 = DIRECTION ( 'NONE',  ( 0.0000000000000000000, 1.000000000000000000, 0.0000000000000000000 ) ) ;
#46 = DIRECTION ( 'NONE',  ( -1.496257445586464300E-016, 1.000000000000000000, -0.0000000000000000000 ) ) ;
#47 = LOCAL_TIME ( 9, 44, 58.00000000000000000, #125 ) ;
#48 = LINE ( 'NONE', #43, #38 ) ;
#49 = ORIENTED_EDGE ( 'NONE', *, *, #215, .F. ) ;
#50 = PLANE ( 'NONE',  #164 ) ;
#51 = FACE_OUTER_BOUND ( 'NONE', #89, .T. ) ;
#52 = VERTEX_POINT ( 'NONE', #310 ) ;
#53 = CC_DESIGN_APPROVAL ( #35, ( #23 ) ) ;
#54 = APPROVAL_DATE_TIME ( #137, #35 ) ;
#55 = FACE_OUTER_BOUND ( 'NONE', #69, .T. ) ;
#56 = EDGE_LOOP ( 'NONE', ( #74, #328, #133, #325 ) ) ;
#57 = DIRECTION ( 'NONE',  ( -0.0000000000000000000, -0.0000000000000000000, -1.000000000000000000 ) ) ;
#58 = VECTOR ( 'NONE', #256, 1000.000000000000000 ) ;
#59 = ORIENTED_EDGE ( 'NONE', *, *, #177, .F. ) ;
#60 = DIRECTION ( 'NONE',  ( 0.0000000000000000000, -0.0000000000000000000, 1.000000000000000000 ) ) ;
#61 = AXIS2_PLACEMENT_3D ( 'NONE', #166, #45, #254 ) ;
#62 = CARTESIAN_POINT ( 'NONE',  ( -21.75000000000000700, 90.74999999999997200, 87.00000000000000000 ) ) ;
#63 = DIRECTION ( 'NONE',  ( 0.0000000000000000000, 0.0000000000000000000, 1.000000000000000000 ) ) ;
#64 = APPROVAL_PERSON_ORGANIZATION ( #145, #35, #36 ) ;
#65 = FACE_OUTER_BOUND ( 'NONE', #268, .T. ) ;
#66 = PERSON_AND_ORGANIZATION_ROLE ( 'design_supplier' ) ;
#67 = PLANE ( 'NONE',  #353 ) ;
#68 = LINE ( 'NONE', #2, #230 ) ;
#69 = EDGE_LOOP ( 'NONE', ( #253, #176, #346, #362 ) ) ;
#70 = EDGE_CURVE ( 'NONE', #161, #336, #306, .T. ) ;
#71 = ADVANCED_FACE ( 'NONE', ( #65 ), #67, .F. ) ;
#72 = CARTESIAN_POINT ( 'NONE',  ( 23.74999999999998900, 92.74999999999997200, 87.00000000000000000 ) ) ;
#73 = COORDINATED_UNIVERSAL_TIME_OFFSET ( 1, 0, .AHEAD. ) ;
#74 = ORIENTED_EDGE ( 'NONE', *, *, #142, .F. ) ;
#75 = CC_DESIGN_PERSON_AND_ORGANIZATION_ASSIGNMENT ( #360, #243, ( #23 ) ) ;
#76 = DIRECTION ( 'NONE',  ( 1.000000000000000000, 1.496257445586464300E-016, -0.0000000000000000000 ) ) ;
#77 = CARTESIAN_POINT ( 'NONE',  ( -21.74999999999998600, -90.75000000000002800, 87.00000000000000000 ) ) ;
#78 = VECTOR ( 'NONE', #46, 1000.000000000000000 ) ;
#79 = ORIENTED_EDGE ( 'NONE', *, *, #187, .F. ) ;
#80 = LOCAL_TIME ( 9, 44, 58.00000000000000000, #165 ) ;
#81 = ORIENTED_EDGE ( 'NONE', *, *, #97, .T. ) ;
#82 = EDGE_LOOP ( 'NONE', ( #103, #49, #9, #189 ) ) ;
#83 = CARTESIAN_POINT ( 'NONE',  ( 21.74999999999999300, 90.74999999999997200, 87.00000000000000000 ) ) ;
#84 = LINE ( 'NONE', #316, #25 ) ;
#85 = VERTEX_POINT ( 'NONE', #363 ) ;
#86 = EDGE_CURVE ( 'NONE', #149, #246, #295, .T. ) ;
#87 = DIRECTION ( 'NONE',  ( 0.0000000000000000000, 1.000000000000000000, 0.0000000000000000000 ) ) ;
#88 = DIRECTION ( 'NONE',  ( -1.146924612216070900E-016, 1.000000000000000000, 0.0000000000000000000 ) ) ;
#89 = EDGE_LOOP ( 'NONE', ( #26, #206, #22, #110 ) ) ;
#90 = MECHANICAL_CONTEXT ( 'NONE', #34, 'mechanical' ) ;
#91 = CARTESIAN_POINT ( 'NONE',  ( -21.75000000000000700, 90.74999999999997200, 87.00000000000000000 ) ) ;
#92 = CC_DESIGN_PERSON_AND_ORGANIZATION_ASSIGNMENT ( #287, #66, ( #23 ) ) ;
#93 = PERSON_AND_ORGANIZATION_ROLE ( 'classification_officer' ) ;
#94 = DIRECTION ( 'NONE',  ( 1.000000000000000000, 0.0000000000000000000, 0.0000000000000000000 ) ) ;
#95 = LINE ( 'NONE', #192, #170 ) ;
#96 = CARTESIAN_POINT ( 'NONE',  ( 21.75000000000001100, -90.75000000000002800, 87.00000000000000000 ) ) ;
#97 = EDGE_CURVE ( 'NONE', #144, #32, #146, .T. ) ;
#98 = ORIENTED_EDGE ( 'NONE', *, *, #142, .T. ) ;
#99 = CARTESIAN_POINT ( 'NONE',  ( -21.75000000000000700, 90.74999999999997200, 0.0000000000000000000 ) ) ;
#100 = CARTESIAN_POINT ( 'NONE',  ( 23.75000000000001800, -92.75000000000002800, 0.0000000000000000000 ) ) ;
#101 = ADVANCED_FACE ( 'NONE', ( #55, #361 ), #338, .T. ) ;
#102 = DIRECTION ( 'NONE',  ( -1.496257445586464300E-016, 1.000000000000000000, -0.0000000000000000000 ) ) ;
#103 = ORIENTED_EDGE ( 'NONE', *, *, #293, .T. ) ;
#104 = CARTESIAN_POINT ( 'NONE',  ( -21.75000000000000700, 90.74999999999997200, 87.00000000000000000 ) ) ;
#105 = CARTESIAN_POINT ( 'NONE',  ( -23.74999999999998200, -92.75000000000002800, 0.0000000000000000000 ) ) ;
#106 = CARTESIAN_POINT ( 'NONE',  ( 23.74999999999998900, 92.74999999999997200, 0.0000000000000000000 ) ) ;
#107 = APPROVAL_DATE_TIME ( #181, #174 ) ;
#108 = CARTESIAN_POINT ( 'NONE',  ( 21.74999999999999300, 90.74999999999997200, 87.00000000000000000 ) ) ;
#109 = LINE ( 'NONE', #251, #28 ) ;
#110 = ORIENTED_EDGE ( 'NONE', *, *, #259, .T. ) ;
#111 = EDGE_CURVE ( 'NONE', #179, #161, #289, .T. ) ;
#112 = SHAPE_DEFINITION_REPRESENTATION ( #147, #296 ) ;
#113 = ORIENTED_EDGE ( 'NONE', *, *, #118, .F. ) ;
#114 = SECURITY_CLASSIFICATION ( '', '', #272 ) ;
#115 = APPROVAL_PERSON_ORGANIZATION ( #194, #174, #334 ) ;
#116 = VECTOR ( 'NONE', #162, 1000.000000000000000 ) ;
#117 = ORIENTED_EDGE ( 'NONE', *, *, #278, .T. ) ;
#118 = EDGE_CURVE ( 'NONE', #32, #246, #127, .T. ) ;
#119 = FACE_OUTER_BOUND ( 'NONE', #352, .T. ) ;
#120 = ORIENTED_EDGE ( 'NONE', *, *, #111, .F. ) ;
#121 = CARTESIAN_POINT ( 'NONE',  ( -21.75000000000000700, 90.74999999999997200, 87.00000000000000000 ) ) ;
#122 = AXIS2_PLACEMENT_3D ( 'NONE', #343, #76, #288 ) ;
#123 = APPLICATION_CONTEXT ( 'configuration controlled 3d designs of mechanical parts and assemblies' ) ;
#124 = DIRECTION ( 'NONE',  ( 1.000000000000000000, 0.0000000000000000000, 0.0000000000000000000 ) ) ;
#125 = COORDINATED_UNIVERSAL_TIME_OFFSET ( 1, 0, .AHEAD. ) ;
#126 = APPROVAL_STATUS ( 'not_yet_approved' ) ;
#127 = LINE ( 'NONE', #41, #351 ) ;
#128 = VERTEX_POINT ( 'NONE', #100 ) ;
#129 = DIRECTION ( 'NONE',  ( 1.000000000000000000, 0.0000000000000000000, 0.0000000000000000000 ) ) ;
#130 = EDGE_CURVE ( 'NONE', #341, #52, #196, .T. ) ;
#131 = LINE ( 'NONE', #269, #280 ) ;
#132 = CARTESIAN_POINT ( 'NONE',  ( -21.75000000000000700, 90.74999999999997200, 0.0000000000000000000 ) ) ;
#133 = ORIENTED_EDGE ( 'NONE', *, *, #207, .T. ) ;
#134 = ADVANCED_FACE ( 'NONE', ( #203 ), #188, .F. ) ;
#135 = CARTESIAN_POINT ( 'NONE',  ( -23.75000000000001100, 92.74999999999997200, 87.00000000000000000 ) ) ;
#136 = DIRECTION ( 'NONE',  ( -0.0000000000000000000, -0.0000000000000000000, -1.000000000000000000 ) ) ;
#137 = DATE_AND_TIME ( #210, #294 ) ;
#138 = VECTOR ( 'NONE', #277, 1000.000000000000000 ) ;
#139 = CC_DESIGN_PERSON_AND_ORGANIZATION_ASSIGNMENT ( #202, #93, ( #114 ) ) ;
#140 = ORIENTED_EDGE ( 'NONE', *, *, #249, .T. ) ;
#141 = DIRECTION ( 'NONE',  ( 1.146924612216070900E-016, -1.000000000000000000, 0.0000000000000000000 ) ) ;
#142 = EDGE_CURVE ( 'NONE', #246, #52, #48, .T. ) ;
#143 = LINE ( 'NONE', #347, #58 ) ;
#144 = VERTEX_POINT ( 'NONE', #132 ) ;
#145 = PERSON_AND_ORGANIZATION ( #239, #267 ) ;
#146 = LINE ( 'NONE', #99, #212 ) ;
#147 = PRODUCT_DEFINITION_SHAPE ( 'NONE', 'NONE',  #303 ) ;
#148 = VECTOR ( 'NONE', #195, 1000.000000000000000 ) ;
#149 = VERTEX_POINT ( 'NONE', #283 ) ;
#150 = EDGE_CURVE ( 'NONE', #336, #167, #109, .T. ) ;
#151 =( NAMED_UNIT ( * ) PLANE_ANGLE_UNIT ( ) SI_UNIT ( $, .RADIAN. ) );
#152 = PERSON_AND_ORGANIZATION ( #239, #267 ) ;
#153 = ORIENTED_EDGE ( 'NONE', *, *, #215, .T. ) ;
#154 = FACE_OUTER_BOUND ( 'NONE', #200, .T. ) ;
#155 = APPROVAL_STATUS ( 'not_yet_approved' ) ;
#156 = CC_DESIGN_DATE_AND_TIME_ASSIGNMENT ( #273, #308, ( #114 ) ) ;
#157 = UNCERTAINTY_MEASURE_WITH_UNIT (LENGTH_MEASURE( 1.000000000000000100E-005 ), #332, 'distance_accuracy_value', 'NONE');
#158 = CARTESIAN_POINT ( 'NONE',  ( 23.74999999999998900, 92.74999999999997200, 87.00000000000000000 ) ) ;
#159 = EDGE_CURVE ( 'NONE', #52, #144, #345, .T. ) ;
#160 = FACE_OUTER_BOUND ( 'NONE', #16, .T. ) ;
#161 = VERTEX_POINT ( 'NONE', #340 ) ;
#162 = DIRECTION ( 'NONE',  ( -0.0000000000000000000, -0.0000000000000000000, -1.000000000000000000 ) ) ;
#163 = DIRECTION ( 'NONE',  ( -1.000000000000000000, -0.0000000000000000000, -0.0000000000000000000 ) ) ;
#164 = AXIS2_PLACEMENT_3D ( 'NONE', #108, #319, #141 ) ;
#165 = COORDINATED_UNIVERSAL_TIME_OFFSET ( 1, 0, .AHEAD. ) ;
#166 = CARTESIAN_POINT ( 'NONE',  ( -21.74999999999998600, -90.75000000000002800, 87.00000000000000000 ) ) ;
#167 = VERTEX_POINT ( 'NONE', #20 ) ;
#168 = CARTESIAN_POINT ( 'NONE',  ( -23.75000000000001100, 92.74999999999997200, 0.0000000000000000000 ) ) ;
#169 = CARTESIAN_POINT ( 'NONE',  ( -23.75000000000001100, 92.74999999999997200, 87.00000000000000000 ) ) ;
#170 = VECTOR ( 'NONE', #226, 1000.000000000000000 ) ;
#171 = ORIENTED_EDGE ( 'NONE', *, *, #266, .F. ) ;
#172 = EDGE_CURVE ( 'NONE', #282, #258, #257, .T. ) ;
#173 = ORIENTED_EDGE ( 'NONE', *, *, #232, .T. ) ;
#174 = APPROVAL ( #126, 'UNSPECIFIED' ) ;
#175 = VECTOR ( 'NONE', #284, 1000.000000000000000 ) ;
#176 = ORIENTED_EDGE ( 'NONE', *, *, #237, .T. ) ;
#177 = EDGE_CURVE ( 'NONE', #167, #85, #182, .T. ) ;
#178 = DIRECTION ( 'NONE',  ( 0.0000000000000000000, -1.000000000000000000, 0.0000000000000000000 ) ) ;
#179 = VERTEX_POINT ( 'NONE', #135 ) ;
#180 = PERSON_AND_ORGANIZATION_ROLE ( 'creator' ) ;
#181 = DATE_AND_TIME ( #263, #344 ) ;
#182 = LINE ( 'NONE', #72, #264 ) ;
#183 = CARTESIAN_POINT ( 'NONE',  ( -21.74999999999998600, -90.75000000000002800, 0.0000000000000000000 ) ) ;
#184 = ORIENTED_EDGE ( 'NONE', *, *, #150, .F. ) ;
#185 = DIRECTION ( 'NONE',  ( -1.000000000000000000, -1.496257445586464300E-016, 0.0000000000000000000 ) ) ;
#186 = DIRECTION ( 'NONE',  ( 1.000000000000000000, 0.0000000000000000000, 0.0000000000000000000 ) ) ;
#187 = EDGE_CURVE ( 'NONE', #341, #282, #327, .T. ) ;
#188 = PLANE ( 'NONE',  #298 ) ;
#189 = ORIENTED_EDGE ( 'NONE', *, *, #177, .T. ) ;
#190 = ADVANCED_FACE ( 'NONE', ( #335 ), #222, .T. ) ;
#191 = DIRECTION ( 'NONE',  ( -1.000000000000000000, -0.0000000000000000000, -0.0000000000000000000 ) ) ;
#192 = CARTESIAN_POINT ( 'NONE',  ( -23.75000000000001100, 92.74999999999997200, 87.00000000000000000 ) ) ;
#193 = CC_DESIGN_APPROVAL ( #174, ( #114 ) ) ;
#194 = PERSON_AND_ORGANIZATION ( #239, #267 ) ;
#195 = DIRECTION ( 'NONE',  ( -1.000000000000000000, -0.0000000000000000000, -0.0000000000000000000 ) ) ;
#196 = LINE ( 'NONE', #248, #116 ) ;
#197 = EDGE_LOOP ( 'NONE', ( #81, #315, #98, #366 ) ) ;
#198 = EDGE_CURVE ( 'NONE', #336, #128, #84, .T. ) ;
#199 = FACE_OUTER_BOUND ( 'NONE', #292, .T. ) ;
#200 = EDGE_LOOP ( 'NONE', ( #290, #171, #355, #12 ) ) ;
#201 = AXIS2_PLACEMENT_3D ( 'NONE', #302, #87, #60 ) ;
#202 = PERSON_AND_ORGANIZATION ( #239, #267 ) ;
#203 = FACE_OUTER_BOUND ( 'NONE', #82, .T. ) ;
#204 = VERTEX_POINT ( 'NONE', #105 ) ;
#205 = VECTOR ( 'NONE', #356, 1000.000000000000000 ) ;
#206 = ORIENTED_EDGE ( 'NONE', *, *, #198, .F. ) ;
#207 = EDGE_CURVE ( 'NONE', #149, #341, #320, .T. ) ;
#208 = PRODUCT ( '076602_-', '076602_-', '', ( #90 ) ) ;
#209 = CARTESIAN_POINT ( 'NONE',  ( -21.74999999999998600, -90.75000000000002800, 87.00000000000000000 ) ) ;
#210 = CALENDAR_DATE ( 2019, 7, 8 ) ;
#211 = APPROVAL_STATUS ( 'not_yet_approved' ) ;
#212 = VECTOR ( 'NONE', #247, 1000.000000000000000 ) ;
#213 = CC_DESIGN_SECURITY_CLASSIFICATION ( #114, ( #23 ) ) ;
#214 = CARTESIAN_POINT ( 'NONE',  ( 0.0000000000000000000, 0.0000000000000000000, 87.00000000000000000 ) ) ;
#215 = EDGE_CURVE ( 'NONE', #179, #241, #95, .T. ) ;
#216 = VECTOR ( 'NONE', #318, 1000.000000000000000 ) ;
#217 = CARTESIAN_POINT ( 'NONE',  ( -23.75000000000001100, 92.74999999999997200, 87.00000000000000000 ) ) ;
#218 = ORIENTED_EDGE ( 'NONE', *, *, #130, .F. ) ;
#219 = DIRECTION ( 'NONE',  ( 0.0000000000000000000, -0.0000000000000000000, -1.000000000000000000 ) ) ;
#220 = ADVANCED_FACE ( 'NONE', ( #160 ), #255, .F. ) ;
#221 = CARTESIAN_POINT ( 'NONE',  ( 23.75000000000001800, -92.75000000000002800, 87.00000000000000000 ) ) ;
#222 = PLANE ( 'NONE',  #61 ) ;
#223 = DATE_AND_TIME ( #304, #5 ) ;
#224 = VECTOR ( 'NONE', #17, 1000.000000000000000 ) ;
#225 = DIRECTION ( 'NONE',  ( 0.0000000000000000000, -0.0000000000000000000, -1.000000000000000000 ) ) ;
#226 = DIRECTION ( 'NONE',  ( -0.0000000000000000000, -0.0000000000000000000, -1.000000000000000000 ) ) ;
#227 = MANIFOLD_SOLID_BREP ( 'Boss.-Extru.1', #231 ) ;
#228 = CARTESIAN_POINT ( 'NONE',  ( 21.75000000000001100, -90.75000000000002800, 0.0000000000000000000 ) ) ;
#229 = DIRECTION ( 'NONE',  ( 1.000000000000000000, 0.0000000000000000000, 0.0000000000000000000 ) ) ;
#230 = VECTOR ( 'NONE', #229, 1000.000000000000000 ) ;
#231 = CLOSED_SHELL ( 'NONE', ( #101, #18, #71, #134, #220, #281, #368, #190, #250, #339 ) ) ;
#232 = EDGE_CURVE ( 'NONE', #128, #85, #8, .T. ) ;
#233 = APPROVAL_DATE_TIME ( #314, #326 ) ;
#234 = EDGE_LOOP ( 'NONE', ( #113, #297, #238, #44 ) ) ;
#235 = PRODUCT_RELATED_PRODUCT_CATEGORY ( 'detail', '', ( #208 ) ) ;
#236 = VECTOR ( 'NONE', #372, 1000.000000000000000 ) ;
#237 = EDGE_CURVE ( 'NONE', #167, #179, #311, .T. ) ;
#238 = ORIENTED_EDGE ( 'NONE', *, *, #299, .T. ) ;
#239 = PERSON ( 'UNSPECIFIED', 'UNSPECIFIED', 'UNSPECIFIED', ('UNSPECIFIED'), ('UNSPECIFIED'), ('UNSPECIFIED') ) ;
#240 = APPROVAL_PERSON_ORGANIZATION ( #324, #326, #359 ) ;
#241 = VERTEX_POINT ( 'NONE', #1 ) ;
#242 = CARTESIAN_POINT ( 'NONE',  ( 0.0000000000000000000, 0.0000000000000000000, 0.0000000000000000000 ) ) ;
#243 = PERSON_AND_ORGANIZATION_ROLE ( 'creator' ) ;
#244 = DIRECTION ( 'NONE',  ( -0.0000000000000000000, 0.0000000000000000000, 1.000000000000000000 ) ) ;
#245 = VECTOR ( 'NONE', #191, 1000.000000000000000 ) ;
#246 = VERTEX_POINT ( 'NONE', #228 ) ;
#247 = DIRECTION ( 'NONE',  ( 1.146924612216070900E-016, -1.000000000000000000, 0.0000000000000000000 ) ) ;
#248 = CARTESIAN_POINT ( 'NONE',  ( 21.74999999999999300, 90.74999999999997200, 87.00000000000000000 ) ) ;
#249 = EDGE_CURVE ( 'NONE', #241, #204, #300, .T. ) ;
#250 = ADVANCED_FACE ( 'NONE', ( #3 ), #50, .T. ) ;
#251 = CARTESIAN_POINT ( 'NONE',  ( 23.74999999999998900, 92.74999999999997200, 87.00000000000000000 ) ) ;
#252 = DIRECTION ( 'NONE',  ( -0.0000000000000000000, -0.0000000000000000000, -1.000000000000000000 ) ) ;
#253 = ORIENTED_EDGE ( 'NONE', *, *, #150, .T. ) ;
#254 = DIRECTION ( 'NONE',  ( 0.0000000000000000000, -0.0000000000000000000, 1.000000000000000000 ) ) ;
#255 = PLANE ( 'NONE',  #122 ) ;
#256 = DIRECTION ( 'NONE',  ( -0.0000000000000000000, -0.0000000000000000000, -1.000000000000000000 ) ) ;
#257 = LINE ( 'NONE', #313, #175 ) ;
#258 = VERTEX_POINT ( 'NONE', #77 ) ;
#259 = EDGE_CURVE ( 'NONE', #161, #204, #143, .T. ) ;
#260 = ORIENTED_EDGE ( 'NONE', *, *, #299, .F. ) ;
#261 = AXIS2_PLACEMENT_3D ( 'NONE', #242, #63, #271 ) ;
#262 = CARTESIAN_POINT ( 'NONE',  ( -21.74999999999998600, -90.75000000000002800, 87.00000000000000000 ) ) ;
#263 = CALENDAR_DATE ( 2019, 7, 8 ) ;
#264 = VECTOR ( 'NONE', #252, 1000.000000000000000 ) ;
#265 = EDGE_LOOP ( 'NONE', ( #260, #275, #79, #348 ) ) ;
#266 = EDGE_CURVE ( 'NONE', #204, #128, #68, .T. ) ;
#267 = ORGANIZATION ( 'UNSPECIFIED', 'UNSPECIFIED', '' ) ;
#268 = EDGE_LOOP ( 'NONE', ( #173, #59, #184, #4 ) ) ;
#269 = CARTESIAN_POINT ( 'NONE',  ( -23.75000000000001100, 92.74999999999997200, 0.0000000000000000000 ) ) ;
#270 = DIRECTION ( 'NONE',  ( 1.000000000000000000, 1.146924612216070900E-016, -0.0000000000000000000 ) ) ;
#271 = DIRECTION ( 'NONE',  ( 1.000000000000000000, 0.0000000000000000000, 0.0000000000000000000 ) ) ;
#272 = SECURITY_CLASSIFICATION_LEVEL ( 'unclassified' ) ;
#273 = DATE_AND_TIME ( #350, #47 ) ;
#274 = VECTOR ( 'NONE', #163, 1000.000000000000000 ) ;
#275 = ORIENTED_EDGE ( 'NONE', *, *, #172, .F. ) ;
#276 = CARTESIAN_POINT ( 'NONE',  ( 0.0000000000000000000, 0.0000000000000000000, 0.0000000000000000000 ) ) ;
#277 = DIRECTION ( 'NONE',  ( -0.0000000000000000000, -0.0000000000000000000, -1.000000000000000000 ) ) ;
#278 = EDGE_CURVE ( 'NONE', #282, #144, #365, .T. ) ;
#279 = DIRECTION ( 'NONE',  ( -1.146924612216070900E-016, 1.000000000000000000, -0.0000000000000000000 ) ) ;
#280 = VECTOR ( 'NONE', #31, 1000.000000000000000 ) ;
#281 = ADVANCED_FACE ( 'NONE', ( #51 ), #330, .F. ) ;
#282 = VERTEX_POINT ( 'NONE', #121 ) ;
#283 = CARTESIAN_POINT ( 'NONE',  ( 21.75000000000001100, -90.75000000000002800, 87.00000000000000000 ) ) ;
#284 = DIRECTION ( 'NONE',  ( 1.146924612216070900E-016, -1.000000000000000000, 0.0000000000000000000 ) ) ;
#285 = CC_DESIGN_PERSON_AND_ORGANIZATION_ASSIGNMENT ( #21, #305, ( #208 ) ) ;
#286 = CARTESIAN_POINT ( 'NONE',  ( 21.74999999999999300, 90.74999999999997200, 87.00000000000000000 ) ) ;
#287 = PERSON_AND_ORGANIZATION ( #239, #267 ) ;
#288 = DIRECTION ( 'NONE',  ( -1.496257445586464300E-016, 1.000000000000000000, 0.0000000000000000000 ) ) ;
#289 = LINE ( 'NONE', #217, #224 ) ;
#290 = ORIENTED_EDGE ( 'NONE', *, *, #232, .F. ) ;
#291 = VECTOR ( 'NONE', #124, 1000.000000000000000 ) ;
#292 = EDGE_LOOP ( 'NONE', ( #29, #218, #331, #117 ) ) ;
#293 = EDGE_CURVE ( 'NONE', #85, #241, #131, .T. ) ;
#294 = LOCAL_TIME ( 9, 44, 58.00000000000000000, #371 ) ;
#295 = LINE ( 'NONE', #96, #138 ) ;
#296 = ADVANCED_BREP_SHAPE_REPRESENTATION ( '076602_-', ( #227, #261 ), #349 ) ;
#297 = ORIENTED_EDGE ( 'NONE', *, *, #323, .F. ) ;
#298 = AXIS2_PLACEMENT_3D ( 'NONE', #367, #19, #219 ) ;
#299 = EDGE_CURVE ( 'NONE', #258, #149, #14, .T. ) ;
#300 = LINE ( 'NONE', #168, #216 ) ;
#301 = ORIENTED_EDGE ( 'NONE', *, *, #97, .F. ) ;
#302 = CARTESIAN_POINT ( 'NONE',  ( -23.74999999999998200, -92.75000000000002800, 87.00000000000000000 ) ) ;
#303 = PRODUCT_DEFINITION ( 'UNKNOWN', '', #23, #317 ) ;
#304 = CALENDAR_DATE ( 2019, 7, 8 ) ;
#305 = PERSON_AND_ORGANIZATION_ROLE ( 'design_owner' ) ;
#306 = LINE ( 'NONE', #309, #373 ) ;
#307 = PLANE ( 'NONE',  #329 ) ;
#308 = DATE_TIME_ROLE ( 'classification_date' ) ;
#309 = CARTESIAN_POINT ( 'NONE',  ( -23.74999999999998200, -92.75000000000002800, 87.00000000000000000 ) ) ;
#310 = CARTESIAN_POINT ( 'NONE',  ( 21.74999999999999300, 90.74999999999997200, 0.0000000000000000000 ) ) ;
#311 = LINE ( 'NONE', #169, #148 ) ;
#312 = ORIENTED_EDGE ( 'NONE', *, *, #323, .T. ) ;
#313 = CARTESIAN_POINT ( 'NONE',  ( -21.75000000000000700, 90.74999999999997200, 87.00000000000000000 ) ) ;
#314 = DATE_AND_TIME ( #10, #80 ) ;
#315 = ORIENTED_EDGE ( 'NONE', *, *, #118, .T. ) ;
#316 = CARTESIAN_POINT ( 'NONE',  ( 23.75000000000001800, -92.75000000000002800, 87.00000000000000000 ) ) ;
#317 = DESIGN_CONTEXT ( 'detailed design', #123, 'design' ) ;
#318 = DIRECTION ( 'NONE',  ( 1.496257445586464300E-016, -1.000000000000000000, 0.0000000000000000000 ) ) ;
#319 = DIRECTION ( 'NONE',  ( -1.000000000000000000, -1.146924612216070900E-016, 0.0000000000000000000 ) ) ;
#320 = LINE ( 'NONE', #286, #236 ) ;
#321 = ORIENTED_EDGE ( 'NONE', *, *, #259, .F. ) ;
#322 = AXIS2_PLACEMENT_3D ( 'NONE', #214, #364, #186 ) ;
#323 = EDGE_CURVE ( 'NONE', #258, #32, #354, .T. ) ;
#324 = PERSON_AND_ORGANIZATION ( #239, #267 ) ;
#325 = ORIENTED_EDGE ( 'NONE', *, *, #130, .T. ) ;
#326 = APPROVAL ( #155, 'UNSPECIFIED' ) ;
#327 = LINE ( 'NONE', #104, #245 ) ;
#328 = ORIENTED_EDGE ( 'NONE', *, *, #86, .F. ) ;
#329 = AXIS2_PLACEMENT_3D ( 'NONE', #91, #178, #225 ) ;
#330 = PLANE ( 'NONE',  #201 ) ;
#331 = ORIENTED_EDGE ( 'NONE', *, *, #187, .T. ) ;
#332 =( LENGTH_UNIT ( ) NAMED_UNIT ( * ) SI_UNIT ( .MILLI., .METRE. ) );
#333 = APPLICATION_PROTOCOL_DEFINITION ( 'international standard', 'config_control_design', 1994, #123 ) ;
#334 = APPROVAL_ROLE ( '' ) ;
#335 = FACE_OUTER_BOUND ( 'NONE', #234, .T. ) ;
#336 = VERTEX_POINT ( 'NONE', #221 ) ;
#337 = DIRECTION ( 'NONE',  ( 1.000000000000000000, 0.0000000000000000000, 0.0000000000000000000 ) ) ;
#338 = PLANE ( 'NONE',  #322 ) ;
#339 = ADVANCED_FACE ( 'NONE', ( #199 ), #307, .T. ) ;
#340 = CARTESIAN_POINT ( 'NONE',  ( -23.74999999999998200, -92.75000000000002800, 87.00000000000000000 ) ) ;
#341 = VERTEX_POINT ( 'NONE', #83 ) ;
#342 = CC_DESIGN_APPROVAL ( #326, ( #303 ) ) ;
#343 = CARTESIAN_POINT ( 'NONE',  ( -23.75000000000001100, 92.74999999999997200, 87.00000000000000000 ) ) ;
#344 = LOCAL_TIME ( 9, 44, 58.00000000000000000, #37 ) ;
#345 = LINE ( 'NONE', #370, #274 ) ;
#346 = ORIENTED_EDGE ( 'NONE', *, *, #111, .T. ) ;
#347 = CARTESIAN_POINT ( 'NONE',  ( -23.74999999999998200, -92.75000000000002800, 87.00000000000000000 ) ) ;
#348 = ORIENTED_EDGE ( 'NONE', *, *, #207, .F. ) ;
#349 =( GEOMETRIC_REPRESENTATION_CONTEXT ( 3 ) GLOBAL_UNCERTAINTY_ASSIGNED_CONTEXT ( ( #157 ) ) GLOBAL_UNIT_ASSIGNED_CONTEXT ( ( #332, #151, #357 ) ) REPRESENTATION_CONTEXT ( 'NONE', 'WORKASPACE' ) );
#350 = CALENDAR_DATE ( 2019, 7, 8 ) ;
#351 = VECTOR ( 'NONE', #129, 1000.000000000000000 ) ;
#352 = EDGE_LOOP ( 'NONE', ( #301, #27, #39, #312 ) ) ;
#353 = AXIS2_PLACEMENT_3D ( 'NONE', #158, #185, #15 ) ;
#354 = LINE ( 'NONE', #262, #42 ) ;
#355 = ORIENTED_EDGE ( 'NONE', *, *, #249, .F. ) ;
#356 = DIRECTION ( 'NONE',  ( -0.0000000000000000000, -0.0000000000000000000, -1.000000000000000000 ) ) ;
#357 =( NAMED_UNIT ( * ) SI_UNIT ( $, .STERADIAN. ) SOLID_ANGLE_UNIT ( ) );
#358 = CC_DESIGN_PERSON_AND_ORGANIZATION_ASSIGNMENT ( #152, #180, ( #303 ) ) ;
#359 = APPROVAL_ROLE ( '' ) ;
#360 = PERSON_AND_ORGANIZATION ( #239, #267 ) ;
#361 = FACE_BOUND ( 'NONE', #265, .T. ) ;
#362 = ORIENTED_EDGE ( 'NONE', *, *, #70, .T. ) ;
#363 = CARTESIAN_POINT ( 'NONE',  ( 23.74999999999998900, 92.74999999999997200, 0.0000000000000000000 ) ) ;
#364 = DIRECTION ( 'NONE',  ( -0.0000000000000000000, 0.0000000000000000000, 1.000000000000000000 ) ) ;
#365 = LINE ( 'NONE', #24, #205 ) ;
#366 = ORIENTED_EDGE ( 'NONE', *, *, #159, .T. ) ;
#367 = CARTESIAN_POINT ( 'NONE',  ( -23.75000000000001100, 92.74999999999997200, 87.00000000000000000 ) ) ;
#368 = ADVANCED_FACE ( 'NONE', ( #119 ), #33, .T. ) ;
#369 = AXIS2_PLACEMENT_3D ( 'NONE', #62, #270, #88 ) ;
#370 = CARTESIAN_POINT ( 'NONE',  ( -21.75000000000000700, 90.74999999999997200, 0.0000000000000000000 ) ) ;
#371 = COORDINATED_UNIVERSAL_TIME_OFFSET ( 1, 0, .AHEAD. ) ;
#372 = DIRECTION ( 'NONE',  ( -1.146924612216070900E-016, 1.000000000000000000, -0.0000000000000000000 ) ) ;
#373 = VECTOR ( 'NONE', #337, 1000.000000000000000 ) ;
ENDSEC;
END-ISO-10303-21;
