ISO-10303-21;
HEADER;
/* Generated by software containing ST-Developer
 * from STEP Tools, Inc. (www.steptools.com) 
 */

FILE_DESCRIPTION(
/* description */ ('Alibre Inc.'),
/* implementation_level */ '2;1');

FILE_NAME(
/* name */ 'export0',
/* time_stamp */ '2019-08-13T15:19:57+02:00',
/* author */ (''),
/* organization */ (''),
/* preprocessor_version */ 'ST-DEVELOPER v14',
/* originating_system */ 'Alibre',
/* authorisation */ '');

FILE_SCHEMA (('CONFIG_CONTROL_DESIGN'));
ENDSEC;

DATA;
#10=MECHANICAL_CONTEXT('detailed design',#18,'mechanical');
#11=PRODUCT_RELATED_PRODUCT_CATEGORY('d\X\E9tail','',(#98));
#12=CC_DESIGN_SECURITY_CLASSIFICATION(#14,(#97));
#13=SECURITY_CLASSIFICATION_LEVEL('unclassified');
#14=SECURITY_CLASSIFICATION('nom','Niveau de s\X\E9curit\X\E9 pour la v
ersion',#13);
#15=SHAPE_DEFINITION_REPRESENTATION(#16,#510);
#16=PRODUCT_DEFINITION_SHAPE('','Desc. D\X\E9finition',#96);
#17=APPLICATION_PROTOCOL_DEFINITION('AP definition status',
'config_control_design',1994,#18);
#18=APPLICATION_CONTEXT(
'control the configuration of three dimensional design');
#19=DESIGN_CONTEXT('detailed design',#18,'design');
#20=PERSON_AND_ORGANIZATION_ROLE('creator');
#21=PERSON_AND_ORGANIZATION_ROLE('classification_officer');
#22=PERSON_AND_ORGANIZATION_ROLE('creator');
#23=PERSON_AND_ORGANIZATION_ROLE('design_supplier');
#24=PERSON_AND_ORGANIZATION_ROLE('design_owner');
#25=CC_DESIGN_PERSON_AND_ORGANIZATION_ASSIGNMENT(#57,#20,(#96));
#26=CC_DESIGN_PERSON_AND_ORGANIZATION_ASSIGNMENT(#60,#21,(#14));
#27=CC_DESIGN_PERSON_AND_ORGANIZATION_ASSIGNMENT(#61,#22,(#97));
#28=CC_DESIGN_PERSON_AND_ORGANIZATION_ASSIGNMENT(#62,#23,(#97));
#29=CC_DESIGN_PERSON_AND_ORGANIZATION_ASSIGNMENT(#63,#24,(#98));
#30=DATE_TIME_ROLE('creation_date');
#31=DATE_TIME_ROLE('classification_date');
#32=CC_DESIGN_DATE_AND_TIME_ASSIGNMENT(#86,#30,(#96));
#33=CC_DESIGN_DATE_AND_TIME_ASSIGNMENT(#89,#31,(#14));
#34=CC_DESIGN_APPROVAL(#93,(#96));
#35=CC_DESIGN_APPROVAL(#94,(#97));
#36=CC_DESIGN_APPROVAL(#95,(#14));
#37=APPROVAL_PERSON_ORGANIZATION(#56,#93,#64);
#38=APPROVAL_PERSON_ORGANIZATION(#58,#94,#65);
#39=APPROVAL_PERSON_ORGANIZATION(#59,#95,#66);
#40=ORGANIZATION('DEFINITION_APPROVEDBY_ORG_ID',
'DEFINITION_APPROVEDBY_ORG_NAME','DEFINITION_APPROVEDBY_ORG_DESCR');
#41=ORGANIZATION('DEF_CREATOR_ORG_ID','DEF_CREATOR_ORG_NAME',
'DEF_CREATOR_ORG_DESCR');
#42=ORGANIZATION('ID_ORG_APPROBATEUR','NOM_ORG_APPROBATEUR',
'DESCR_ORG_APPROBATEUR');
#43=ORGANIZATION('SECURITY_APPROVEDBY_ORG_ID',
'SECURITY_APPROVEDBY_ORG_NAME','SECURITY_APPROVEDBY_ORG_DESCR');
#44=ORGANIZATION('CLASSOFFICER_ORG_ID','CLASSOFFICER_ORG_NAME',
'CLASSOFFICER_ORG_DESCR');
#45=ORGANIZATION('CODE_SOCIETE_CREATEUR','NOM_SOCIETE_CREATEUR',
'DESCRIPTION_SOCIETE_CREATEUR');
#46=ORGANIZATION('SUPPLIER_ORG_ID','SUPPLIER_ORG_NAME',
'SUPPLIER_ORG_DESCR');
#47=ORGANIZATION('PROPRIETAIRE_SOCIETE_ID','PROPRIETAIRE_SOCIETE_NOM',
'PROPRIETAIRE_SOCIETE_DESCRIPTION');
#48=PERSON('ID_Validateur D\X\E9finition',
'DEFINITION_APPROVEDBY_LASTNAME','DEFINITION_APPROVEDBY_FIRSTNAME',$,$,$);
#49=PERSON('DEF_createrID','DEF_CREATOR_LASTNAME',
'DEF_CREATOR_FIRSTNAME',$,$,$);
#50=PERSON('ID Validateur','NOM_APPROBATEUR','PRENOM_APPROBATEUR',$,$,$);
#51=PERSON('SECURITY_approverID','SECURITY_LASTNAME',
'SECURITY_APPROVEDBY_FIRSTNAME',$,$,$);
#52=PERSON('classifierID','CLASSOFFICER_LASTNAME',
'CLASSOFFICER_FIRSTNAME',$,$,$);
#53=PERSON('Code cr\X\E9ateur','NOM_CREATEUR','PRENOM_CREATEUR',$,$,$);
#54=PERSON('Code fournisseur','SUPPLIER_LASTNAME','SUPPLIER_FIRSTNAME',$,
$,$);
#55=PERSON('ID propri\X\E9taire','PROPRIETAIRE_NOM',
'PROPRIETAIRE_PRENOM',$,$,$);
#56=PERSON_AND_ORGANIZATION(#48,#40);
#57=PERSON_AND_ORGANIZATION(#49,#41);
#58=PERSON_AND_ORGANIZATION(#50,#42);
#59=PERSON_AND_ORGANIZATION(#51,#43);
#60=PERSON_AND_ORGANIZATION(#52,#44);
#61=PERSON_AND_ORGANIZATION(#53,#45);
#62=PERSON_AND_ORGANIZATION(#54,#46);
#63=PERSON_AND_ORGANIZATION(#55,#47);
#64=APPROVAL_ROLE('definition_approval');
#65=APPROVAL_ROLE('version_approval');
#66=APPROVAL_ROLE('security_approval');
#67=APPROVAL_DATE_TIME(#85,#93);
#68=APPROVAL_DATE_TIME(#87,#94);
#69=APPROVAL_DATE_TIME(#88,#95);
#70=COORDINATED_UNIVERSAL_TIME_OFFSET(2,0,.AHEAD.);
#71=COORDINATED_UNIVERSAL_TIME_OFFSET(2,0,.AHEAD.);
#72=COORDINATED_UNIVERSAL_TIME_OFFSET(2,0,.AHEAD.);
#73=COORDINATED_UNIVERSAL_TIME_OFFSET(2,0,.AHEAD.);
#74=COORDINATED_UNIVERSAL_TIME_OFFSET(2,0,.AHEAD.);
#75=LOCAL_TIME(14,5,33.,#70);
#76=LOCAL_TIME(14,5,33.,#71);
#77=LOCAL_TIME(14,5,33.,#72);
#78=LOCAL_TIME(14,5,33.,#73);
#79=LOCAL_TIME(14,5,33.,#74);
#80=CALENDAR_DATE(2019,9,7);
#81=CALENDAR_DATE(2019,9,7);
#82=CALENDAR_DATE(2019,9,7);
#83=CALENDAR_DATE(2019,9,7);
#84=CALENDAR_DATE(2019,9,7);
#85=DATE_AND_TIME(#80,#75);
#86=DATE_AND_TIME(#81,#76);
#87=DATE_AND_TIME(#82,#77);
#88=DATE_AND_TIME(#83,#78);
#89=DATE_AND_TIME(#84,#79);
#90=APPROVAL_STATUS('not_yet_approved');
#91=APPROVAL_STATUS('not_yet_approved');
#92=APPROVAL_STATUS('not_yet_approved');
#93=APPROVAL(#90,'Concept valid\X\E9');
#94=APPROVAL(#91,'version approuv\X\E9e');
#95=APPROVAL(#92,'security approval');
#96=PRODUCT_DEFINITION('ID D\X\E9finition','Desc. D\X\E9finition',#97,#19);
#97=PRODUCT_DEFINITION_FORMATION_WITH_SPECIFIED_SOURCE(
'REFERENCE_PRODUIT','DESCR_VERSION_PRODUIT',#98,.NOT_KNOWN.);
#98=PRODUCT('ID_1','Statif','',(#10));
#99=(
LENGTH_UNIT()
NAMED_UNIT(*)
SI_UNIT(.CENTI.,.METRE.)
);
#100=(
NAMED_UNIT(*)
PLANE_ANGLE_UNIT()
SI_UNIT($,.RADIAN.)
);
#101=(
NAMED_UNIT(*)
SI_UNIT($,.STERADIAN.)
SOLID_ANGLE_UNIT()
);
#102=UNCERTAINTY_MEASURE_WITH_UNIT(LENGTH_MEASURE(1.E-006),#99,
'DISTANCE_ACCURACY_VALUE',
'Maximum model space distance between geometric entities at asserted co
nnectivities');
#103=(
GEOMETRIC_REPRESENTATION_CONTEXT(3)
GLOBAL_UNCERTAINTY_ASSIGNED_CONTEXT((#102))
GLOBAL_UNIT_ASSIGNED_CONTEXT((#101,#100,#99))
REPRESENTATION_CONTEXT('ID1','3D')
);
#104=CYLINDRICAL_SURFACE('',#358,0.3);
#105=CYLINDRICAL_SURFACE('',#360,0.245850000000001);
#106=CYLINDRICAL_SURFACE('',#362,0.418799999999999);
#107=CYLINDRICAL_SURFACE('',#364,0.245850000000001);
#108=CYLINDRICAL_SURFACE('',#366,0.418799999999999);
#109=CIRCLE('',#353,0.418799999999999);
#110=CIRCLE('',#354,0.245850000000001);
#111=CIRCLE('',#355,0.418799999999999);
#112=CIRCLE('',#356,0.245850000000001);
#113=CIRCLE('',#357,0.3);
#114=CIRCLE('',#359,0.3);
#115=CIRCLE('',#361,0.245850000000001);
#116=CIRCLE('',#363,0.418799999999999);
#117=CIRCLE('',#365,0.245850000000001);
#118=CIRCLE('',#367,0.418799999999999);
#119=VERTEX_POINT('',#433);
#120=VERTEX_POINT('',#434);
#121=VERTEX_POINT('',#436);
#122=VERTEX_POINT('',#438);
#123=VERTEX_POINT('',#442);
#124=VERTEX_POINT('',#444);
#125=VERTEX_POINT('',#448);
#126=VERTEX_POINT('',#450);
#127=VERTEX_POINT('',#457);
#128=VERTEX_POINT('',#459);
#129=VERTEX_POINT('',#463);
#130=VERTEX_POINT('',#467);
#131=VERTEX_POINT('',#469);
#132=VERTEX_POINT('',#471);
#133=VERTEX_POINT('',#473);
#134=VERTEX_POINT('',#475);
#135=VERTEX_POINT('',#478);
#136=VERTEX_POINT('',#481);
#137=VERTEX_POINT('',#484);
#138=VERTEX_POINT('',#487);
#139=VERTEX_POINT('',#490);
#140=VERTEX_POINT('',#493);
#141=VECTOR('',#372,1.);
#142=VECTOR('',#373,1.);
#143=VECTOR('',#374,1.);
#144=VECTOR('',#375,1.);
#145=VECTOR('',#377,1.);
#146=VECTOR('',#378,1.);
#147=VECTOR('',#379,1.);
#148=VECTOR('',#381,1.);
#149=VECTOR('',#382,1.);
#150=VECTOR('',#383,1.);
#151=VECTOR('',#385,1.);
#152=VECTOR('',#386,1.);
#153=VECTOR('',#388,1.);
#154=VECTOR('',#389,1.);
#155=VECTOR('',#390,1.);
#156=VECTOR('',#392,1.);
#157=VECTOR('',#393,1.);
#158=VECTOR('',#426,1.);
#159=VECTOR('',#427,1.);
#160=VECTOR('',#429,1.);
#161=LINE('',#432,#141);
#162=LINE('',#435,#142);
#163=LINE('',#437,#143);
#164=LINE('',#439,#144);
#165=LINE('',#441,#145);
#166=LINE('',#443,#146);
#167=LINE('',#445,#147);
#168=LINE('',#447,#148);
#169=LINE('',#449,#149);
#170=LINE('',#451,#150);
#171=LINE('',#453,#151);
#172=LINE('',#454,#152);
#173=LINE('',#456,#153);
#174=LINE('',#458,#154);
#175=LINE('',#460,#155);
#176=LINE('',#462,#156);
#177=LINE('',#464,#157);
#178=LINE('',#492,#158);
#179=LINE('',#494,#159);
#180=LINE('',#496,#160);
#181=EDGE_CURVE('',#119,#120,#161,.T.);
#182=EDGE_CURVE('',#120,#121,#162,.T.);
#183=EDGE_CURVE('',#121,#122,#163,.T.);
#184=EDGE_CURVE('',#122,#119,#164,.T.);
#185=EDGE_CURVE('',#123,#119,#165,.T.);
#186=EDGE_CURVE('',#122,#124,#166,.T.);
#187=EDGE_CURVE('',#124,#123,#167,.T.);
#188=EDGE_CURVE('',#125,#123,#168,.T.);
#189=EDGE_CURVE('',#124,#126,#169,.T.);
#190=EDGE_CURVE('',#126,#125,#170,.T.);
#191=EDGE_CURVE('',#120,#125,#171,.T.);
#192=EDGE_CURVE('',#126,#121,#172,.T.);
#193=EDGE_CURVE('',#122,#127,#173,.T.);
#194=EDGE_CURVE('',#127,#128,#174,.T.);
#195=EDGE_CURVE('',#124,#128,#175,.T.);
#196=EDGE_CURVE('',#121,#129,#176,.T.);
#197=EDGE_CURVE('',#129,#127,#177,.T.);
#198=EDGE_CURVE('',#130,#130,#109,.T.);
#199=EDGE_CURVE('',#131,#131,#110,.T.);
#200=EDGE_CURVE('',#132,#132,#111,.T.);
#201=EDGE_CURVE('',#133,#133,#112,.T.);
#202=EDGE_CURVE('',#134,#134,#113,.T.);
#203=EDGE_CURVE('',#135,#135,#114,.T.);
#204=EDGE_CURVE('',#136,#136,#115,.T.);
#205=EDGE_CURVE('',#137,#137,#116,.T.);
#206=EDGE_CURVE('',#138,#138,#117,.T.);
#207=EDGE_CURVE('',#139,#139,#118,.T.);
#208=EDGE_CURVE('',#128,#140,#178,.T.);
#209=EDGE_CURVE('',#126,#140,#179,.T.);
#210=EDGE_CURVE('',#140,#129,#180,.T.);
#211=ORIENTED_EDGE('',*,*,#181,.T.);
#212=ORIENTED_EDGE('',*,*,#182,.T.);
#213=ORIENTED_EDGE('',*,*,#183,.T.);
#214=ORIENTED_EDGE('',*,*,#184,.T.);
#215=ORIENTED_EDGE('',*,*,#185,.T.);
#216=ORIENTED_EDGE('',*,*,#184,.F.);
#217=ORIENTED_EDGE('',*,*,#186,.T.);
#218=ORIENTED_EDGE('',*,*,#187,.T.);
#219=ORIENTED_EDGE('',*,*,#188,.T.);
#220=ORIENTED_EDGE('',*,*,#187,.F.);
#221=ORIENTED_EDGE('',*,*,#189,.T.);
#222=ORIENTED_EDGE('',*,*,#190,.T.);
#223=ORIENTED_EDGE('',*,*,#191,.T.);
#224=ORIENTED_EDGE('',*,*,#190,.F.);
#225=ORIENTED_EDGE('',*,*,#192,.T.);
#226=ORIENTED_EDGE('',*,*,#182,.F.);
#227=ORIENTED_EDGE('',*,*,#186,.F.);
#228=ORIENTED_EDGE('',*,*,#193,.T.);
#229=ORIENTED_EDGE('',*,*,#194,.T.);
#230=ORIENTED_EDGE('',*,*,#195,.F.);
#231=ORIENTED_EDGE('',*,*,#183,.F.);
#232=ORIENTED_EDGE('',*,*,#196,.T.);
#233=ORIENTED_EDGE('',*,*,#197,.T.);
#234=ORIENTED_EDGE('',*,*,#193,.F.);
#235=ORIENTED_EDGE('',*,*,#198,.T.);
#236=ORIENTED_EDGE('',*,*,#199,.T.);
#237=ORIENTED_EDGE('',*,*,#200,.T.);
#238=ORIENTED_EDGE('',*,*,#201,.T.);
#239=ORIENTED_EDGE('',*,*,#202,.T.);
#240=ORIENTED_EDGE('',*,*,#181,.F.);
#241=ORIENTED_EDGE('',*,*,#185,.F.);
#242=ORIENTED_EDGE('',*,*,#188,.F.);
#243=ORIENTED_EDGE('',*,*,#191,.F.);
#244=ORIENTED_EDGE('',*,*,#203,.F.);
#245=ORIENTED_EDGE('',*,*,#202,.F.);
#246=ORIENTED_EDGE('',*,*,#204,.F.);
#247=ORIENTED_EDGE('',*,*,#201,.F.);
#248=ORIENTED_EDGE('',*,*,#205,.F.);
#249=ORIENTED_EDGE('',*,*,#200,.F.);
#250=ORIENTED_EDGE('',*,*,#206,.F.);
#251=ORIENTED_EDGE('',*,*,#199,.F.);
#252=ORIENTED_EDGE('',*,*,#207,.F.);
#253=ORIENTED_EDGE('',*,*,#198,.F.);
#254=ORIENTED_EDGE('',*,*,#189,.F.);
#255=ORIENTED_EDGE('',*,*,#195,.T.);
#256=ORIENTED_EDGE('',*,*,#208,.T.);
#257=ORIENTED_EDGE('',*,*,#209,.F.);
#258=ORIENTED_EDGE('',*,*,#192,.F.);
#259=ORIENTED_EDGE('',*,*,#209,.T.);
#260=ORIENTED_EDGE('',*,*,#210,.T.);
#261=ORIENTED_EDGE('',*,*,#196,.F.);
#262=ORIENTED_EDGE('',*,*,#203,.T.);
#263=ORIENTED_EDGE('',*,*,#204,.T.);
#264=ORIENTED_EDGE('',*,*,#205,.T.);
#265=ORIENTED_EDGE('',*,*,#206,.T.);
#266=ORIENTED_EDGE('',*,*,#207,.T.);
#267=ORIENTED_EDGE('',*,*,#194,.F.);
#268=ORIENTED_EDGE('',*,*,#197,.F.);
#269=ORIENTED_EDGE('',*,*,#210,.F.);
#270=ORIENTED_EDGE('',*,*,#208,.F.);
#271=EDGE_LOOP('',(#211,#212,#213,#214));
#272=EDGE_LOOP('',(#215,#216,#217,#218));
#273=EDGE_LOOP('',(#219,#220,#221,#222));
#274=EDGE_LOOP('',(#223,#224,#225,#226));
#275=EDGE_LOOP('',(#227,#228,#229,#230));
#276=EDGE_LOOP('',(#231,#232,#233,#234));
#277=EDGE_LOOP('',(#235));
#278=EDGE_LOOP('',(#236));
#279=EDGE_LOOP('',(#237));
#280=EDGE_LOOP('',(#238));
#281=EDGE_LOOP('',(#239));
#282=EDGE_LOOP('',(#240,#241,#242,#243));
#283=EDGE_LOOP('',(#244));
#284=EDGE_LOOP('',(#245));
#285=EDGE_LOOP('',(#246));
#286=EDGE_LOOP('',(#247));
#287=EDGE_LOOP('',(#248));
#288=EDGE_LOOP('',(#249));
#289=EDGE_LOOP('',(#250));
#290=EDGE_LOOP('',(#251));
#291=EDGE_LOOP('',(#252));
#292=EDGE_LOOP('',(#253));
#293=EDGE_LOOP('',(#254,#255,#256,#257));
#294=EDGE_LOOP('',(#258,#259,#260,#261));
#295=EDGE_LOOP('',(#262));
#296=EDGE_LOOP('',(#263));
#297=EDGE_LOOP('',(#264));
#298=EDGE_LOOP('',(#265));
#299=EDGE_LOOP('',(#266));
#300=EDGE_LOOP('',(#267,#268,#269,#270));
#301=FACE_BOUND('',#271,.T.);
#302=FACE_BOUND('',#272,.T.);
#303=FACE_BOUND('',#273,.T.);
#304=FACE_BOUND('',#274,.T.);
#305=FACE_BOUND('',#275,.T.);
#306=FACE_BOUND('',#276,.T.);
#307=FACE_BOUND('',#277,.T.);
#308=FACE_BOUND('',#278,.T.);
#309=FACE_BOUND('',#279,.T.);
#310=FACE_BOUND('',#280,.T.);
#311=FACE_BOUND('',#281,.T.);
#312=FACE_BOUND('',#282,.T.);
#313=FACE_BOUND('',#283,.T.);
#314=FACE_BOUND('',#284,.T.);
#315=FACE_BOUND('',#285,.T.);
#316=FACE_BOUND('',#286,.T.);
#317=FACE_BOUND('',#287,.T.);
#318=FACE_BOUND('',#288,.T.);
#319=FACE_BOUND('',#289,.T.);
#320=FACE_BOUND('',#290,.T.);
#321=FACE_BOUND('',#291,.T.);
#322=FACE_BOUND('',#292,.T.);
#323=FACE_BOUND('',#293,.T.);
#324=FACE_BOUND('',#294,.T.);
#325=FACE_BOUND('',#295,.T.);
#326=FACE_BOUND('',#296,.T.);
#327=FACE_BOUND('',#297,.T.);
#328=FACE_BOUND('',#298,.T.);
#329=FACE_BOUND('',#299,.T.);
#330=FACE_BOUND('',#300,.T.);
#331=ADVANCED_FACE('',(#301),#498,.T.);
#332=ADVANCED_FACE('',(#302),#499,.T.);
#333=ADVANCED_FACE('',(#303),#500,.T.);
#334=ADVANCED_FACE('',(#304),#501,.T.);
#335=ADVANCED_FACE('',(#305),#502,.T.);
#336=ADVANCED_FACE('',(#306),#503,.T.);
#337=ADVANCED_FACE('',(#307,#308,#309,#310,#311,#312),#504,.F.);
#338=ADVANCED_FACE('',(#313,#314),#104,.F.);
#339=ADVANCED_FACE('',(#315,#316),#105,.F.);
#340=ADVANCED_FACE('',(#317,#318),#106,.F.);
#341=ADVANCED_FACE('',(#319,#320),#107,.F.);
#342=ADVANCED_FACE('',(#321,#322),#108,.F.);
#343=ADVANCED_FACE('',(#323),#505,.T.);
#344=ADVANCED_FACE('',(#324),#506,.T.);
#345=ADVANCED_FACE('',(#325,#326,#327,#328,#329,#330),#507,.T.);
#346=AXIS2_PLACEMENT_3D('',#431,#371,$);
#347=AXIS2_PLACEMENT_3D('',#440,#376,$);
#348=AXIS2_PLACEMENT_3D('',#446,#380,$);
#349=AXIS2_PLACEMENT_3D('',#452,#384,$);
#350=AXIS2_PLACEMENT_3D('',#455,#387,$);
#351=AXIS2_PLACEMENT_3D('',#461,#391,$);
#352=AXIS2_PLACEMENT_3D('',#465,#394,$);
#353=AXIS2_PLACEMENT_3D('',#466,#395,#396);
#354=AXIS2_PLACEMENT_3D('',#468,#397,#398);
#355=AXIS2_PLACEMENT_3D('',#470,#399,#400);
#356=AXIS2_PLACEMENT_3D('',#472,#401,#402);
#357=AXIS2_PLACEMENT_3D('',#474,#403,#404);
#358=AXIS2_PLACEMENT_3D('',#476,#405,#406);
#359=AXIS2_PLACEMENT_3D('',#477,#407,#408);
#360=AXIS2_PLACEMENT_3D('',#479,#409,#410);
#361=AXIS2_PLACEMENT_3D('',#480,#411,#412);
#362=AXIS2_PLACEMENT_3D('',#482,#413,#414);
#363=AXIS2_PLACEMENT_3D('',#483,#415,#416);
#364=AXIS2_PLACEMENT_3D('',#485,#417,#418);
#365=AXIS2_PLACEMENT_3D('',#486,#419,#420);
#366=AXIS2_PLACEMENT_3D('',#488,#421,#422);
#367=AXIS2_PLACEMENT_3D('',#489,#423,#424);
#368=AXIS2_PLACEMENT_3D('',#491,#425,$);
#369=AXIS2_PLACEMENT_3D('',#495,#428,$);
#370=AXIS2_PLACEMENT_3D('',#497,#430,$);
#371=DIRECTION('',(0.707106781186542,0.,-0.707106781186552));
#372=DIRECTION('',(0.,1.,0.));
#373=DIRECTION('',(0.577350269189632,0.577350269189622,0.577350269189624));
#374=DIRECTION('',(0.,-1.,0.));
#375=DIRECTION('',(-0.577350269189632,0.577350269189622,-0.577350269189624));
#376=DIRECTION('',(0.,-0.707106781186549,-0.707106781186546));
#377=DIRECTION('',(1.,0.,0.));
#378=DIRECTION('',(-1.,0.,0.));
#379=DIRECTION('',(0.577350269189632,0.577350269189622,-0.577350269189624));
#380=DIRECTION('',(-0.707106781186542,0.,-0.707106781186552));
#381=DIRECTION('',(0.,-1.,0.));
#382=DIRECTION('',(0.,1.,0.));
#383=DIRECTION('',(0.577350269189632,-0.577350269189622,-0.577350269189624));
#384=DIRECTION('',(0.,0.707106781186549,-0.707106781186546));
#385=DIRECTION('',(-1.,0.,0.));
#386=DIRECTION('',(1.,0.,0.));
#387=DIRECTION('',(0.,-1.,0.));
#388=DIRECTION('',(0.,0.,1.));
#389=DIRECTION('',(-1.,0.,0.));
#390=DIRECTION('',(0.,0.,1.));
#391=DIRECTION('',(1.,0.,0.));
#392=DIRECTION('',(0.,0.,1.));
#393=DIRECTION('',(0.,-1.,0.));
#394=DIRECTION('',(0.,0.,1.));
#395=DIRECTION('',(0.,0.,1.));
#396=DIRECTION('',(0.418799999999999,0.,0.));
#397=DIRECTION('',(0.,0.,1.));
#398=DIRECTION('',(0.245850000000001,0.,0.));
#399=DIRECTION('',(0.,0.,1.));
#400=DIRECTION('',(0.418799999999999,0.,0.));
#401=DIRECTION('',(0.,0.,1.));
#402=DIRECTION('',(0.245850000000001,0.,0.));
#403=DIRECTION('',(0.,0.,1.));
#404=DIRECTION('',(0.3,0.,0.));
#405=DIRECTION('',(0.,0.,1.));
#406=DIRECTION('',(0.3,0.,0.));
#407=DIRECTION('',(0.,0.,-1.));
#408=DIRECTION('',(0.3,0.,0.));
#409=DIRECTION('',(0.,0.,1.));
#410=DIRECTION('',(0.245850000000001,0.,0.));
#411=DIRECTION('',(0.,0.,-1.));
#412=DIRECTION('',(0.245850000000001,0.,0.));
#413=DIRECTION('',(0.,0.,1.));
#414=DIRECTION('',(0.418799999999999,0.,0.));
#415=DIRECTION('',(0.,0.,-1.));
#416=DIRECTION('',(0.418799999999999,0.,0.));
#417=DIRECTION('',(0.,0.,1.));
#418=DIRECTION('',(0.245850000000001,0.,0.));
#419=DIRECTION('',(0.,0.,-1.));
#420=DIRECTION('',(0.245850000000001,0.,0.));
#421=DIRECTION('',(0.,0.,1.));
#422=DIRECTION('',(0.418799999999999,0.,0.));
#423=DIRECTION('',(0.,0.,-1.));
#424=DIRECTION('',(0.418799999999999,0.,0.));
#425=DIRECTION('',(-1.,0.,0.));
#426=DIRECTION('',(0.,1.,0.));
#427=DIRECTION('',(0.,0.,1.));
#428=DIRECTION('',(0.,1.,0.));
#429=DIRECTION('',(1.,0.,0.));
#430=DIRECTION('',(0.,0.,1.));
#431=CARTESIAN_POINT('',(17.45,0.,0.05));
#432=CARTESIAN_POINT('',(17.4,0.,0.));
#433=CARTESIAN_POINT('',(17.4,-9.9,0.));
#434=CARTESIAN_POINT('',(17.4,9.9,0.));
#435=CARTESIAN_POINT('',(17.4,9.9,0.));
#436=CARTESIAN_POINT('',(17.5,10.,0.1));
#437=CARTESIAN_POINT('',(17.5,0.,0.1));
#438=CARTESIAN_POINT('',(17.5,-10.,0.1));
#439=CARTESIAN_POINT('',(17.5,-10.,0.1));
#440=CARTESIAN_POINT('',(0.,-9.95,0.05));
#441=CARTESIAN_POINT('',(0.,-9.9,0.));
#442=CARTESIAN_POINT('',(-17.4,-9.9,0.));
#443=CARTESIAN_POINT('',(0.,-10.,0.1));
#444=CARTESIAN_POINT('',(-17.5,-10.,0.1));
#445=CARTESIAN_POINT('',(-17.5,-10.,0.1));
#446=CARTESIAN_POINT('',(-17.45,0.,0.05));
#447=CARTESIAN_POINT('',(-17.4,0.,0.));
#448=CARTESIAN_POINT('',(-17.4,9.9,0.));
#449=CARTESIAN_POINT('',(-17.5,0.,0.1));
#450=CARTESIAN_POINT('',(-17.5,10.,0.1));
#451=CARTESIAN_POINT('',(-17.5,10.,0.1));
#452=CARTESIAN_POINT('',(0.,9.95,0.05));
#453=CARTESIAN_POINT('',(0.,9.9,0.));
#454=CARTESIAN_POINT('',(0.,10.,0.1));
#455=CARTESIAN_POINT('',(0.,-10.,0.));
#456=CARTESIAN_POINT('',(17.5,-10.,0.));
#457=CARTESIAN_POINT('',(17.5,-10.,0.8));
#458=CARTESIAN_POINT('',(17.5,-10.,0.8));
#459=CARTESIAN_POINT('',(-17.5,-10.,0.8));
#460=CARTESIAN_POINT('',(-17.5,-10.,0.));
#461=CARTESIAN_POINT('',(17.5,0.,0.));
#462=CARTESIAN_POINT('',(17.5,10.,0.));
#463=CARTESIAN_POINT('',(17.5,10.,0.8));
#464=CARTESIAN_POINT('',(17.5,10.,0.8));
#465=CARTESIAN_POINT('',(0.,0.,0.));
#466=CARTESIAN_POINT('',(11.75,-3.,0.));
#467=CARTESIAN_POINT('',(12.1688,-3.,0.));
#468=CARTESIAN_POINT('',(13.2,-3.,0.));
#469=CARTESIAN_POINT('',(13.44585,-3.,0.));
#470=CARTESIAN_POINT('',(-11.75,-3.,0.));
#471=CARTESIAN_POINT('',(-11.3312,-3.,0.));
#472=CARTESIAN_POINT('',(-13.2,-3.,0.));
#473=CARTESIAN_POINT('',(-12.95415,-3.,0.));
#474=CARTESIAN_POINT('',(0.,8.5,0.));
#475=CARTESIAN_POINT('',(0.3,8.5,0.));
#476=CARTESIAN_POINT('',(0.,8.5,0.));
#477=CARTESIAN_POINT('',(0.,8.5,0.8));
#478=CARTESIAN_POINT('',(-0.3,8.5,0.8));
#479=CARTESIAN_POINT('',(-13.2,-3.,0.));
#480=CARTESIAN_POINT('',(-13.2,-3.,0.8));
#481=CARTESIAN_POINT('',(-13.44585,-3.,0.8));
#482=CARTESIAN_POINT('',(-11.75,-3.,0.));
#483=CARTESIAN_POINT('',(-11.75,-3.,0.8));
#484=CARTESIAN_POINT('',(-12.1688,-3.,0.8));
#485=CARTESIAN_POINT('',(13.2,-3.,0.));
#486=CARTESIAN_POINT('',(13.2,-3.,0.8));
#487=CARTESIAN_POINT('',(12.95415,-3.,0.8));
#488=CARTESIAN_POINT('',(11.75,-3.,0.));
#489=CARTESIAN_POINT('',(11.75,-3.,0.8));
#490=CARTESIAN_POINT('',(11.3312,-3.,0.8));
#491=CARTESIAN_POINT('',(-17.5,0.,0.));
#492=CARTESIAN_POINT('',(-17.5,-10.,0.8));
#493=CARTESIAN_POINT('',(-17.5,10.,0.8));
#494=CARTESIAN_POINT('',(-17.5,10.,0.));
#495=CARTESIAN_POINT('',(0.,10.,0.));
#496=CARTESIAN_POINT('',(-17.5,10.,0.8));
#497=CARTESIAN_POINT('',(0.,0.,0.8));
#498=PLANE('',#346);
#499=PLANE('',#347);
#500=PLANE('',#348);
#501=PLANE('',#349);
#502=PLANE('',#350);
#503=PLANE('',#351);
#504=PLANE('',#352);
#505=PLANE('',#368);
#506=PLANE('',#369);
#507=PLANE('',#370);
#508=CLOSED_SHELL('',(#331,#332,#333,#334,#335,#336,#337,#338,#339,#340,
#341,#342,#343,#344,#345));
#509=MANIFOLD_SOLID_BREP('',#508);
#510=ADVANCED_BREP_SHAPE_REPRESENTATION('',(#509),#103);
ENDSEC;
END-ISO-10303-21;
