0
SECTION
2
HEADER
9
$INSUNITS
70
4
9
$ACADVER
1
AC1014
9
$HANDSEED
5
FFFF
0
ENDSEC
0
SECTION
2
TABLES
0
TABLE
2
VPORT
5
8
100
AcDbSymbolTable
0
ENDTAB
0
TABLE
2
LTYPE
5
5
100
AcDbSymbolTable
0
LTYPE
5
14
100
AcDbSymbolTableRecord
100
AcDbLinetypeTableRecord
2
BYBLOCK
70
0
0
LTYPE
5
15
100
AcDbSymbolTableRecord
100
AcDbLinetypeTableRecord
2
BYLAYER
70
0
0
ENDTAB
0
TABLE
2
LAYER
5
2
100
AcDbSymbolTable
70
2
0
LAYER
5
50
100
AcDbSymbolTableRecord
100
AcDbLayerTableRecord
2
0
70
0
6
CONTINUOUS
0
ENDTAB
0
TABLE
2
STYLE
5
3
100
AcDbSymbolTable
70
1
0
STYLE
5
11
100
AcDbSymbolTableRecord
100
AcDbTextStyleTableRecord
2
STANDARD
70
0
0
ENDTAB
0
TABLE
2
VIEW
5
6
100
AcDbSymbolTable
70
0
0
ENDTAB
0
TABLE
2
UCS
5
7
100
AcDbSymbolTable
70
0
0
ENDTAB
0
TABLE
2
APPID
5
9
100
AcDbSymbolTable
70
2
0
APPID
5
12
100
AcDbSymbolTableRecord
100
AcDbRegAppTableRecord
2
ACAD
70
0
0
ENDTAB
0
TABLE
2
DIMSTYLE
5
A
100
AcDbSymbolTable
70
1
0
ENDTAB
0
TABLE
2
BLOCK_RECORD
5
1
100
AcDbSymbolTable
70
1
0
BLOCK_RECORD
5
1F
100
AcDbSymbolTableRecord
100
AcDbBlockTableRecord
2
*MODEL_SPACE
0
BLOCK_RECORD
5
1B
100
AcDbSymbolTableRecord
100
AcDbBlockTableRecord
2
*PAPER_SPACE
0
ENDTAB
0
ENDSEC
0
SECTION
2
BLOCKS
0
BLOCK
5
20
100
AcDbEntity
100
AcDbBlockBegin
2
*MODEL_SPACE
0
ENDBLK
5
21
100
AcDbEntity
100
AcDbBlockEnd
0
BLOCK
5
1C
100
AcDbEntity
100
AcDbBlockBegin
2
*PAPER_SPACE
0
ENDBLK
5
1D
100
AcDbEntity
100
AcDbBlockEnd
0
ENDSEC
0
SECTION
2
ENTITIES
0
CIRCLE
5
100
100
AcDbEntity
8
0
100
AcDbCircle
10
383.16000000000003
20
157
30
0
40
1.7499999999999716
0
CIRCLE
5
101
100
AcDbEntity
8
0
100
AcDbCircle
10
383.16000000000003
20
3.0000000000000071
30
0
40
1.7499999999999716
0
CIRCLE
5
102
100
AcDbEntity
8
0
100
AcDbCircle
10
8
20
157
30
0
40
1.7500000000000027
0
CIRCLE
5
103
100
AcDbEntity
8
0
100
AcDbCircle
10
8
20
3.0000000000000071
30
0
40
1.7500000000000027
0
LWPOLYLINE
5
104
100
AcDbEntity
8
0
100
AcDbPolyline
90
4
70
1
43
0.0
10
367.60000000000002
20
103.03997811432066
10
365.10000000000002
20
103.03997811432066
10
365.09999999999968
20
49.039978114320647
10
367.5999999999998
20
49.039978114320647
0
LWPOLYLINE
5
105
100
AcDbEntity
8
0
100
AcDbPolyline
90
4
70
1
43
0.0
10
251.89999999999981
20
49.039978114320597
10
254.39999999999986
20
49.039978114320597
10
254.40000000000001
20
103.0399781143206
10
251.90000000000001
20
103.0399781143206
0
LWPOLYLINE
5
106
100
AcDbEntity
8
0
100
AcDbPolyline
90
4
70
1
43
0.0
10
174.89999999999998
20
27.039978114320643
10
161.59999999999999
20
27.039978114320643
10
161.59999999999999
20
20.239978114320664
10
174.89999999999998
20
20.239978114320664
0
LWPOLYLINE
5
107
100
AcDbEntity
8
0
100
AcDbPolyline
90
4
70
1
43
0.0
10
288.09999999999997
20
27.023641038799017
10
274.79999999999995
20
27.02364103879902
10
274.79999999999995
20
20.223641038798981
10
288.09999999999997
20
20.223641038798981
0
CIRCLE
5
108
100
AcDbEntity
8
0
100
AcDbCircle
10
92.349999999999994
20
34.099999999999987
30
0
40
1.5000000000000036
0
LWPOLYLINE
5
109
100
AcDbEntity
8
0
100
AcDbPolyline
90
4
70
1
43
0.0
10
31.5
20
42.099999999999994
10
31.5
20
54.399999999999991
10
15
20
54.399999999999991
10
15
20
42.099999999999994
0
LWPOLYLINE
5
110
100
AcDbEntity
8
0
100
AcDbPolyline
90
4
70
1
43
0.0
10
142.70000000000005
20
42.099999999998722
10
142.70000000000005
20
54.399999999998727
10
126.20000000000003
20
54.399999999998727
10
126.20000000000003
20
42.099999999998722
0
LWPOLYLINE
5
111
100
AcDbEntity
8
0
100
AcDbPolyline
90
4
70
1
43
0.0
10
73.700000000000017
20
69.399999999999991
10
73.700000000000017
20
76.199999999999989
10
60
20
76.199999999999989
10
60
20
69.399999999999991
0
LWPOLYLINE
5
112
100
AcDbEntity
8
0
100
AcDbPolyline
90
4
70
1
43
0.0
10
84.600000000000009
20
102.69999999999999
10
84.600000000000009
20
140
10
15
20
140
10
15
20
102.69999999999999
0
LWPOLYLINE
5
113
100
AcDbEntity
8
0
100
AcDbPolyline
90
4
70
1
43
0.0
10
96.200000000000017
20
69.399999999999991
10
96.200000000000017
20
76.199999999999989
10
82.5
20
76.199999999999989
10
82.5
20
69.399999999999991
0
LWPOLYLINE
5
114
100
AcDbEntity
8
0
100
AcDbPolyline
90
4
70
1
43
0.0
10
114.90000000000002
20
42.09999999999944
10
114.90000000000002
20
54.399999999999444
10
98.40000000000002
20
54.399999999999437
10
98.40000000000002
20
42.099999999999433
0
LWPOLYLINE
5
115
100
AcDbEntity
8
0
100
AcDbPolyline
90
4
70
1
43
0.0
10
30
20
20.29999999999999
10
30
20
27.099999999999991
10
16.5
20
27.099999999999991
10
16.5
20
20.29999999999999
0
LWPOLYLINE
5
116
100
AcDbEntity
8
0
100
AcDbPolyline
90
4
70
1
43
0.0
10
140.59999999999999
20
20.299999999998484
10
140.59999999999999
20
27.099999999998484
10
127.10000000000001
20
27.099999999998722
10
127.10000000000001
20
20.299999999998718
0
LWPOLYLINE
5
117
100
AcDbEntity
8
0
100
AcDbPolyline
90
4
70
1
43
0.0
10
372.99999999999989
20
27.16962549350562
10
359.69999999999993
20
27.16962549350562
10
359.69999999999993
20
20.36962549350562
10
372.99999999999989
20
20.36962549350562
0
LWPOLYLINE
5
118
100
AcDbEntity
8
0
100
AcDbPolyline
90
4
70
1
43
0.0
10
259.79999999999995
20
27.03102567348926
10
246.5
20
27.03102567348926
10
246.5
20
20.231025673489235
10
259.79999999999995
20
20.231025673489235
0
LWPOLYLINE
5
119
100
AcDbEntity
8
0
100
AcDbPolyline
90
4
70
1
43
0.0
10
167.00000000000006
20
49.039978114320647
10
169.50000000000011
20
49.039978114320647
10
169.50000000000003
20
103.03997811432066
10
167
20
103.03997811432066
0
LWPOLYLINE
5
120
100
AcDbEntity
8
0
100
AcDbPolyline
90
4
70
1
43
0.0
10
280.19999999999987
20
103.03997811432063
10
280.19999999999993
20
49.039978114320633
10
282.70000000000005
20
49.039978114320633
10
282.69999999999987
20
103.03997811432063
0
CIRCLE
5
121
100
AcDbEntity
8
0
100
AcDbCircle
10
138.35000000000002
20
85.700000000000102
30
0
40
1.5000000000000036
0
LWPOLYLINE
5
122
100
AcDbEntity
8
0
100
AcDbPolyline
90
4
70
1
43
0.0
10
339.30000000000007
20
103.03997811432063
10
336.80000000000007
20
103.03997811432063
10
336.79999999999995
20
49.039978114320633
10
339.30000000000001
20
49.039978114320633
0
LWPOLYLINE
5
123
100
AcDbEntity
8
0
100
AcDbPolyline
90
4
70
1
43
0.0
10
226.10000000000008
20
103.03997811432063
10
223.60000000000008
20
103.03997811432063
10
223.59999999999991
20
49.039978114320633
10
226.09999999999999
20
49.039978114320633
0
LWPOLYLINE
5
124
100
AcDbEntity
8
0
100
AcDbPolyline
90
4
70
1
43
0.0
10
203.19999999999996
20
27.06571200738906
10
189.89999999999998
20
27.06571200738906
10
189.89999999999998
20
20.265712007389016
10
203.19999999999996
20
20.265712007389098
0
LWPOLYLINE
5
125
100
AcDbEntity
8
0
100
AcDbPolyline
90
4
70
1
43
0.0
10
316.39999999999992
20
27.023579755523141
10
303.09999999999997
20
27.023579755523144
10
303.09999999999997
20
20.22357975552314
10
316.39999999999992
20
20.22357975552314
0
LWPOLYLINE
5
126
100
AcDbEntity
8
0
100
AcDbPolyline
90
4
70
1
43
0.0
10
118.20000000000002
20
108.80000000000001
10
118.20000000000002
20
115.60000000000001
10
104.50000000000001
20
115.60000000000001
10
104.50000000000001
20
108.80000000000001
0
LWPOLYLINE
5
127
100
AcDbEntity
8
0
100
AcDbPolyline
90
4
70
1
43
0.0
10
100.60000000000001
20
17.799999999999983
10
100.60000000000001
20
30.099999999999987
10
84.099999999999994
20
30.099999999999987
10
84.099999999999994
20
17.799999999999983
0
LWPOLYLINE
5
128
100
AcDbEntity
8
0
100
AcDbPolyline
90
4
70
1
43
0.0
10
59.300000000000004
20
42.099999999999994
10
59.300000000000004
20
54.399999999999991
10
42.800000000000004
20
54.399999999999991
10
42.800000000000004
20
42.099999999999994
0
LWPOLYLINE
5
129
100
AcDbEntity
8
0
100
AcDbPolyline
90
4
70
1
43
0.0
10
141.19999999999999
20
69.400000000000105
10
141.19999999999999
20
76.200000000000117
10
127.50000000000001
20
76.200000000000117
10
127.50000000000001
20
69.400000000000119
0
LWPOLYLINE
5
130
100
AcDbEntity
8
0
100
AcDbPolyline
90
4
70
1
43
0.0
10
51.200000000000003
20
69.399999999999991
10
51.200000000000003
20
76.199999999999989
10
37.5
20
76.199999999999989
10
37.5
20
69.399999999999991
0
LWPOLYLINE
5
131
100
AcDbEntity
8
0
100
AcDbPolyline
90
4
70
1
43
0.0
10
28.700000000000003
20
69.399999999999991
10
28.700000000000003
20
76.199999999999989
10
15
20
76.199999999999989
10
15
20
69.399999999999991
0
LWPOLYLINE
5
132
100
AcDbEntity
8
0
100
AcDbPolyline
90
4
70
1
43
0.0
10
118.70000000000002
20
69.400000000000006
10
118.70000000000002
20
76.199999999999989
10
105.00000000000001
20
76.200000000000003
10
105.00000000000001
20
69.400000000000006
0
LWPOLYLINE
5
133
100
AcDbEntity
8
0
100
AcDbPolyline
90
4
70
1
43
0.0
10
87.100000000000009
20
42.099999999999994
10
87.100000000000009
20
54.399999999999991
10
70.600000000000009
20
54.399999999999991
10
70.600000000000009
20
42.099999999999994
0
LWPOLYLINE
5
134
100
AcDbEntity
8
0
100
AcDbPolyline
90
4
70
1
43
0.0
10
57.5
20
20.29999999999999
10
57.5
20
27.099999999999991
10
44
20
27.099999999999991
10
44
20
20.29999999999999
0
LWPOLYLINE
5
135
100
AcDbEntity
8
0
100
AcDbPolyline
90
4
70
1
43
0.0
10
140.60000000000002
20
108.80000000000001
10
140.60000000000002
20
115.60000000000001
10
126.90000000000001
20
115.60000000000001
10
126.90000000000001
20
108.80000000000001
0
LWPOLYLINE
5
136
100
AcDbEntity
8
0
100
AcDbPolyline
90
4
70
1
43
0.0
10
344.69999999999993
20
27.023579755523141
10
331.39999999999992
20
27.023579755523144
10
331.39999999999992
20
20.22357975552314
10
344.69999999999993
20
20.22357975552314
0
LWPOLYLINE
5
137
100
AcDbEntity
8
0
100
AcDbPolyline
90
4
70
1
43
0.0
10
231.5
20
27.048368840439142
10
218.19999999999996
20
27.048368840439142
10
218.19999999999996
20
20.248368840439142
10
231.5
20
20.248368840439163
0
LWPOLYLINE
5
138
100
AcDbEntity
8
0
100
AcDbPolyline
90
4
70
1
43
0.0
10
197.80000000000024
20
49.039978114320633
10
197.80000000000007
20
103.03997811432063
10
195.30000000000007
20
103.03997811432063
10
195.30000000000015
20
49.039978114320633
0
LWPOLYLINE
5
139
100
AcDbEntity
8
0
100
AcDbPolyline
90
4
70
1
43
0.0
10
311.00000000000017
20
49.039978114320647
10
310.99999999999983
20
103.03997811432066
10
308.49999999999983
20
103.03997811432066
10
308.50000000000011
20
49.039978114320647
0
CIRCLE
5
140
100
AcDbEntity
8
0
100
AcDbCircle
10
130.34999999999999
20
85.700000000000102
30
0
40
1.5000000000000036
0
LWPOLYLINE
5
141
100
AcDbEntity
8
0
100
AcDbPolyline
90
4
70
1
43
0.0
10
0
20
160
10
391.16000000000008
20
160
10
391.16000000000008
20
0
10
0
20
0
0
CIRCLE
5
142
100
AcDbEntity
8
0
100
AcDbCircle
10
366.34999999999991
20
132.60000000000002
30
0
40
3.2500000000000284
0
CIRCLE
5
143
100
AcDbEntity
8
0
100
AcDbCircle
10
253.14999999999998
20
132.60000000000002
30
0
40
3.2499999999999929
0
CIRCLE
5
144
100
AcDbEntity
8
0
100
AcDbCircle
10
122.55000000000003
20
132.60000000000002
30
0
40
3.2500000000000107
0
CIRCLE
5
145
100
AcDbEntity
8
0
100
AcDbCircle
10
168.25
20
132.60000000000002
30
0
40
3.2499999999999929
0
CIRCLE
5
146
100
AcDbEntity
8
0
100
AcDbCircle
10
281.44999999999987
20
132.60000000000002
30
0
40
3.2499999999999929
0
CIRCLE
5
147
100
AcDbEntity
8
0
100
AcDbCircle
10
338.04999999999995
20
132.60000000000002
30
0
40
3.2500000000000284
0
CIRCLE
5
148
100
AcDbEntity
8
0
100
AcDbCircle
10
224.85000000000008
20
132.60000000000002
30
0
40
3.2499999999999929
0
CIRCLE
5
149
100
AcDbEntity
8
0
100
AcDbCircle
10
196.55000000000004
20
132.60000000000002
30
0
40
3.2499999999999929
0
CIRCLE
5
150
100
AcDbEntity
8
0
100
AcDbCircle
10
309.75
20
132.60000000000002
30
0
40
3.2499999999999929
0
ENDSEC
0
SECTION
2
OBJECTS
0
DICTIONARY
5
C
100
AcDbDictionary
3
ACAD_GROUP
350
D
3
ACAD_MLINESTYLE
350
17
0
DICTIONARY
5
D
100
AcDbDictionary
0
DICTIONARY
5
1A
330
C
100
AcDbDictionary
0
DICTIONARY
5
17
100
AcDbDictionary
0
ENDSEC
0
EOF
