  0
SECTION
  2
HEADER
  9
$ACADVER
  1
AC1015
  9
$ACADMAINTVER
 70
     6
  9
$DWGCODEPAGE
  3
ANSI_1252
  9
$INSBASE
 10
0.0
 20
0.0
 30
0.0
  9
$EXTMIN
 10
-59.0812668112
 20
-97.3082112722
 30
0.0
  9
$EXTMAX
 10
49.7533931363
 20
29.4968092344
 30
0.0
  9
$LIMMIN
 10
0.0
 20
0.0
  9
$LIMMAX
 10
420.0
 20
297.0
  9
$ORTHOMODE
 70
     0
  9
$REGENMODE
 70
     1
  9
$FILLMODE
 70
     1
  9
$QTEXTMODE
 70
     0
  9
$MIRRTEXT
 70
     1
  9
$LTSCALE
 40
1.0
  9
$ATTMODE
 70
     1
  9
$TEXTSIZE
 40
3.5
  9
$TRACEWID
 40
1.0
  9
$TEXTSTYLE
  7
Standard
  9
$CLAYER
  8
0
  9
$CELTYPE
  6
ByLayer
  9
$CECOLOR
 62
   256
  9
$CELTSCALE
 40
1.0
  9
$DISPSILH
 70
     0
  9
$DIMSCALE
 40
1.0
  9
$DIMASZ
 40
3.302
  9
$DIMEXO
 40
1.0
  9
$DIMDLI
 40
3.75
  9
$DIMRND
 40
0.0
  9
$DIMDLE
 40
0.0
  9
$DIMEXE
 40
1.0
  9
$DIMTP
 40
0.0
  9
$DIMTM
 40
0.0
  9
$DIMTXT
 40
3.5
  9
$DIMCEN
 40
2.5
  9
$DIMTSZ
 40
0.0
  9
$DIMTOL
 70
     0
  9
$DIMLIM
 70
     0
  9
$DIMTIH
 70
     1
  9
$DIMTOH
 70
     1
  9
$DIMSE1
 70
     0
  9
$DIMSE2
 70
     0
  9
$DIMTAD
 70
     1
  9
$DIMZIN
 70
     0
  9
$DIMBLK
  1

  9
$DIMASO
 70
     1
  9
$DIMSHO
 70
     1
  9
$DIMPOST
  1

  9
$DIMAPOST
  1

  9
$DIMALT
 70
     0
  9
$DIMALTD
 70
     3
  9
$DIMALTF
 40
0.0393700787
  9
$DIMLFAC
 40
1.0
  9
$DIMTOFL
 70
     1
  9
$DIMTVP
 40
0.0
  9
$DIMTIX
 70
     0
  9
$DIMSOXD
 70
     0
  9
$DIMSAH
 70
     0
  9
$DIMBLK1
  1

  9
$DIMBLK2
  1

  9
$DIMSTYLE
  2
ISO-25
  9
$DIMCLRD
 70
     0
  9
$DIMCLRE
 70
     0
  9
$DIMCLRT
 70
     0
  9
$DIMTFAC
 40
1.0
  9
$DIMGAP
 40
1.524
  9
$DIMJUST
 70
     0
  9
$DIMSD1
 70
     0
  9
$DIMSD2
 70
     0
  9
$DIMTOLJ
 70
     0
  9
$DIMTZIN
 70
     0
  9
$DIMALTZ
 70
     0
  9
$DIMALTTZ
 70
     0
  9
$DIMUPT
 70
     0
  9
$DIMDEC
 70
     2
  9
$DIMTDEC
 70
     2
  9
$DIMALTU
 70
     2
  9
$DIMALTTD
 70
     3
  9
$DIMTXSTY
  7
Standard
  9
$DIMAUNIT
 70
     0
  9
$DIMADEC
 70
     2
  9
$DIMALTRND
 40
0.0
  9
$DIMAZIN
 70
     0
  9
$DIMDSEP
 70
    44
  9
$DIMATFIT
 70
     3
  9
$DIMFRAC
 70
     0
  9
$DIMLDRBLK
  1

  9
$DIMLUNIT
 70
     2
  9
$DIMLWD
 70
    -2
  9
$DIMLWE
 70
    -2
  9
$DIMTMOVE
 70
     0
  9
$LUNITS
 70
     2
  9
$LUPREC
 70
     2
  9
$SKETCHINC
 40
1.0
  9
$FILLETRAD
 40
10.0
  9
$AUNITS
 70
     0
  9
$AUPREC
 70
     2
  9
$MENU
  1
.
  9
$ELEVATION
 40
0.0
  9
$PELEVATION
 40
0.0
  9
$THICKNESS
 40
0.0
  9
$LIMCHECK
 70
     0
  9
$CHAMFERA
 40
0.0
  9
$CHAMFERB
 40
0.0
  9
$CHAMFERC
 40
0.0
  9
$CHAMFERD
 40
0.0
  9
$SKPOLY
 70
     0
  9
$TDCREATE
 40
2458694.038269479
  9
$TDUCREATE
 40
2458693.954936146
  9
$TDUPDATE
 40
2458694.038378345
  9
$TDUUPDATE
 40
2458693.955045011
  9
$TDINDWG
 40
0.0000000116
  9
$TDUSRTIMER
 40
0.0000000116
  9
$USRTIMER
 70
     1
  9
$ANGBASE
 50
0.0
  9
$ANGDIR
 70
     0
  9
$PDMODE
 70
     0
  9
$PDSIZE
 40
-1.0
  9
$PLINEWID
 40
0.0
  9
$SPLFRAME
 70
     0
  9
$SPLINETYPE
 70
     6
  9
$SPLINESEGS
 70
     8
  9
$HANDSEED
  5
105
  9
$SURFTAB1
 70
     6
  9
$SURFTAB2
 70
     6
  9
$SURFTYPE
 70
     6
  9
$SURFU
 70
     6
  9
$SURFV
 70
     6
  9
$UCSBASE
  2

  9
$UCSNAME
  2

  9
$UCSORG
 10
0.0
 20
0.0
 30
0.0
  9
$UCSXDIR
 10
1.0
 20
0.0
 30
0.0
  9
$UCSYDIR
 10
0.0
 20
1.0
 30
0.0
  9
$UCSORTHOREF
  2

  9
$UCSORTHOVIEW
 70
     0
  9
$UCSORGTOP
 10
0.0
 20
0.0
 30
0.0
  9
$UCSORGBOTTOM
 10
0.0
 20
0.0
 30
0.0
  9
$UCSORGLEFT
 10
0.0
 20
0.0
 30
0.0
  9
$UCSORGRIGHT
 10
0.0
 20
0.0
 30
0.0
  9
$UCSORGFRONT
 10
0.0
 20
0.0
 30
0.0
  9
$UCSORGBACK
 10
0.0
 20
0.0
 30
0.0
  9
$PUCSBASE
  2

  9
$PUCSNAME
  2

  9
$PUCSORG
 10
0.0
 20
0.0
 30
0.0
  9
$PUCSXDIR
 10
1.0
 20
0.0
 30
0.0
  9
$PUCSYDIR
 10
0.0
 20
1.0
 30
0.0
  9
$PUCSORTHOREF
  2

  9
$PUCSORTHOVIEW
 70
     0
  9
$PUCSORGTOP
 10
0.0
 20
0.0
 30
0.0
  9
$PUCSORGBOTTOM
 10
0.0
 20
0.0
 30
0.0
  9
$PUCSORGLEFT
 10
0.0
 20
0.0
 30
0.0
  9
$PUCSORGRIGHT
 10
0.0
 20
0.0
 30
0.0
  9
$PUCSORGFRONT
 10
0.0
 20
0.0
 30
0.0
  9
$PUCSORGBACK
 10
0.0
 20
0.0
 30
0.0
  9
$USERI1
 70
     0
  9
$USERI2
 70
     0
  9
$USERI3
 70
     0
  9
$USERI4
 70
     0
  9
$USERI5
 70
     0
  9
$USERR1
 40
0.0
  9
$USERR2
 40
0.0
  9
$USERR3
 40
0.0
  9
$USERR4
 40
0.0
  9
$USERR5
 40
0.0
  9
$WORLDVIEW
 70
     1
  9
$SHADEDGE
 70
     3
  9
$SHADEDIF
 70
    70
  9
$TILEMODE
 70
     1
  9
$MAXACTVP
 70
    64
  9
$PINSBASE
 10
0.0
 20
0.0
 30
0.0
  9
$PLIMCHECK
 70
     0
  9
$PEXTMIN
 10
1.0000000000E+20
 20
1.0000000000E+20
 30
1.0000000000E+20
  9
$PEXTMAX
 10
-1.0000000000E+20
 20
-1.0000000000E+20
 30
-1.0000000000E+20
  9
$PLIMMIN
 10
0.0
 20
0.0
  9
$PLIMMAX
 10
420.0
 20
297.0
  9
$UNITMODE
 70
     0
  9
$VISRETAIN
 70
     1
  9
$PLINEGEN
 70
     0
  9
$PSLTSCALE
 70
     1
  9
$TREEDEPTH
 70
  3020
  9
$CMLSTYLE
  2
Standard
  9
$CMLJUST
 70
     0
  9
$CMLSCALE
 40
20.0
  9
$PROXYGRAPHICS
 70
     1
  9
$MEASUREMENT
 70
     1
  9
$CELWEIGHT
370
    -1
  9
$ENDCAPS
280
     0
  9
$JOINSTYLE
280
     0
  9
$LWDISPLAY
290
     1
  9
$INSUNITS
 70
     4
  9
$HYPERLINKBASE
  1

  9
$STYLESHEET
  1

  9
$XEDIT
290
     1
  9
$CEPSNTYPE
380
     0
  9
$PSTYLEMODE
290
     1
  9
$FINGERPRINTGUID
  2
{BF056223-098E-4568-B2EF-14C0C9055514}
  9
$VERSIONGUID
  2
{FAEB1C32-E019-11D5-929B-00C0DF256EC4}
  9
$EXTNAMES
290
     1
  9
$PSVPSCALE
 40
0.0
  9
$OLESTARTUP
290
     0
  0
ENDSEC
  0
SECTION
  2
CLASSES
  0
CLASS
  1
ACDBDICTIONARYWDFLT
  2
AcDbDictionaryWithDefault
  3
ObjectDBX Classes
 90
        0
280
     0
281
     0
  0
CLASS
  1
VISUALSTYLE
  2
AcDbVisualStyle
  3
ObjectDBX Classes
 90
     4095
280
     0
281
     0
  0
CLASS
  1
MATERIAL
  2
AcDbMaterial
  3
ObjectDBX Classes
 90
     1153
280
     0
281
     0
  0
CLASS
  1
SCALE
  2
AcDbScale
  3
ObjectDBX Classes
 90
     1153
280
     0
281
     0
  0
CLASS
  1
SUN
  2
AcDbSun
  3
SCENEOE
 90
     1153
280
     0
281
     0
  0
CLASS
  1
ACDBPLACEHOLDER
  2
AcDbPlaceHolder
  3
ObjectDBX Classes
 90
        0
280
     0
281
     0
  0
CLASS
  1
LAYOUT
  2
AcDbLayout
  3
ObjectDBX Classes
 90
        0
280
     0
281
     0
  0
ENDSEC
  0
SECTION
  2
TABLES
  0
TABLE
  2
VPORT
  5
8
330
0
100
AcDbSymbolTable
 70
     1
  0
VPORT
  5
29
330
8
100
AcDbSymbolTableRecord
100
AcDbViewportTableRecord
  2
*Active
 70
     0
 10
0.0
 20
0.0
 11
1.0
 21
1.0
 12
-4.6639368374
 22
-33.9057010189
 13
0.0
 23
0.0
 14
10.0
 24
10.0
 15
10.0
 25
10.0
 16
0.0
 26
0.0
 36
1.0
 17
0.0
 27
0.0
 37
0.0
 40
129.3411209167
 41
0.8582835247
 42
50.0
 43
0.0
 44
0.0
 50
0.0
 51
0.0
 71
     0
 72
   100
 73
     1
 74
     3
 75
     0
 76
     0
 77
     0
 78
     0
281
     0
 65
     1
110
0.0
120
0.0
130
0.0
111
1.0
121
0.0
131
0.0
112
0.0
122
1.0
132
0.0
 79
     0
146
0.0
  0
ENDTAB
  0
TABLE
  2
LTYPE
  5
5
330
0
100
AcDbSymbolTable
 70
     6
  0
LTYPE
  5
14
330
5
100
AcDbSymbolTableRecord
100
AcDbLinetypeTableRecord
  2
ByBlock
 70
     0
  3

 72
    65
 73
     0
 40
0.0
  0
LTYPE
  5
15
330
5
100
AcDbSymbolTableRecord
100
AcDbLinetypeTableRecord
  2
ByLayer
 70
     0
  3

 72
    65
 73
     0
 40
0.0
  0
LTYPE
  5
16
330
5
100
AcDbSymbolTableRecord
100
AcDbLinetypeTableRecord
  2
Continuous
 70
     0
  3
Solid line
 72
    65
 73
     0
 40
0.0
  0
LTYPE
  5
6A
330
5
100
AcDbSymbolTableRecord
100
AcDbLinetypeTableRecord
  2
HIDDEN
 70
     0
  3
Hidden __ __ __ __ __ __ __ __ __ __ __ __ __ __
 72
    65
 73
     2
 40
1.905
 49
1.27
 74
     0
 49
-0.635
 74
     0
  0
LTYPE
  5
6B
330
5
100
AcDbSymbolTableRecord
100
AcDbLinetypeTableRecord
  2
PHANTOM
 70
     0
  3
Phantom ______  __  __  ______  __  __  ______
 72
    65
 73
     6
 40
12.7
 49
6.35
 74
     0
 49
-1.27
 74
     0
 49
1.27
 74
     0
 49
-1.27
 74
     0
 49
1.27
 74
     0
 49
-1.27
 74
     0
  0
LTYPE
  5
6C
330
5
100
AcDbSymbolTableRecord
100
AcDbLinetypeTableRecord
  2
CENTER
 70
     0
  3
Center ____ _ ____ _ ____ _ ____ _ ____ _ ____
 72
    65
 73
     4
 40
10.16
 49
6.35
 74
     0
 49
-1.27
 74
     0
 49
1.27
 74
     0
 49
-1.27
 74
     0
  0
LTYPE
  5
6D
330
5
100
AcDbSymbolTableRecord
100
AcDbLinetypeTableRecord
  2
CENTERX2
 70
     0
  3
Center (2x) ________  __  ________  __  _____
 72
    65
 73
     4
 40
20.32
 49
12.7
 74
     0
 49
-2.54
 74
     0
 49
2.54
 74
     0
 49
-2.54
 74
     0
  0
LTYPE
  5
6E
330
5
100
AcDbSymbolTableRecord
100
AcDbLinetypeTableRecord
  2
DOT2
 70
     0
  3
Dot (.5x) ........................................
 72
    65
 73
     2
 40
0.635
 49
0.0
 74
     0
 49
-0.635
 74
     0
  0
ENDTAB
  0
TABLE
  2
LAYER
  5
2
330
0
100
AcDbSymbolTable
 70
     1
  0
LAYER
  5
10
330
2
100
AcDbSymbolTableRecord
100
AcDbLayerTableRecord
  2
0
 70
     0
 62
     7
  6
Continuous
370
    -3
390
F
  0
ENDTAB
  0
TABLE
  2
STYLE
  5
3
330
0
100
AcDbSymbolTable
 70
     1
  0
STYLE
  5
11
330
3
100
AcDbSymbolTableRecord
100
AcDbTextStyleTableRecord
  2
Standard
 70
     0
 40
0.0
 41
1.0
 50
0.0
 71
     0
 42
3.5
  3
txt
  4

  0
ENDTAB
  0
TABLE
  2
VIEW
  5
6
330
0
100
AcDbSymbolTable
 70
     0
  0
ENDTAB
  0
TABLE
  2
UCS
  5
7
330
0
100
AcDbSymbolTable
 70
     0
  0
ENDTAB
  0
TABLE
  2
APPID
  5
9
330
0
100
AcDbSymbolTable
 70
     1
  0
APPID
  5
12
330
9
100
AcDbSymbolTableRecord
100
AcDbRegAppTableRecord
  2
ACAD
 70
     0
  0
ENDTAB
  0
TABLE
  2
DIMSTYLE
  5
A
330
0
100
AcDbSymbolTable
 70
     1
100
AcDbDimStyleTable
  0
DIMSTYLE
105
27
330
A
100
AcDbSymbolTableRecord
100
AcDbDimStyleTableRecord
  2
ISO-25
 70
     0
 41
2.5
 42
0.625
 43
3.75
 44
1.25
 73
     0
 74
     0
 77
     1
 78
     8
140
2.5
141
2.5
143
0.0393700787
147
0.625
171
     3
172
     1
178
     0
271
     2
272
     2
274
     3
278
    44
283
     0
284
     8
340
11
  0
ENDTAB
  0
TABLE
  2
BLOCK_RECORD
  5
1
330
0
100
AcDbSymbolTable
 70
     1
  0
BLOCK_RECORD
  5
1F
330
1
100
AcDbSymbolTableRecord
100
AcDbBlockTableRecord
  2
*Model_Space
340
22
  0
BLOCK_RECORD
  5
1B
330
1
100
AcDbSymbolTableRecord
100
AcDbBlockTableRecord
  2
*Paper_Space
340
1E
  0
BLOCK_RECORD
  5
23
330
1
100
AcDbSymbolTableRecord
100
AcDbBlockTableRecord
  2
*Paper_Space0
340
26
  0
ENDTAB
  0
ENDSEC
  0
SECTION
  2
BLOCKS
  0
BLOCK
  5
20
330
1F
100
AcDbEntity
  8
0
100
AcDbBlockBegin
  2
*Model_Space
 70
     0
 10
0.0
 20
0.0
 30
0.0
  3
*Model_Space
  1
*Model_Space
  0
ENDBLK
  5
21
330
1F
100
AcDbEntity
  8
0
100
AcDbBlockEnd
  0
BLOCK
  5
1C
330
1B
100
AcDbEntity
 67
     1
  8
0
100
AcDbBlockBegin
  2
*Paper_Space
 70
     0
 10
0.0
 20
0.0
 30
0.0
  3
*Paper_Space
  1
*Paper_Space
  0
ENDBLK
  5
1D
330
1B
100
AcDbEntity
 67
     1
  8
0
100
AcDbBlockEnd
  0
BLOCK
  5
24
330
23
100
AcDbEntity
  8
0
100
AcDbBlockBegin
  2
*Paper_Space0
 70
     0
 10
0.0
 20
0.0
 30
0.0
  3
*Paper_Space0
  1
*Paper_Space0
  0
ENDBLK
  5
25
330
23
100
AcDbEntity
  8
0
100
AcDbBlockEnd
  0
ENDSEC
  0
SECTION
  2
ENTITIES
  0
SPLINE
  5
70
330
1F
100
AcDbEntity
  8
0
  6
Continuous
 62
     7
370
    15
100
AcDbSpline
210
0.0
220
0.0
230
1.0
 70
     8
 71
     3
 72
    16
 73
    12
 74
     0
 42
0.000000001
 43
0.00000001
 40
0.0
 40
0.0
 40
0.0
 40
0.0
 40
0.063924679957432
 40
0.1849435445359935
 40
0.3059726938334942
 40
0.4270122918665732
 40
0.5480785719467305
 40
0.6691926566469453
 40
0.7903759423755417
 40
0.9116500156343552
 40
1.0
 40
1.0
 40
1.0
 40
1.0
 10
-3.588735873079342
 20
-19.77156934934163
 30
0.0
 10
-3.342061898910319
 20
-19.79933461348483
 30
0.0
 10
-2.628397643446257
 20
-19.87966362520676
 30
0.0
 10
-1.438369741294134
 20
-19.9705580663985
 30
0.0
 10
-0.0229957528260008
 20
-20.02566316667679
 30
0.0
 10
1.389761756562301
 20
-20.02425709443363
 30
0.0
 10
2.792561859952381
 20
-19.96715196089312
 30
0.0
 10
4.178884959158824
 20
-19.85457333642211
 30
0.0
 10
5.541076142784385
 20
-19.68590165076342
 30
0.0
 10
6.754692559441654
 20
-19.48578355264927
 30
0.0
 10
7.500040236509569
 20
-19.3263451705077
 30
0.0
 10
7.814180971891637
 20
-19.2591468788177
 30
0.0
  0
SPLINE
  5
75
330
1F
100
AcDbEntity
  8
0
  6
Continuous
 62
     7
370
    15
100
AcDbSpline
210
0.0
220
0.0
230
1.0
 70
     8
 71
     3
 72
    12
 73
     8
 74
     0
 42
0.000000001
 43
0.00000001
 40
0.0
 40
0.0
 40
0.0
 40
0.0
 40
0.2344031775028904
 40
0.4370476102821154
 40
0.6243820285294589
 40
0.8222066606955312
 40
1.0
 40
1.0
 40
1.0
 40
1.0
 10
-49.94498367541579
 20
-14.77866588092255
 30
0.0
 10
-49.92965105407288
 20
-14.73206605476836
 30
0.0
 10
-49.90106319281322
 20
-14.64518010519541
 30
0.0
 10
-49.76815046295488
 20
-14.51808066629885
 30
0.0
 10
-49.56971131584312
 20
-14.41304618696717
 30
0.0
 10
-49.31214235752134
 20
-14.35026873593432
 30
0.0
 10
-49.11541634299056
 20
-14.36138871739481
 30
0.0
 10
-49.02229892660453
 20
-14.36665219994097
 30
0.0
  0
SPLINE
  5
76
330
1F
100
AcDbEntity
  8
0
  6
Continuous
 62
     7
370
    15
100
AcDbSpline
210
0.0
220
0.0
230
1.0
 70
     8
 71
     3
 72
    19
 73
    15
 74
     0
 42
0.000000001
 43
0.00000001
 40
0.0
 40
0.0
 40
0.0
 40
0.0
 40
0.0239373591268722
 40
0.1102712378007515
 40
0.1966544505991041
 40
0.2835801892294461
 40
0.3714433848780165
 40
0.4604462974410823
 40
0.550582964511013
 40
0.6416798861350762
 40
0.7334749239564989
 40
0.8256984274746063
 40
0.9181268211367197
 40
1.0
 40
1.0
 40
1.0
 40
1.0
 10
49.73633130010788
 20
-1.334452274131225
 30
0.0
 10
49.74218218756157
 20
-1.26469101967077
 30
0.0
 10
49.76913522771656
 20
-0.9433247470124195
 30
0.0
 10
49.71611251005557
 20
-0.3661975562975484
 30
0.0
 10
49.57550705196797
 20
0.3884954452970449
 30
0.0
 10
49.32885491645141
 20
1.135443900630646
 30
0.0
 10
48.98679072119917
 20
1.871391439249664
 30
0.0
 10
48.54727728193423
 20
2.593335763788833
 30
0.0
 10
48.01231428943539
 20
3.297326777049095
 30
0.0
 10
47.38400436272898
 20
3.978737914988338
 30
0.0
 10
46.66658111570222
 20
4.633017215780723
 30
0.0
 10
45.86346188957997
 20
5.254602003653123
 30
0.0
 10
45.01969878014829
 20
5.820503393094777
 30
0.0
 10
44.41531023332591
 20
6.160584234562186
 30
0.0
 10
44.13141599829429
 20
6.320327483908823
 30
0.0
  0
SPLINE
  5
78
330
1F
100
AcDbEntity
  8
0
  6
Continuous
 62
     7
370
    15
100
AcDbSpline
210
0.0
220
0.0
230
1.0
 70
     8
 71
     3
 72
    22
 73
    18
 74
     0
 42
0.000000001
 43
0.00000001
 40
0.0
 40
0.0
 40
0.0
 40
0.0
 40
0.0373532110913496
 40
0.1081875303654264
 40
0.1791378717214555
 40
0.2502152587116747
 40
0.3214195020913562
 40
0.392733769850239
 40
0.464113387597045
 40
0.5354352431231645
 40
0.6065413682870124
 40
0.6772178396162396
 40
0.747222889333065
 40
0.8163491632569668
 40
0.8845033360908827
 40
0.9517637292372576
 40
1.0
 40
1.0
 40
1.0
 40
1.0
 10
39.76811491028451
 20
-12.09358306114487
 30
0.0
 10
39.97588980553338
 20
-12.0452336301715
 30
0.0
 10
40.57767616156954
 20
-11.90519732863934
 30
0.0
 10
41.53966870235327
 20
-11.63288645805651
 30
0.0
 10
42.6321841107957
 20
-11.26080698554805
 30
0.0
 10
43.66708368688389
 20
-10.83760524197199
 30
0.0
 10
44.63890752661074
 20
-10.36573873661403
 30
0.0
 10
45.54142374356039
 20
-9.846679973153167
 30
0.0
 10
46.36852912573465
 20
-9.282600037126869
 30
0.0
 10
47.11405074355493
 20
-8.67612432036993
 30
0.0
 10
47.7718691072924
 20
-8.030699989314702
 30
0.0
 10
48.33639692190813
 20
-7.350709930929525
 30
0.0
 10
48.80239109534175
 20
-6.641611885899561
 30
0.0
 10
49.16756808920526
 20
-5.909858727565387
 30
0.0
 10
49.42539861205535
 20
-5.161993634965
 30
0.0
 10
49.57762406157475
 20
-4.474226113836243
 30
0.0
 10
49.59831805661598
 20
-4.035154508958
 30
0.0
 10
49.606960740432
 20
-3.851779716125846
 30
0.0
  0
SPLINE
  5
7A
330
1F
100
AcDbEntity
  8
0
  6
Continuous
 62
     7
370
    15
100
AcDbSpline
210
0.0
220
0.0
230
1.0
 70
     8
 71
     3
 72
    16
 73
    12
 74
     0
 42
0.000000001
 43
0.00000001
 40
0.0
 40
0.0
 40
0.0
 40
0.0
 40
0.0641669604718728
 40
0.1857588945196168
 40
0.3072277326138272
 40
0.4285655917022682
 40
0.5497791592651022
 40
0.6708819801885478
 40
0.7918913641400578
 40
0.912826531765719
 40
1.0
 40
1.0
 40
1.0
 40
1.0
 10
18.18659223322524
 20
20.37370655110907
 30
0.0
 10
17.99875637835147
 20
20.47327562958955
 30
0.0
 10
17.45498462267056
 20
20.76152119725954
 30
0.0
 10
16.50576503044803
 20
21.20601874223931
 30
0.0
 10
15.32449053790905
 20
21.69066145006064
 30
0.0
 10
14.09049735767011
 20
22.12766563695456
 30
0.0
 10
12.81114191738727
 20
22.5158546115789
 30
0.0
 10
11.49252156135983
 20
22.85375427724524
 30
0.0
 10
10.14092337758606
 20
23.13888056105599
 30
0.0
 10
8.891930057705672
 20
23.35238166354951
 30
0.0
 10
8.090728590552164
 20
23.45458699247735
 30
0.0
 10
7.755117767111037
 20
23.49739921388205
 30
0.0
  0
SPLINE
  5
7B
330
1F
100
AcDbEntity
  8
0
  6
Continuous
 62
     7
370
    15
100
AcDbSpline
210
0.0
220
0.0
230
1.0
 70
     8
 71
     3
 72
    16
 73
    12
 74
     0
 42
0.000000001
 43
0.00000001
 40
0.0
 40
0.0
 40
0.0
 40
0.0
 40
0.0040760653372229
 40
0.1549140560355602
 40
0.2836019892047819
 40
0.3990546875731472
 40
0.5066550885184029
 40
0.6127331813513115
 40
0.7296424939371701
 40
0.881775743484478
 40
1.0
 40
1.0
 40
1.0
 40
1.0
 10
-55.16800026693712
 20
-97.29142900912112
 30
0.0
 10
-55.16522949427229
 20
-97.29219783364549
 30
0.0
 10
-55.0599241087226
 20
-97.32141761193613
 30
0.0
 10
-54.85157408811055
 20
-97.29265801403866
 30
0.0
 10
-54.58825376924993
 20
-97.20925163898613
 30
0.0
 10
-54.38341888689728
 20
-97.07479821421481
 30
0.0
 10
-54.23100894950335
 20
-96.9208862431431
 30
0.0
 10
-54.12145847120379
 20
-96.7605399620011
 30
0.0
 10
-54.03958117610255
 20
-96.59508675650697
 30
0.0
 10
-53.9802328856568
 20
-96.43738110963882
 30
0.0
 10
-53.94483250786154
 20
-96.31780993453611
 30
0.0
 10
-53.92935232606018
 20
-96.26552282224885
 30
0.0
  0
SPLINE
  5
7D
330
1F
100
AcDbEntity
  8
0
  6
Continuous
 62
     7
370
    15
100
AcDbSpline
210
0.0
220
0.0
230
1.0
 70
     8
 71
     3
 72
    16
 73
    12
 74
     0
 42
0.000000001
 43
0.00000001
 40
0.0
 40
0.0
 40
0.0
 40
0.0
 40
0.0820104357300397
 40
0.2453149766958728
 40
0.4209046352235561
 40
0.5364852793054217
 40
0.6289160581242077
 40
0.7123658960354436
 40
0.8033859787386062
 40
0.9011258320893956
 40
1.0
 40
1.0
 40
1.0
 40
1.0
 10
-59.06777224078483
 20
-94.97296163285698
 30
0.0
 10
-59.07100591969024
 20
-95.04308375828505
 30
0.0
 10
-59.08067871143015
 20
-95.25283764402062
 30
0.0
 10
-59.08351505902389
 20
-95.56957828940621
 30
0.0
 10
-59.06860175219337
 20
-95.85542147890328
 30
0.0
 10
-59.03098631650913
 20
-96.09402130829174
 30
0.0
 10
-58.96218373076291
 20
-96.31164537277625
 30
0.0
 10
-58.84332042061548
 20
-96.52623134003449
 30
0.0
 10
-58.66341414400068
 20
-96.72102055247093
 30
0.0
 10
-58.4201017506326
 20
-96.87872707161601
 30
0.0
 10
-58.22735613265058
 20
-96.91890317963012
 30
0.0
 10
-58.1304273252638
 20
-96.93910712655257
 30
0.0
  0
SPLINE
  5
82
330
1F
100
AcDbEntity
  8
0
  6
Continuous
 62
     7
370
    15
100
AcDbSpline
210
0.0
220
0.0
230
1.0
 70
     8
 71
     3
 72
    11
 73
     7
 74
     0
 42
0.000000001
 43
0.00000001
 40
0.0
 40
0.0
 40
0.0
 40
0.0
 40
0.0479459385389371
 40
0.4416491978252449
 40
0.8368000582631837
 40
1.0
 40
1.0
 40
1.0
 40
1.0
 10
-43.22912768760754
 20
-57.7997762245849
 30
0.0
 10
-43.22669697193913
 20
-57.7808307050698
 30
0.0
 10
-43.20430667866692
 20
-57.6063159546822
 30
0.0
 10
-43.1722887101287
 20
-57.27373555857191
 30
0.0
 10
-43.14301029829086
 20
-56.91384369746584
 30
0.0
 10
-43.13227626063137
 20
-56.71944835540473
 30
0.0
 10
-43.12913881672728
 20
-56.66262868509224
 30
0.0
  0
SPLINE
  5
83
330
1F
100
AcDbEntity
  8
0
  6
Continuous
 62
     7
370
    15
100
AcDbSpline
210
0.0
220
0.0
230
1.0
 70
     8
 71
     3
 72
    12
 73
     8
 74
     0
 42
0.000000001
 43
0.00000001
 40
0.0
 40
0.0
 40
0.0
 40
0.0
 40
0.1202545987886374
 40
0.3444938833358967
 40
0.57934393525689
 40
0.8047630525828964
 40
1.0
 40
1.0
 40
1.0
 40
1.0
 10
-43.55268711800418
 20
-59.62417992215689
 30
0.0
 10
-43.53776631130443
 20
-59.56908023635739
 30
0.0
 10
-43.49502261007156
 20
-59.41123592168777
 30
0.0
 10
-43.42734519399225
 20
-59.10125722736164
 30
0.0
 10
-43.3507446141885
 20
-58.67939152613464
 30
0.0
 10
-43.28242060413363
 20
-58.23494825327222
 30
0.0
 10
-43.2460214437244
 20
-57.93772495399851
 30
0.0
 10
-43.22912768760754
 20
-57.7997762245849
 30
0.0
  0
LWPOLYLINE
  5
85
330
1F
100
AcDbEntity
  8
0
  6
Continuous
 62
     7
370
    15
100
AcDbPolyline
 90
       24
 70
   128
 43
0.0
 10
39.721812235
 20
-7.7611580091
 10
40.9145185441
 20
-7.459285704
 10
42.0492962046
 20
-7.1018259165
 10
43.1180348888
 20
-6.6913334344
 10
44.113096254
 20
-6.2307420731
 10
45.0273685339
 20
-5.7233437083
 10
45.8543173667
 20
-5.1727647481
 10
46.5880324971
 20
-4.582940215
 10
47.2232700166
 20
-3.9580856222
 10
47.7554898427
 20
-3.3026668448
 10
48.1808881667
 20
-2.6213682023
 10
48.4964246399
 20
-1.9190589789
 10
48.6998441034
 20
-1.200758623
 10
48.7896927052
 20
-0.4716008726
 10
48.7653282919
 20
0.2632029359
 10
48.6269249974
 20
0.9984011134
 10
48.3754719987
 20
1.7287391521
 10
48.0127664464
 20
2.4489972799
 10
47.5414006198
 20
3.1540277666
 10
46.9647434004
 20
3.8387917148
 10
46.2869161935
 20
4.4983950735
 10
45.5127634731
 20
5.1281236157
 10
44.6478181574
 20
5.7234766319
 10
43.6982620651
 20
6.2801990965
  0
LWPOLYLINE
  5
8C
330
1F
100
AcDbEntity
  8
0
  6
Continuous
 62
     7
370
    15
100
AcDbPolyline
 90
       33
 70
   128
 43
0.0
 10
40.7107695675
 20
-0.6216034948
 10
40.5658184058
 20
-0.9256291658
 10
40.3125689611
 20
-1.2044251312
 10
39.9607534675
 20
-1.4472774182
 10
39.523891997
 20
-1.6448533497
 10
39.018772891
 20
-1.7895601935
 10
38.4648075936
 20
-1.8758369467
 10
37.8832846803
 20
-1.900368042
 10
37.2965517506
 20
-1.8622107633
 10
36.7271566221
 20
-1.7628314733
 10
36.19698083
 20
-1.6060492624
 10
35.7263987329
 20
-1.3978891831
 10
35.3334945367
 20
-1.1463507104
 10
35.0333673295
 20
-0.8611003269
 10
34.8375508314
 20
-0.5531000447
 10
34.7535701607
 20
-0.2341861421
 10
34.7846526475
 20
0.0833856986
 10
34.9296038092
 20
0.3874113697
 10
35.1828532539
 20
0.666207335
 10
35.5346687476
 20
0.9090596221
 10
35.971530218
 20
1.1066355536
 10
36.476649324
 20
1.2513423974
 10
37.0306146214
 20
1.3376191506
 10
37.6121375347
 20
1.3621502459
 10
38.1988704644
 20
1.3239929672
 10
38.768265593
 20
1.2246136772
 10
39.298441385
 20
1.0678314663
 10
39.7690234821
 20
0.8596713869
 10
40.1619276783
 20
0.6081329143
 10
40.4620548855
 20
0.3228825308
 10
40.6578713836
 20
0.0148822486
 10
40.7418520543
 20
-0.304031654
 10
40.7107695675
 20
-0.6216034948
  0
LWPOLYLINE
  5
8D
330
1F
100
AcDbEntity
  8
0
  6
Continuous
 62
     7
370
    15
100
AcDbPolyline
 90
       33
 70
   128
 43
0.0
 10
2.8434264638
 20
-11.7611324518
 10
2.6984753021
 20
-12.0651581228
 10
2.4452258574
 20
-12.3439540882
 10
2.0934103637
 20
-12.5868063752
 10
1.6565488932
 20
-12.7843823067
 10
1.1514297873
 20
-12.9290891505
 10
0.5974644898
 20
-13.0153659037
 10
0.0159415765
 20
-13.039896999
 10
-0.5707913531
 20
-13.0017397203
 10
-1.1401864817
 20
-12.9023604303
 10
-1.6703622737
 20
-12.7455782194
 10
-2.1409443709
 20
-12.5374181401
 10
-2.533848567
 20
-12.2858796674
 10
-2.8339757743
 20
-12.0006292839
 10
-3.0297922723
 20
-11.6926290017
 10
-3.113772943
 20
-11.3737150991
 10
-3.0826904563
 20
-11.0561432584
 10
-2.9377392946
 20
-10.7521175873
 10
-2.6844898499
 20
-10.473321622
 10
-2.3326743562
 20
-10.2304693349
 10
-1.8958128857
 20
-10.0328934034
 10
-1.3906937798
 20
-9.8881865596
 10
-0.8367284823
 20
-9.8019098064
 10
-0.255205569
 20
-9.7773787111
 10
0.3315273606
 20
-9.8155359898
 10
0.9009224892
 20
-9.9149152798
 10
1.4310982812
 20
-10.0716974907
 10
1.9016803784
 20
-10.2798575701
 10
2.2945845745
 20
-10.5313960427
 10
2.5947117818
 20
-10.8166464262
 10
2.7905282798
 20
-11.1246467084
 10
2.8745089505
 20
-11.443560611
 10
2.8434264638
 20
-11.7611324518
  0
LWPOLYLINE
  5
8E
330
1F
100
AcDbEntity
  8
0
  6
Continuous
 62
     7
370
    15
100
AcDbPolyline
 90
       33
 70
   128
 43
0.0
 10
11.4154542443
 20
18.5078029874
 10
11.2705030827
 20
18.2037773164
 10
11.0172536379
 20
17.924981351
 10
10.6654381443
 20
17.682129064
 10
10.2285766738
 20
17.4845531325
 10
9.7234575679
 20
17.3398462887
 10
9.1694922704
 20
17.2535695355
 10
8.5879693571
 20
17.2290384402
 10
8.0012364274
 20
17.2671957189
 10
7.4318412989
 20
17.3665750089
 10
6.9016655068
 20
17.5233572198
 10
6.4310834097
 20
17.7315172991
 10
6.0381792135
 20
17.9830557718
 10
5.7380520063
 20
18.2683061553
 10
5.5422355082
 20
18.5763064375
 10
5.4582548375
 20
18.8952203401
 10
5.4893373243
 20
19.2127921808
 10
5.634288486
 20
19.5168178519
 10
5.8875379307
 20
19.7956138172
 10
6.2393534244
 20
20.0384661043
 10
6.6762148948
 20
20.2360420358
 10
7.1813340008
 20
20.3807488796
 10
7.7352992983
 20
20.4670256328
 10
8.3168222115
 20
20.4915567281
 10
8.9035551412
 20
20.4533994494
 10
9.4729502698
 20
20.3540201594
 10
10.0031260618
 20
20.1972379485
 10
10.4737081589
 20
19.9890778692
 10
10.8666123551
 20
19.7375393965
 10
11.1667395623
 20
19.452289013
 10
11.3625560604
 20
19.1442887308
 10
11.4465367311
 20
18.8253748282
 10
11.4154542443
 20
18.5078029874
  0
LWPOLYLINE
  5
A0
330
1F
100
AcDbEntity
  8
0
  6
Continuous
 62
     7
370
    15
100
AcDbPolyline
 90
       16
 70
   128
 43
0.0
 10
2.753172564
 20
-11.9769713333
 10
2.7474008237
 20
-11.9638112404
 10
2.5515843256
 20
-11.6558109583
 10
2.2514571184
 20
-11.3705605747
 10
1.8585529222
 20
-11.1190221021
 10
1.3879708251
 20
-10.9108620228
 10
0.8577950331
 20
-10.7540798119
 10
0.2883999045
 20
-10.6547005219
 10
-0.2983330252
 20
-10.6165432431
 10
-0.8798559384
 20
-10.6410743385
 10
-1.4338212359
 20
-10.7273510916
 10
-1.9389403419
 20
-10.8720579354
 10
-2.3758018123
 20
-11.0696338669
 10
-2.727617306
 20
-11.312486154
 10
-2.9808667507
 20
-11.5912821193
 10
-3.0355640127
 20
-11.6794689088
  0
LWPOLYLINE
  5
A6
330
1F
100
AcDbEntity
  8
0
  6
Continuous
 62
     7
370
    15
100
AcDbPolyline
 90
       18
 70
   128
 43
0.0
 10
-45.5084477482
 20
-14.7846708016
 10
-45.5172478666
 20
-14.8191414981
 10
-45.6135300888
 20
-15.2394439299
 10
-45.7096962255
 20
-15.7367510555
 10
-45.8022705821
 20
-16.2930888995
 10
-45.88790728
 20
-16.8883499628
 10
-45.9635111859
 20
-17.5010199597
 10
-46.0263497776
 20
-18.1089554
 10
-46.0741519047
 20
-18.6901839132
 10
-46.1051898738
 20
-19.2236983863
 10
-46.1183418918
 20
-19.6902162161
 10
-46.1131326105
 20
-20.072876233
 10
-46.0897503069
 20
-20.3578481067
 10
-46.0490400784
 20
-20.5348322113
 10
-45.9924732987
 20
-20.5974318802
 10
-45.9220944386
 20
-20.5433845982
 10
-45.8404471735
 20
-20.3746437749
 10
-45.7504824483
 20
-20.0973081433
  0
LWPOLYLINE
  5
A7
330
1F
100
AcDbEntity
  8
0
  6
Continuous
 62
     7
370
    15
100
AcDbPolyline
 90
       34
 70
   128
 43
0.0
 10
-48.3381298165
 20
-70.447180065
 10
-48.2430991907
 20
-70.0712732575
 10
-48.1464373188
 20
-69.6103815253
 10
-48.0516378126
 20
-69.0811626967
 10
-47.9621269734
 20
-68.502744119
 10
-47.881139956
 20
-67.8960313465
 10
-47.8116038423
 20
-67.2829525596
 10
-47.7560318486
 20
-66.6856660232
 10
-47.7164324916
 20
-66.1257592288
 10
-47.6942369951
 20
-65.6234686667
 10
-47.6902475623
 20
-65.1969484267
 10
-47.7046083816
 20
-64.8616140615
 10
-47.7368004157
 20
-64.6295854287
 10
-47.7856601605
 20
-64.5092486476
 10
-47.8494216975
 20
-64.5049530032
 10
-47.9257805188
 20
-64.6168537511
 10
-48.0119768175
 20
-64.8409065067
 10
-48.1048952347
 20
-65.1690134198
 10
-48.201177457
 20
-65.5893158516
 10
-48.2973435937
 20
-66.0866229771
 10
-48.3899179503
 20
-66.6429608212
 10
-48.4755546482
 20
-67.2382218845
 10
-48.5511585541
 20
-67.8508918813
 10
-48.6139971458
 20
-68.4588273217
 10
-48.6617992729
 20
-69.0400558349
 10
-48.692837242
 20
-69.5735703079
 10
-48.70598926
 20
-70.0400881378
 10
-48.7007799787
 20
-70.4227481546
 10
-48.6773976751
 20
-70.7077200284
 10
-48.6366874466
 20
-70.884704133
 10
-48.5801206669
 20
-70.9473038019
 10
-48.5097418068
 20
-70.8932565199
 10
-48.4280945417
 20
-70.7245156966
 10
-48.3381298165
 20
-70.447180065
  0
LWPOLYLINE
  5
A9
330
1F
100
AcDbEntity
  8
0
  6
Continuous
 62
     7
370
    15
100
AcDbPolyline
 90
        9
 70
   128
 43
0.0
 10
-54.118345654
 20
-95.4942800164
 10
-54.1293938856
 20
-95.8012984369
 10
-54.1284590058
 20
-96.0557036375
 10
-54.1155769415
 20
-96.247718969
 10
-54.0912427432
 20
-96.3699653899
 10
-54.0563915606
 20
-96.4177450388
 10
-54.012362705
 20
-96.3892217706
 10
-53.9608481806
 20
-96.2854917186
 10
-53.9038276617
 20
-96.1105411703
  0
LWPOLYLINE
  5
AB
330
1F
100
AcDbEntity
  8
0
  6
Continuous
 62
     7
370
    15
100
AcDbPolyline
 90
       34
 70
   128
 43
0.0
 10
-47.0443061324
 20
-45.2722441042
 10
-46.9492755066
 20
-44.8963372966
 10
-46.8526136347
 20
-44.4354455645
 10
-46.7578141286
 20
-43.9062267359
 10
-46.6683032893
 20
-43.3278081581
 10
-46.5873162719
 20
-42.7210953856
 10
-46.5177801582
 20
-42.1080165988
 10
-46.4622081645
 20
-41.5107300623
 10
-46.4226088075
 20
-40.9508232679
 10
-46.400413311
 20
-40.4485327059
 10
-46.3964238782
 20
-40.0220124659
 10
-46.4107846975
 20
-39.6866781006
 10
-46.4429767316
 20
-39.4546494678
 10
-46.4918364764
 20
-39.3343126868
 10
-46.5555980134
 20
-39.3300170423
 10
-46.6319568347
 20
-39.4419177902
 10
-46.7181531334
 20
-39.6659705459
 10
-46.8110715507
 20
-39.994077459
 10
-46.9073537729
 20
-40.4143798908
 10
-47.0035199096
 20
-40.9116870163
 10
-47.0960942662
 20
-41.4680248603
 10
-47.1817309641
 20
-42.0632859237
 10
-47.25733487
 20
-42.6759559205
 10
-47.3201734617
 20
-43.2838913609
 10
-47.3679755888
 20
-43.865119874
 10
-47.3990135579
 20
-44.3986343471
 10
-47.4121655759
 20
-44.865152177
 10
-47.4069562946
 20
-45.2478121938
 10
-47.383573991
 20
-45.5327840675
 10
-47.3428637625
 20
-45.7097681722
 10
-47.2862969828
 20
-45.7723678411
 10
-47.2159181227
 20
-45.7183205591
 10
-47.1342708576
 20
-45.5495797358
 10
-47.0443061324
 20
-45.2722441042
  0
LWPOLYLINE
  5
AD
330
1F
100
AcDbEntity
  8
0
  6
Continuous
 62
     7
370
    15
100
AcDbPolyline
 90
       16
 70
   128
 43
0.0
 10
40.6205156678
 20
-0.8374423763
 10
40.6147439274
 20
-0.8242822834
 10
40.4189274294
 20
-0.5162820013
 10
40.1188002221
 20
-0.2310316177
 10
39.725896026
 20
0.0205068549
 10
39.2553139289
 20
0.2286669342
 10
38.7251381368
 20
0.3854491451
 10
38.1557430082
 20
0.4848284351
 10
37.5690100786
 20
0.5229857139
 10
36.9874871653
 20
0.4984546186
 10
36.4335218678
 20
0.4121778654
 10
35.9284027619
 20
0.2674710216
 10
35.4915412914
 20
0.0698950901
 10
35.1397257978
 20
-0.172957197
 10
34.886476353
 20
-0.4517531623
 10
34.8317790911
 20
-0.5399399518
  0
LWPOLYLINE
  5
AF
330
1F
100
AcDbEntity
  8
0
  6
Continuous
 62
     7
370
    15
100
AcDbPolyline
 90
       16
 70
   128
 43
0.0
 10
5.5364637679
 20
18.5894665304
 10
5.5911610298
 20
18.6776533199
 10
5.8444104746
 20
18.9564492852
 10
6.1962259682
 20
19.1993015723
 10
6.6330874387
 20
19.3968775038
 10
7.1382065446
 20
19.5415843476
 10
7.6921718421
 20
19.6278611008
 10
8.2736947554
 20
19.6523921961
 10
8.8604276851
 20
19.6142349173
 10
9.4298228136
 20
19.5148556273
 10
9.9599986057
 20
19.3580734164
 10
10.4305807028
 20
19.1499133371
 10
10.8234848989
 20
18.8983748645
 10
11.1236121062
 20
18.6131244809
 10
11.3194286043
 20
18.3051241988
 10
11.3252003446
 20
18.2919641059
  0
LWPOLYLINE
  5
B1
330
1F
100
AcDbEntity
  8
0
  6
Continuous
 62
     8
370
    15
100
AcDbPolyline
 90
        6
 70
   128
 43
0.0
 10
39.9813356538
 20
-11.6227873938
 10
39.9646205069
 20
-11.7767973914
 10
39.9319449184
 20
-11.9054831091
 10
39.884564593
 20
-12.0038992267
 10
39.8243003298
 20
-12.0682636681
 10
39.7681149103
 20
-12.0935830611
  0
LWPOLYLINE
  5
B2
330
1F
100
AcDbEntity
  8
0
  6
Continuous
 62
     8
370
    15
100
AcDbPolyline
 90
        6
 70
   128
 43
0.0
 10
8.0274017154
 20
-18.7883512114
 10
8.0106865685
 20
-18.9423612091
 10
7.97801098
 20
-19.0710469268
 10
7.9306306546
 20
-19.1694630444
 10
7.8703663915
 20
-19.2338274858
 10
7.8141809719
 20
-19.2591468788
  0
LWPOLYLINE
  5
B5
330
1F
100
AcDbEntity
  8
0
  6
Continuous
 62
     8
370
    15
100
AcDbPolyline
 90
        9
 70
   128
 43
0.0
 10
-54.711899171
 20
-10.217343898
 10
-54.7112641799
 20
-10.2570285673
 10
-54.683270623
 20
-10.3633332015
 10
-54.6179984569
 20
-10.4659999623
 10
-54.5179560545
 20
-10.5610834234
 10
-54.3869879891
 20
-10.644929581
 10
-54.2301272901
 20
-10.7143162741
 10
-54.0534020261
 20
-10.7665770111
 10
-53.8636036499
 20
-10.7997034411
  0
LWPOLYLINE
  5
B7
330
1F
100
AcDbEntity
  8
0
  6
Continuous
 62
     8
370
    15
100
AcDbPolyline
 90
        9
 70
   128
 43
0.0
 10
-59.0677722408
 20
-94.9729616329
 10
-59.0671372496
 20
-95.0126463022
 10
-59.0391436927
 20
-95.1189509364
 10
-58.9738715267
 20
-95.2216176971
 10
-58.8738291243
 20
-95.3167011583
 10
-58.7428610589
 20
-95.4005473158
 10
-58.5860003599
 20
-95.4699340089
 10
-58.4092750959
 20
-95.5221947459
 10
-58.2194767197
 20
-95.5553211759
  0
LWPOLYLINE
  5
BD
330
1F
100
AcDbEntity
  8
0
  6
Continuous
 62
     8
370
    15
100
AcDbPolyline
 90
       15
 70
   128
 43
0.0
 10
49.7437464327
 20
-1.3933174309
 10
49.7086714759
 20
-1.7808841515
 10
49.5568174914
 20
-2.5182518169
 10
49.2947461959
 20
-3.2425076902
 10
48.9241778781
 20
-3.9488976096
 10
48.4475450234
 20
-4.6327846893
 10
47.867976346
 20
-5.2896797562
 10
47.1892762517
 20
-5.9152708187
 10
46.4158998648
 20
-6.5054513708
 10
45.552923784
 20
-7.0563473483
 10
44.6060127586
 20
-7.5643425586
 10
43.5813825034
 20
-8.0261024189
 10
42.4857588984
 20
-8.4385958441
 10
41.326333838
 20
-8.7991151442
 10
40.1107180222
 20
-9.1052937977
  0
LWPOLYLINE
  5
BE
330
1F
100
AcDbEntity
  8
0
  6
Continuous
 62
     8
370
    15
100
AcDbPolyline
 90
       15
 70
   128
 43
0.0
 10
39.9813356538
 20
-11.6227873938
 10
41.1969514696
 20
-11.3166087403
 10
42.35637653
 20
-10.9560894402
 10
43.452000135
 20
-10.543596015
 10
44.4766303901
 20
-10.0818361547
 10
45.4235414156
 20
-9.5738409444
 10
46.2865174964
 20
-9.0229449669
 10
47.0598938833
 20
-8.4327644148
 10
47.7385939776
 20
-7.8071733523
 10
48.318162655
 20
-7.1502782853
 10
48.7947955097
 20
-6.4663912057
 10
49.1653638275
 20
-5.7600012863
 10
49.427435123
 20
-5.035745413
 10
49.5792891075
 20
-4.2983777475
 10
49.6143640643
 20
-3.910811027
  0
LINE
  5
C7
330
1F
100
AcDbEntity
  8
0
  6
Continuous
 62
     7
370
    15
100
AcDbLine
 10
7.8141809719
 20
-19.2591468788
 30
0.0
 11
39.7681149103
 21
-12.0935830611
 31
0.0
  0
LINE
  5
C8
330
1F
100
AcDbEntity
  8
0
  6
Continuous
 62
     7
370
    15
100
AcDbLine
 10
-49.0222989266
 20
-14.3666521999
 30
0.0
 11
-3.5887358731
 21
-19.7715693493
 31
0.0
  0
LINE
  5
C9
330
1F
100
AcDbEntity
  8
0
  6
Continuous
 62
     7
370
    15
100
AcDbLine
 10
-54.711899171
 20
-10.217343898
 30
0.0
 11
-59.0677722408
 21
-94.9729616329
 31
0.0
  0
LINE
  5
CA
330
1F
100
AcDbEntity
  8
0
  6
Continuous
 62
     7
370
    15
100
AcDbLine
 10
-43.6971676694
 20
28.7692890852
 30
0.0
 11
-54.6753786866
 21
-9.9961896352
 31
0.0
  0
LINE
  5
CB
330
1F
100
AcDbEntity
  8
0
  6
Continuous
 62
     7
370
    15
100
AcDbLine
 10
49.6143640643
 20
-3.910811027
 30
0.0
 11
49.7437464327
 21
-1.3933174309
 31
0.0
  0
LINE
  5
CC
330
1F
100
AcDbEntity
  8
0
  6
Continuous
 62
     7
370
    15
100
AcDbLine
 10
44.1314159983
 20
6.3203274839
 30
0.0
 11
18.1865922332
 21
20.3737065511
 31
0.0
  0
LINE
  5
CD
330
1F
100
AcDbEntity
  8
0
  6
Continuous
 62
     7
370
    15
100
AcDbLine
 10
-58.1227077446
 20
-96.9412136808
 30
0.0
 11
-55.1596492846
 21
-97.2937082775
 31
0.0
  0
LINE
  5
CE
330
1F
100
AcDbEntity
  8
0
  6
Continuous
 62
     7
370
    15
100
AcDbLine
 10
7.7551177671
 20
23.4973992139
 30
0.0
 11
-42.6168760531
 21
29.4898073578
 31
0.0
  0
LINE
  5
CF
330
1F
100
AcDbEntity
  8
0
  6
Continuous
 62
     7
370
    15
100
AcDbLine
 10
-53.9293523261
 20
-96.2655228222
 30
0.0
 11
-43.552687118
 21
-59.6241799222
 31
0.0
  0
LINE
  5
D0
330
1F
100
AcDbEntity
  8
0
  6
Continuous
 62
     7
370
    15
100
AcDbLine
 10
-43.1291388167
 20
-56.6626286851
 30
0.0
 11
-41.0044284502
 21
-15.3204828645
 31
0.0
  0
LINE
  5
D1
330
1F
100
AcDbEntity
  8
0
  6
Continuous
 62
     7
370
    15
100
AcDbLine
 10
43.6982620651
 20
6.2801990965
 30
0.0
 11
17.7534383001
 21
20.3335781637
 31
0.0
  0
LINE
  5
D2
330
1F
100
AcDbEntity
  8
0
  6
Continuous
 62
     7
370
    15
100
AcDbLine
 10
7.7678782966
 20
-14.9267218267
 30
0.0
 11
39.721812235
 21
-7.7611580091
 31
0.0
  0
LINE
  5
D3
330
1F
100
AcDbEntity
  8
0
  6
Continuous
 62
     7
370
    15
100
AcDbLine
 10
-53.6700897415
 20
-9.429504954
 30
0.0
 11
-3.2980959213
 21
-15.4219130979
 31
0.0
  0
LINE
  5
D4
330
1F
100
AcDbEntity
  8
0
  6
Continuous
 62
     7
370
    15
100
AcDbLine
 10
-42.6918787242
 20
29.3359737664
 30
0.0
 11
-53.6700897415
 21
-9.429504954
 31
0.0
  0
LINE
  5
D5
330
1F
100
AcDbEntity
  8
0
  6
Continuous
 62
     7
370
    15
100
AcDbLine
 10
7.680115096
 20
23.3435656225
 30
0.0
 11
-42.6918787242
 21
29.3359737664
 31
0.0
  0
LINE
  5
D6
330
1F
100
AcDbEntity
  8
0
  6
Continuous
 62
     7
370
    15
100
AcDbLine
 10
40.1107180222
 20
-9.1052937977
 30
0.0
 11
8.1567840838
 21
-16.2708576154
 31
0.0
  0
LINE
  5
D7
330
1F
100
AcDbEntity
  8
0
  6
Continuous
 62
     7
370
    15
100
AcDbLine
 10
39.9813356538
 20
-11.6227873938
 30
0.0
 11
40.1107180222
 21
-9.1052937977
 31
0.0
  0
LINE
  5
D8
330
1F
100
AcDbEntity
  8
0
  6
Continuous
 62
     7
370
    15
100
AcDbLine
 10
8.0274017154
 20
-18.7883512114
 30
0.0
 11
39.9813356538
 21
-11.6227873938
 31
0.0
  0
LINE
  5
D9
330
1F
100
AcDbEntity
  8
0
  6
Continuous
 62
     7
370
    15
100
AcDbLine
 10
8.0274017154
 20
-18.7883512114
 30
0.0
 11
8.1567840838
 21
-16.2708576154
 31
0.0
  0
LINE
  5
DA
330
1F
100
AcDbEntity
  8
0
  6
Continuous
 62
     7
370
    15
100
AcDbLine
 10
-3.4916098297
 20
-16.792111585
 30
0.0
 11
-3.6209921981
 21
-19.309605181
 31
0.0
  0
LINE
  5
DB
330
1F
100
AcDbEntity
  8
0
  6
Continuous
 62
     7
370
    15
100
AcDbLine
 10
-3.4916098297
 20
-16.792111585
 30
0.0
 11
-53.8636036499
 21
-10.7997034411
 31
0.0
  0
LINE
  5
DC
330
1F
100
AcDbEntity
  8
0
  6
Continuous
 62
     7
370
    15
100
AcDbLine
 10
-53.8636036499
 20
-10.7997034411
 30
0.0
 11
-58.2194767197
 21
-95.5553211759
 31
0.0
  0
LINE
  5
DD
330
1F
100
AcDbEntity
  8
0
  6
Continuous
 62
     7
370
    15
100
AcDbLine
 10
-49.0545552516
 20
-13.9046880316
 30
0.0
 11
-3.6209921981
 21
-19.309605181
 31
0.0
  0
LINE
  5
DE
330
1F
100
AcDbEntity
  8
0
  6
Continuous
 62
     7
370
    15
100
AcDbLine
 10
-55.2564182596
 20
-95.9078157726
 30
0.0
 11
-51.1161824706
 21
-15.3480206979
 31
0.0
  0
LINE
  5
DF
330
1F
100
AcDbEntity
  8
0
  6
Continuous
 62
     7
370
    15
100
AcDbLine
 10
-58.2194767197
 20
-95.5553211759
 30
0.0
 11
-55.2564182596
 21
-95.9078157726
 31
0.0
  0
LINE
  5
E0
330
1F
100
AcDbEntity
  8
0
  6
Continuous
 62
     7
370
    15
100
AcDbLine
 10
-49.9781098649
 20
-14.9344849417
 30
0.0
 11
-54.118345654
 21
-95.4942800164
 31
0.0
  0
LINE
  5
E1
330
1F
100
AcDbEntity
  8
0
  6
Continuous
 62
     7
370
    15
100
AcDbLine
 10
-53.9038276617
 20
-96.1105411703
 30
0.0
 11
-43.5271624537
 21
-59.4691982702
 31
0.0
  0
LINE
  5
E2
330
1F
100
AcDbEntity
  8
0
  6
Continuous
 62
     7
370
    15
100
AcDbLine
 10
49.7461140098
 20
-1.342131008
 30
0.0
 11
49.7437464327
 21
-1.3933174309
 31
0.0
  0
LINE
  5
E3
330
1F
100
AcDbEntity
  8
0
  6
Continuous
 62
     8
370
    15
100
AcDbLine
 10
-49.9516053515
 20
-14.7760768313
 30
0.0
 11
-49.9781098649
 21
-14.9344849417
 31
0.0
  0
LINE
  5
E4
330
1F
100
AcDbEntity
  8
0
  6
Continuous
 62
     8
370
    15
100
AcDbLine
 10
-49.9163284599
 20
-14.7163268338
 30
0.0
 11
-49.9781098649
 21
-14.9344849417
 31
0.0
  0
LINE
  5
E5
330
1F
100
AcDbEntity
  8
0
  6
Continuous
 62
     8
370
    15
100
AcDbLine
 10
-43.1401346368
 20
-56.728801296
 30
0.0
 11
-41.0119772868
 21
-15.3195848315
 31
0.0
  0
LINE
  5
E6
330
1F
100
AcDbEntity
  8
0
  6
Continuous
 62
     8
370
    15
100
AcDbLine
 10
-53.9038276617
 20
-96.1105411703
 30
0.0
 11
-53.9293399683
 21
-96.2654791799
 31
0.0
  0
LINE
  5
E7
330
1F
100
AcDbEntity
  8
0
  6
Continuous
 62
     8
370
    15
100
AcDbLine
 10
-43.5271624537
 20
-59.4691982702
 30
0.0
 11
-43.552687118
 21
-59.6241799222
 31
0.0
  0
LINE
  5
E8
330
1F
100
AcDbEntity
  8
0
  6
Continuous
 62
     8
370
    15
100
AcDbLine
 10
-43.1401346368
 20
-56.728801296
 30
0.0
 11
-43.1291388167
 21
-56.6626286851
 31
0.0
  0
ARC
  5
E9
330
1F
100
AcDbEntity
  8
0
  6
Continuous
 62
     7
370
    15
100
AcDbCircle
 10
-53.7132171976
 20
-10.268669486
 30
0.0
 40
0.9999999999994427
100
AcDbArc
 50
164.1881141383
 51
177.0579677563
  0
ARC
  5
EA
330
1F
100
AcDbEntity
  8
0
  6
Continuous
 62
     7
370
    15
100
AcDbCircle
 10
-42.7350061804
 20
28.4968092344
 30
0.0
 40
1.000000000000006
100
AcDbArc
 50
83.215800828
 51
164.1881141383
  0
ARC
  5
EB
330
1F
100
AcDbEntity
  8
0
  6
Continuous
 62
     7
370
    15
100
AcDbCircle
 10
0.7671281541
 20
17.6255900377
 30
0.0
 40
33.2965990797008
100
AcDbArc
 50
262.9871888637
 51
282.1372500242
  0
ARC
  5
EC
330
1F
100
AcDbEntity
  8
0
  6
Continuous
 62
     7
370
    15
100
AcDbCircle
 10
4.70224773
 20
-4.9831148172
 30
0.0
 40
28.48277582648648
100
AcDbArc
 50
62.72811627
 51
83.9987730864
  0
ARC
  5
ED
330
1F
100
AcDbEntity
  8
0
  6
Continuous
 62
     7
370
    15
100
AcDbCircle
 10
37.9617353533
 20
-8.9987401523
 30
0.0
 40
2.151622687779973
100
AcDbArc
 50
357.1614110654
 51
35.1126229887
  0
ARC
  5
EE
330
1F
100
AcDbEntity
  8
0
  6
Continuous
 62
     7
370
    15
100
AcDbCircle
 10
6.0078014149
 20
-16.16430397
 30
0.0
 40
2.15162268777998
100
AcDbArc
 50
357.1614110654
 51
35.1126229887
  0
ARC
  5
EF
330
1F
100
AcDbEntity
  8
0
  6
Continuous
 62
     7
370
    15
100
AcDbCircle
 10
0.7875734075
 20
17.9947338208
 30
0.0
 40
35.04905166284278
100
AcDbArc
 50
262.9871888637
 51
282.1372500242
  0
ARC
  5
F0
330
1F
100
AcDbEntity
  8
0
  6
Continuous
 62
     7
370
    15
100
AcDbCircle
 10
3.9820913035
 20
-17.1488623462
 30
0.0
 40
7.482210885410681
100
AcDbArc
 50
166.6553916787
 51
177.2671091564
  0
ARC
  5
F1
330
1F
100
AcDbEntity
  8
0
  6
Continuous
 62
     7
370
    15
100
AcDbCircle
 10
0.6581910391
 20
15.4772402248
 30
0.0
 40
35.04905166284267
100
AcDbArc
 50
262.9871888637
 51
282.1372500242
  0
ARC
  5
F2
330
1F
100
AcDbEntity
  8
0
  6
Continuous
 62
     7
370
    15
100
AcDbCircle
 10
-46.3899025167
 20
-11.1564542023
 30
0.0
 40
7.482210885411679
100
AcDbArc
 50
166.6553916787
 51
177.2671091564
  0
ARC
  5
F3
330
1F
100
AcDbEntity
  8
0
  6
Continuous
 62
     7
370
    15
100
AcDbCircle
 10
-49.416827991
 20
-15.5812846362
 30
0.0
 40
1.715289396042829
100
AcDbArc
 50
77.8071917511
 51
172.18407088
  0
ARC
  5
F4
330
1F
100
AcDbEntity
  8
0
  6
Continuous
 62
     7
370
    15
100
AcDbCircle
 10
-0.7797009156
 20
-24.2521133447
 30
0.0
 40
12.45664871182799
100
AcDbArc
 50
74.5080062016
 51
99.607929311
  0
ARC
  5
F5
330
1F
100
AcDbEntity
  8
0
  6
Continuous
 62
     7
370
    15
100
AcDbCircle
 10
-50.8379855777
 20
-14.3408471471
 30
0.0
 40
1.044888545581604
100
AcDbArc
 50
254.5590251378
 51
325.3797215187
  0
ARC
  5
F6
330
1F
100
AcDbEntity
  8
0
  6
Continuous
 62
     7
370
    15
100
AcDbCircle
 10
-54.9782213668
 20
-94.9006422218
 30
0.0
 40
1.044888545581658
100
AcDbArc
 50
254.5590251378
 51
325.3797215187
  0
ARC
  5
F7
330
1F
100
AcDbEntity
  8
0
  6
Continuous
 62
     7
370
    15
100
AcDbCircle
 10
-68.2474902267
 20
-14.6574718959
 30
0.0
 40
23.14534893623893
100
AcDbArc
 50
346.4066473129
 51
359.5656603665
  0
ARC
  5
F8
330
1F
100
AcDbEntity
  8
0
  6
Continuous
 62
     7
370
    15
100
AcDbCircle
 10
-58.0875369032
 20
-56.0152997736
 30
0.0
 40
14.96442177082261
100
AcDbArc
 50
346.6553916787
 51
357.2671091564
  0
ARC
  5
F9
330
1F
100
AcDbEntity
  8
0
  6
Continuous
 62
     7
370
    15
100
AcDbCircle
 10
37.0876421882
 20
-13.1125843877
 30
0.0
 40
12.45664871182813
100
AcDbArc
 50
74.5080062016
 51
99.607929311
  0
ARC
  5
FA
330
1F
100
AcDbEntity
  8
0
  6
Continuous
 62
     7
370
    15
100
AcDbCircle
 10
7.792326865
 20
6.0168220945
 30
0.0
 40
12.45664871182815
100
AcDbArc
 50
74.5080062016
 51
99.607929311
  0
ARC
  5
FB
330
1F
100
AcDbEntity
  8
0
  6
Continuous
 62
     8
370
    15
100
AcDbCircle
 10
-2.8866434559
 20
-19.4904447814
 30
0.0
 40
0.7562876675972695
100
AcDbArc
 50
166.1656969312
 51
201.8214688169
  0
ARC
  5
FC
330
1F
100
AcDbEntity
  8
0
  6
Continuous
 62
     8
370
    15
100
AcDbCircle
 10
-48.3202985967
 20
-14.085527296
 30
0.0
 40
0.7561981716616909
100
AcDbArc
 50
166.1640532792
 51
201.8242568767
  0
ARC
  5
FD
330
1F
100
AcDbEntity
  8
0
  6
Continuous
 62
     8
370
    15
100
AcDbCircle
 10
-53.8461193431
 20
-10.2922564967
 30
0.0
 40
0.8805263455738651
100
AcDbArc
 50
78.468066127
 51
160.3521316336
  0
ARC
  5
FE
330
1F
100
AcDbEntity
  8
0
  6
Continuous
 62
     8
370
    15
100
AcDbCircle
 10
-42.8679083259
 20
28.4732222236
 30
0.0
 40
0.8805263455738488
100
AcDbArc
 50
78.468066127
 51
160.3521316336
  0
ARC
  5
FF
330
1F
100
AcDbEntity
  8
0
  6
Continuous
 62
     8
370
    15
100
AcDbCircle
 10
43.9507956201
 20
5.9118857399
 30
0.0
 40
0.4465735382640207
100
AcDbArc
 50
66.1075576098
 51
124.4364312428
  0
ARC
  5
100
330
1F
100
AcDbEntity
  8
0
  6
Continuous
 62
     8
370
    15
100
AcDbCircle
 10
18.0060050585
 20
19.9651612619
 30
0.0
 40
0.4466777149182514
100
AcDbArc
 50
66.1533797119
 51
124.4324331362
  0
ARC
  5
101
330
1F
100
AcDbEntity
  8
0
  6
Continuous
 62
     8
370
    15
100
AcDbCircle
 10
7.9011715873
 20
23.3309838994
 30
0.0
 40
0.2214142545044718
100
AcDbArc
 50
131.2709047321
 51
176.7424493172
  0
ARC
  5
102
330
1F
100
AcDbEntity
  8
0
  6
Continuous
 62
     8
370
    15
100
AcDbCircle
 10
-53.048300764
 20
-96.4503530456
 30
0.0
 40
2.273791891783346
100
AcDbArc
 50
166.1958008734
 51
201.770383878
  0
ARC
  5
103
330
1F
100
AcDbEntity
  8
0
  6
Continuous
 62
     8
370
    15
100
AcDbCircle
 10
-56.0167067549
 20
-96.0978389689
 30
0.0
 40
2.268594514982857
100
AcDbArc
 50
166.1640532791
 51
201.8242568767
  0
ARC
  5
104
330
1F
100
AcDbEntity
  8
0
  6
Continuous
 62
     8
370
    15
100
AcDbCircle
 10
-42.4707864968
 20
29.3233795056
 30
0.0
 40
0.2214506456010753
100
AcDbArc
 50
131.276503206
 51
176.7397360962
  0
ENDSEC
  0
SECTION
  2
OBJECTS
  0
DICTIONARY
  5
C
330
0
100
AcDbDictionary
281
     1
  3
ACAD_GROUP
350
D
  3
ACAD_LAYOUT
350
1A
  3
ACAD_MLINESTYLE
350
17
  3
ACAD_PLOTSETTINGS
350
19
  3
ACAD_PLOTSTYLENAME
350
E
  3
ACAD_SCALELIST
350
47
  0
DICTIONARY
  5
D
102
{ACAD_REACTORS
330
C
102
}
330
C
100
AcDbDictionary
281
     1
  0
DICTIONARY
  5
1A
102
{ACAD_REACTORS
330
C
102
}
330
C
100
AcDbDictionary
281
     1
  3
Layout1
350
1E
  3
Layout2
350
26
  3
Model
350
22
  0
DICTIONARY
  5
17
102
{ACAD_REACTORS
330
C
102
}
330
C
100
AcDbDictionary
281
     1
  3
Standard
350
18
  0
DICTIONARY
  5
19
102
{ACAD_REACTORS
330
C
102
}
330
C
100
AcDbDictionary
281
     1
  0
ACDBDICTIONARYWDFLT
  5
E
102
{ACAD_REACTORS
330
C
102
}
330
C
100
AcDbDictionary
281
     1
  3
Normal
350
F
100
AcDbDictionaryWithDefault
340
F
  0
DICTIONARY
  5
47
102
{ACAD_REACTORS
330
C
102
}
330
C
100
AcDbDictionary
281
     1
  3
A0
350
48
  3
A1
350
49
  3
A2
350
4A
  3
A3
350
4B
  3
A4
350
4C
  3
A5
350
4D
  3
A6
350
4E
  3
A7
350
4F
  3
A8
350
50
  3
A9
350
51
  3
B0
350
52
  3
B1
350
53
  3
B2
350
54
  3
B3
350
55
  3
B4
350
56
  3
B5
350
57
  3
B6
350
58
  3
B7
350
59
  3
B8
350
5A
  3
B9
350
5B
  3
C0
350
5C
  3
C1
350
5D
  3
C2
350
5E
  3
C3
350
5F
  3
C4
350
60
  3
C5
350
61
  3
C6
350
62
  3
C7
350
63
  3
C8
350
64
  3
C9
350
65
  3
D0
350
66
  3
D1
350
67
  3
D2
350
68
  0
LAYOUT
  5
1E
102
{ACAD_REACTORS
330
1A
102
}
330
1A
100
AcDbPlotSettings
  1

  2
none_device
  4

  6

 40
0.0
 41
0.0
 42
0.0
 43
0.0
 44
0.0
 45
0.0
 46
0.0
 47
0.0
 48
0.0
 49
0.0
140
0.0
141
0.0
142
1.0
143
1.0
 70
   688
 72
     1
 73
     0
 74
     5
  7

 75
    16
147
1.0
148
0.0
149
0.0
100
AcDbLayout
  1
Layout1
 70
     1
 71
     1
 10
0.0
 20
0.0
 11
420.0
 21
297.0
 12
0.0
 22
0.0
 32
0.0
 14
1.0000000000E+20
 24
1.0000000000E+20
 34
1.0000000000E+20
 15
-1.0000000000E+20
 25
-1.0000000000E+20
 35
-1.0000000000E+20
146
0.0
 13
0.0
 23
0.0
 33
0.0
 16
1.0
 26
0.0
 36
0.0
 17
0.0
 27
1.0
 37
0.0
 76
     0
330
1B
  0
LAYOUT
  5
26
102
{ACAD_REACTORS
330
1A
102
}
330
1A
100
AcDbPlotSettings
  1

  2
none_device
  4

  6

 40
0.0
 41
0.0
 42
0.0
 43
0.0
 44
0.0
 45
0.0
 46
0.0
 47
0.0
 48
0.0
 49
0.0
140
0.0
141
0.0
142
1.0
143
1.0
 70
   688
 72
     1
 73
     0
 74
     5
  7

 75
    16
147
1.0
148
0.0
149
0.0
100
AcDbLayout
  1
Layout2
 70
     1
 71
     2
 10
0.0
 20
0.0
 11
0.0
 21
0.0
 12
0.0
 22
0.0
 32
0.0
 14
0.0
 24
0.0
 34
0.0
 15
0.0
 25
0.0
 35
0.0
146
0.0
 13
0.0
 23
0.0
 33
0.0
 16
1.0
 26
0.0
 36
0.0
 17
0.0
 27
1.0
 37
0.0
 76
     0
330
23
  0
LAYOUT
  5
22
102
{ACAD_REACTORS
330
1A
102
}
330
1A
100
AcDbPlotSettings
  1

  2
none_device
  4
ANSI_A_(11.00_x_8.50_Inches)
  6

 40
6.35
 41
19.05
 42
6.35000508
 43
19.05000254
 44
279.4
 45
215.9
 46
141.211472657
 47
146.0510359092
 48
0.0
 49
0.0
140
0.0
141
0.0
142
0.0663617258
143
1.0
 70
  1696
 72
     0
 73
     0
 74
     0
  7

 75
     0
147
0.0179189148
148
-1300.4909072572
149
0.0
100
AcDbLayout
  1
Model
 70
     1
 71
     0
 10
0.0
 20
0.0
 11
420.0
 21
297.0
 12
0.0
 22
0.0
 32
0.0
 14
-59.0812668112
 24
-97.3082112722
 34
0.0
 15
49.7533931363
 25
29.4968092344
 35
0.0
146
0.0
 13
0.0
 23
0.0
 33
0.0
 16
1.0
 26
0.0
 36
0.0
 17
0.0
 27
1.0
 37
0.0
 76
     0
330
1F
331
29
  0
MLINESTYLE
  5
18
102
{ACAD_REACTORS
330
17
102
}
330
17
100
AcDbMlineStyle
  2
Standard
 70
     0
  3

 62
   256
 51
90.0
 52
90.0
 71
     2
 49
0.5
 62
   256
  6
BYLAYER
 49
-0.5
 62
   256
  6
BYLAYER
  0
ACDBPLACEHOLDER
  5
F
102
{ACAD_REACTORS
330
E
102
}
330
E
  0
SCALE
  5
48
102
{ACAD_REACTORS
330
47
102
}
330
47
100
AcDbScale
 70
     0
300
1:1
140
1.0
141
1.0
290
     1
  0
SCALE
  5
49
102
{ACAD_REACTORS
330
47
102
}
330
47
100
AcDbScale
 70
     0
300
1:2
140
1.0
141
2.0
290
     0
  0
SCALE
  5
4A
102
{ACAD_REACTORS
330
47
102
}
330
47
100
AcDbScale
 70
     0
300
1:4
140
1.0
141
4.0
290
     0
  0
SCALE
  5
4B
102
{ACAD_REACTORS
330
47
102
}
330
47
100
AcDbScale
 70
     0
300
1:5
140
1.0
141
5.0
290
     0
  0
SCALE
  5
4C
102
{ACAD_REACTORS
330
47
102
}
330
47
100
AcDbScale
 70
     0
300
1:8
140
1.0
141
8.0
290
     0
  0
SCALE
  5
4D
102
{ACAD_REACTORS
330
47
102
}
330
47
100
AcDbScale
 70
     0
300
1:10
140
1.0
141
10.0
290
     0
  0
SCALE
  5
4E
102
{ACAD_REACTORS
330
47
102
}
330
47
100
AcDbScale
 70
     0
300
1:16
140
1.0
141
16.0
290
     0
  0
SCALE
  5
4F
102
{ACAD_REACTORS
330
47
102
}
330
47
100
AcDbScale
 70
     0
300
1:20
140
1.0
141
20.0
290
     0
  0
SCALE
  5
50
102
{ACAD_REACTORS
330
47
102
}
330
47
100
AcDbScale
 70
     0
300
1:30
140
1.0
141
30.0
290
     0
  0
SCALE
  5
51
102
{ACAD_REACTORS
330
47
102
}
330
47
100
AcDbScale
 70
     0
300
1:40
140
1.0
141
40.0
290
     0
  0
SCALE
  5
52
102
{ACAD_REACTORS
330
47
102
}
330
47
100
AcDbScale
 70
     0
300
1:50
140
1.0
141
50.0
290
     0
  0
SCALE
  5
53
102
{ACAD_REACTORS
330
47
102
}
330
47
100
AcDbScale
 70
     0
300
1:100
140
1.0
141
100.0
290
     0
  0
SCALE
  5
54
102
{ACAD_REACTORS
330
47
102
}
330
47
100
AcDbScale
 70
     0
300
2:1
140
2.0
141
1.0
290
     0
  0
SCALE
  5
55
102
{ACAD_REACTORS
330
47
102
}
330
47
100
AcDbScale
 70
     0
300
4:1
140
4.0
141
1.0
290
     0
  0
SCALE
  5
56
102
{ACAD_REACTORS
330
47
102
}
330
47
100
AcDbScale
 70
     0
300
8:1
140
8.0
141
1.0
290
     0
  0
SCALE
  5
57
102
{ACAD_REACTORS
330
47
102
}
330
47
100
AcDbScale
 70
     0
300
10:1
140
10.0
141
1.0
290
     0
  0
SCALE
  5
58
102
{ACAD_REACTORS
330
47
102
}
330
47
100
AcDbScale
 70
     0
300
100:1
140
100.0
141
1.0
290
     0
  0
SCALE
  5
59
102
{ACAD_REACTORS
330
47
102
}
330
47
100
AcDbScale
 70
     0
300
1/128" = 1'-0"
140
0.0078125
141
12.0
290
     0
  0
SCALE
  5
5A
102
{ACAD_REACTORS
330
47
102
}
330
47
100
AcDbScale
 70
     0
300
1/64" = 1'-0"
140
0.015625
141
12.0
290
     0
  0
SCALE
  5
5B
102
{ACAD_REACTORS
330
47
102
}
330
47
100
AcDbScale
 70
     0
300
1/32" = 1'-0"
140
0.03125
141
12.0
290
     0
  0
SCALE
  5
5C
102
{ACAD_REACTORS
330
47
102
}
330
47
100
AcDbScale
 70
     0
300
1/16" = 1'-0"
140
0.0625
141
12.0
290
     0
  0
SCALE
  5
5D
102
{ACAD_REACTORS
330
47
102
}
330
47
100
AcDbScale
 70
     0
300
3/32" = 1'-0"
140
0.09375
141
12.0
290
     0
  0
SCALE
  5
5E
102
{ACAD_REACTORS
330
47
102
}
330
47
100
AcDbScale
 70
     0
300
1/8" = 1'-0"
140
0.125
141
12.0
290
     0
  0
SCALE
  5
5F
102
{ACAD_REACTORS
330
47
102
}
330
47
100
AcDbScale
 70
     0
300
3/16" = 1'-0"
140
0.1875
141
12.0
290
     0
  0
SCALE
  5
60
102
{ACAD_REACTORS
330
47
102
}
330
47
100
AcDbScale
 70
     0
300
1/4" = 1'-0"
140
0.25
141
12.0
290
     0
  0
SCALE
  5
61
102
{ACAD_REACTORS
330
47
102
}
330
47
100
AcDbScale
 70
     0
300
3/8" = 1'-0"
140
0.375
141
12.0
290
     0
  0
SCALE
  5
62
102
{ACAD_REACTORS
330
47
102
}
330
47
100
AcDbScale
 70
     0
300
1/2" = 1'-0"
140
0.5
141
12.0
290
     0
  0
SCALE
  5
63
102
{ACAD_REACTORS
330
47
102
}
330
47
100
AcDbScale
 70
     0
300
3/4" = 1'-0"
140
0.75
141
12.0
290
     0
  0
SCALE
  5
64
102
{ACAD_REACTORS
330
47
102
}
330
47
100
AcDbScale
 70
     0
300
1" = 1'-0"
140
1.0
141
12.0
290
     0
  0
SCALE
  5
65
102
{ACAD_REACTORS
330
47
102
}
330
47
100
AcDbScale
 70
     0
300
1-1/2" = 1'-0"
140
1.5
141
12.0
290
     0
  0
SCALE
  5
66
102
{ACAD_REACTORS
330
47
102
}
330
47
100
AcDbScale
 70
     0
300
3" = 1'-0"
140
3.0
141
12.0
290
     0
  0
SCALE
  5
67
102
{ACAD_REACTORS
330
47
102
}
330
47
100
AcDbScale
 70
     0
300
6" = 1'-0"
140
6.0
141
12.0
290
     0
  0
SCALE
  5
68
102
{ACAD_REACTORS
330
47
102
}
330
47
100
AcDbScale
 70
     0
300
1'-0" = 1'-0"
140
12.0
141
12.0
290
     0
  0
ENDSEC
  0
EOF
