ISO-10303-21;
HEADER;
FILE_DESCRIPTION(('CATIA V5 STEP Exchange'),'2;1');

FILE_NAME('D:\\Projet Splitboard\\Chaussure Splitboard\\Consultation 19-07\\Outil - Axe - 00.stp','2019-07-25T13:59:11+00:00',('none'),('none'),'CATIA Version 5 Release 21 GA (IN-10)','CATIA V5 STEP AP203','none');

FILE_SCHEMA(('CONFIG_CONTROL_DESIGN'));

ENDSEC;
/* file written by CATIA V5R21 */
DATA;
#5=PRODUCT('Outil - Axe - 00','','',(#2)) ;
#1=APPLICATION_CONTEXT('configuration controlled 3D design of mechanical parts and assemblies') ;
#14=PRODUCT_DEFINITION('',' ',#6,#3) ;
#16=SECURITY_CLASSIFICATION(' ',' ',#15) ;
#15=SECURITY_CLASSIFICATION_LEVEL('unclassified') ;
#47=CARTESIAN_POINT(' ',(0.,0.,0.)) ;
#52=CARTESIAN_POINT('Axis2P3D Location',(-50.,0.,0.)) ;
#57=CARTESIAN_POINT('Axis2P3D Location',(-50.,0.,-1.26060887218E-016)) ;
#61=CARTESIAN_POINT('Vertex',(-50.,-2.5,-2.04035534801E-015)) ;
#63=CARTESIAN_POINT('Vertex',(-50.,2.5,-7.3836406413E-016)) ;
#66=CARTESIAN_POINT('Axis2P3D Location',(-50.,0.,-1.26060887218E-016)) ;
#76=CARTESIAN_POINT('Axis2P3D Location',(-52.5,-2.05391259556E-015,-7.77156117238E-016)) ;
#81=CARTESIAN_POINT('Line Origine',(-49.5,3.,1.55431223448E-016)) ;
#85=CARTESIAN_POINT('Vertex',(-49.,3.5,-3.96584891663E-015)) ;
#88=CARTESIAN_POINT('Line Origine',(-49.5,-3.,-2.40817565542E-015)) ;
#92=CARTESIAN_POINT('Vertex',(-49.,-3.5,4.28612223838E-016)) ;
#95=CARTESIAN_POINT('Axis2P3D Location',(-49.,6.66133814775E-016,5.91645678916E-031)) ;
#107=CARTESIAN_POINT('Axis2P3D Location',(-52.5,-2.44249065418E-015,6.36385478488E-016)) ;
#112=CARTESIAN_POINT('Axis2P3D Location',(-49.,6.66133814775E-016,-2.60997108491E-016)) ;
#124=CARTESIAN_POINT('Axis2P3D Location',(-25.,0.,0.)) ;
#129=CARTESIAN_POINT('Line Origine',(-25.,3.5,0.)) ;
#133=CARTESIAN_POINT('Vertex',(-20.,3.5,0.)) ;
#136=CARTESIAN_POINT('Line Origine',(-25.,-3.5,4.28612223838E-016)) ;
#140=CARTESIAN_POINT('Vertex',(-20.,-3.5,4.28612223838E-016)) ;
#143=CARTESIAN_POINT('Axis2P3D Location',(-20.,0.,0.)) ;
#155=CARTESIAN_POINT('Axis2P3D Location',(-20.,0.,0.)) ;
#167=CARTESIAN_POINT('Axis2P3D Location',(0.,0.,0.)) ;
#172=CARTESIAN_POINT('Axis2P3D Location',(0.,0.,-1.26060887218E-016)) ;
#176=CARTESIAN_POINT('Vertex',(0.,-2.5,-2.04035534801E-015)) ;
#178=CARTESIAN_POINT('Vertex',(0.,2.5,-7.3836406413E-016)) ;
#181=CARTESIAN_POINT('Axis2P3D Location',(0.,0.,-1.26060887218E-016)) ;
#191=CARTESIAN_POINT('Axis2P3D Location',(2.5,-2.44249065418E-015,6.36385478488E-016)) ;
#196=CARTESIAN_POINT('Line Origine',(-0.5,-3.,-1.2132742844E-015)) ;
#200=CARTESIAN_POINT('Vertex',(-1.,-3.5,4.28612223838E-016)) ;
#203=CARTESIAN_POINT('Axis2P3D Location',(-1.,6.66133814775E-016,-2.60997108491E-016)) ;
#207=CARTESIAN_POINT('Vertex',(-1.,3.5,-3.96584891663E-015)) ;
#210=CARTESIAN_POINT('Line Origine',(-0.5,3.,-4.87701026567E-015)) ;
#222=CARTESIAN_POINT('Axis2P3D Location',(2.5,-2.05391259556E-015,-7.77156117238E-016)) ;
#227=CARTESIAN_POINT('Axis2P3D Location',(-1.,6.66133814775E-016,5.91645678916E-031)) ;
#239=CARTESIAN_POINT('Line Origine',(-25.,3.5,-8.57224447676E-016)) ;
#243=CARTESIAN_POINT('Vertex',(-13.,3.5,0.)) ;
#246=CARTESIAN_POINT('Line Origine',(-25.,-3.5,4.28612223838E-016)) ;
#250=CARTESIAN_POINT('Vertex',(-13.,-3.5,4.28612223838E-016)) ;
#253=CARTESIAN_POINT('Axis2P3D Location',(-13.,0.,0.)) ;
#265=CARTESIAN_POINT('Axis2P3D Location',(-13.,0.,0.)) ;
#277=CARTESIAN_POINT('Axis2P3D Location',(-20.,0.,0.)) ;
#282=CARTESIAN_POINT('Axis2P3D Location',(-20.,0.,0.)) ;
#286=CARTESIAN_POINT('Vertex',(-20.,-5.,6.12303176911E-016)) ;
#288=CARTESIAN_POINT('Vertex',(-20.,5.,0.)) ;
#291=CARTESIAN_POINT('Axis2P3D Location',(-20.,0.,0.)) ;
#305=CARTESIAN_POINT('Axis2P3D Location',(-13.,0.,0.)) ;
#310=CARTESIAN_POINT('Axis2P3D Location',(-13.,0.,0.)) ;
#314=CARTESIAN_POINT('Vertex',(-13.,5.,0.)) ;
#316=CARTESIAN_POINT('Vertex',(-13.,-5.,6.12303176911E-016)) ;
#319=CARTESIAN_POINT('Axis2P3D Location',(-13.,0.,0.)) ;
#333=CARTESIAN_POINT('Axis2P3D Location',(-16.5,0.,0.)) ;
#338=CARTESIAN_POINT('Line Origine',(-16.5,5.,-1.22460635382E-015)) ;
#343=CARTESIAN_POINT('Line Origine',(-16.5,-5.,6.12303176911E-016)) ;
#53=DIRECTION('Axis2P3D Direction',(1.,0.,0.)) ;
#54=DIRECTION('Axis2P3D XDirection',(0.,1.,0.)) ;
#58=DIRECTION('Axis2P3D Direction',(1.,0.,0.)) ;
#67=DIRECTION('Axis2P3D Direction',(1.,0.,0.)) ;
#77=DIRECTION('Axis2P3D Direction',(1.,7.77156117238E-016,2.22044604925E-016)) ;
#78=DIRECTION('Axis2P3D XDirection',(-7.90253409579E-016,1.,-1.75471506121E-031)) ;
#82=DIRECTION('Vector Direction',(0.707106781187,0.707106781187,2.19812944216E-016)) ;
#89=DIRECTION('Vector Direction',(0.707106781187,-0.707106781187,-3.84434991898E-016)) ;
#96=DIRECTION('Axis2P3D Direction',(1.,-0.,2.22044604925E-016)) ;
#108=DIRECTION('Axis2P3D Direction',(1.,8.881784197E-016,-2.56395024851E-016)) ;
#109=DIRECTION('Axis2P3D XDirection',(6.58544507983E-016,-0.5,0.866025403784)) ;
#113=DIRECTION('Axis2P3D Direction',(1.,5.55111512313E-016,3.20493781064E-016)) ;
#125=DIRECTION('Axis2P3D Direction',(1.,0.,0.)) ;
#126=DIRECTION('Axis2P3D XDirection',(0.,1.,0.)) ;
#130=DIRECTION('Vector Direction',(1.,0.,0.)) ;
#137=DIRECTION('Vector Direction',(1.,0.,0.)) ;
#144=DIRECTION('Axis2P3D Direction',(1.,0.,0.)) ;
#156=DIRECTION('Axis2P3D Direction',(1.,0.,0.)) ;
#168=DIRECTION('Axis2P3D Direction',(1.,0.,0.)) ;
#169=DIRECTION('Axis2P3D XDirection',(0.,1.,0.)) ;
#173=DIRECTION('Axis2P3D Direction',(1.,0.,0.)) ;
#182=DIRECTION('Axis2P3D Direction',(1.,0.,0.)) ;
#192=DIRECTION('Axis2P3D Direction',(-1.,8.881784197E-016,-2.56395024851E-016)) ;
#193=DIRECTION('Axis2P3D XDirection',(-6.58544507983E-016,-0.5,0.866025403784)) ;
#197=DIRECTION('Vector Direction',(-0.707106781187,-0.707106781187,-1.81298660735E-016)) ;
#204=DIRECTION('Axis2P3D Direction',(1.,-5.55111512313E-016,-3.20493781064E-016)) ;
#211=DIRECTION('Vector Direction',(-0.707106781187,0.707106781187,-1.28036338181E-015)) ;
#223=DIRECTION('Axis2P3D Direction',(-1.,7.77156117238E-016,2.22044604925E-016)) ;
#224=DIRECTION('Axis2P3D XDirection',(7.90253409579E-016,1.,-1.75471506121E-031)) ;
#228=DIRECTION('Axis2P3D Direction',(1.,0.,-2.22044604925E-016)) ;
#240=DIRECTION('Vector Direction',(1.,0.,0.)) ;
#247=DIRECTION('Vector Direction',(1.,0.,0.)) ;
#254=DIRECTION('Axis2P3D Direction',(1.,0.,0.)) ;
#266=DIRECTION('Axis2P3D Direction',(1.,0.,0.)) ;
#278=DIRECTION('Axis2P3D Direction',(1.,0.,0.)) ;
#279=DIRECTION('Axis2P3D XDirection',(0.,1.,0.)) ;
#283=DIRECTION('Axis2P3D Direction',(1.,0.,0.)) ;
#292=DIRECTION('Axis2P3D Direction',(1.,0.,0.)) ;
#306=DIRECTION('Axis2P3D Direction',(1.,0.,0.)) ;
#307=DIRECTION('Axis2P3D XDirection',(0.,1.,0.)) ;
#311=DIRECTION('Axis2P3D Direction',(1.,0.,0.)) ;
#320=DIRECTION('Axis2P3D Direction',(1.,0.,0.)) ;
#334=DIRECTION('Axis2P3D Direction',(1.,0.,0.)) ;
#335=DIRECTION('Axis2P3D XDirection',(0.,1.,0.)) ;
#339=DIRECTION('Vector Direction',(1.,0.,0.)) ;
#344=DIRECTION('Vector Direction',(1.,0.,0.)) ;
#48=AXIS2_PLACEMENT_3D(' ',#47,$,$) ;
#55=AXIS2_PLACEMENT_3D('Plane Axis2P3D',#52,#53,#54) ;
#59=AXIS2_PLACEMENT_3D('Circle Axis2P3D',#57,#58,$) ;
#68=AXIS2_PLACEMENT_3D('Circle Axis2P3D',#66,#67,$) ;
#79=AXIS2_PLACEMENT_3D('Cone Axis2P3D',#76,#77,#78) ;
#97=AXIS2_PLACEMENT_3D('Circle Axis2P3D',#95,#96,$) ;
#110=AXIS2_PLACEMENT_3D('Cone Axis2P3D',#107,#108,#109) ;
#114=AXIS2_PLACEMENT_3D('Circle Axis2P3D',#112,#113,$) ;
#127=AXIS2_PLACEMENT_3D('Cylinder Axis2P3D',#124,#125,#126) ;
#145=AXIS2_PLACEMENT_3D('Circle Axis2P3D',#143,#144,$) ;
#157=AXIS2_PLACEMENT_3D('Circle Axis2P3D',#155,#156,$) ;
#170=AXIS2_PLACEMENT_3D('Plane Axis2P3D',#167,#168,#169) ;
#174=AXIS2_PLACEMENT_3D('Circle Axis2P3D',#172,#173,$) ;
#183=AXIS2_PLACEMENT_3D('Circle Axis2P3D',#181,#182,$) ;
#194=AXIS2_PLACEMENT_3D('Cone Axis2P3D',#191,#192,#193) ;
#205=AXIS2_PLACEMENT_3D('Circle Axis2P3D',#203,#204,$) ;
#225=AXIS2_PLACEMENT_3D('Cone Axis2P3D',#222,#223,#224) ;
#229=AXIS2_PLACEMENT_3D('Circle Axis2P3D',#227,#228,$) ;
#255=AXIS2_PLACEMENT_3D('Circle Axis2P3D',#253,#254,$) ;
#267=AXIS2_PLACEMENT_3D('Circle Axis2P3D',#265,#266,$) ;
#280=AXIS2_PLACEMENT_3D('Plane Axis2P3D',#277,#278,#279) ;
#284=AXIS2_PLACEMENT_3D('Circle Axis2P3D',#282,#283,$) ;
#293=AXIS2_PLACEMENT_3D('Circle Axis2P3D',#291,#292,$) ;
#308=AXIS2_PLACEMENT_3D('Plane Axis2P3D',#305,#306,#307) ;
#312=AXIS2_PLACEMENT_3D('Circle Axis2P3D',#310,#311,$) ;
#321=AXIS2_PLACEMENT_3D('Circle Axis2P3D',#319,#320,$) ;
#336=AXIS2_PLACEMENT_3D('Cylinder Axis2P3D',#333,#334,#335) ;
#40=PRODUCT_DEFINITION_SHAPE(' ',' ',#14) ;
#31=APPROVAL_PERSON_ORGANIZATION(#25,#21,#19) ;
#25=PERSON_AND_ORGANIZATION(#22,#23) ;
#22=PERSON(' ',' ',' ',$,$,$) ;
#23=ORGANIZATION(' ',' ',' ') ;
#21=APPROVAL(#20,' ') ;
#20=APPROVAL_STATUS('not_yet_approved') ;
#19=APPROVAL_ROLE('APPROVER') ;
#13=DATE_AND_TIME(#11,#12) ;
#12=LOCAL_TIME(15,59,10.,#10) ;
#10=COORDINATED_UNIVERSAL_TIME_OFFSET(0,0,.AHEAD.) ;
#72=ORIENTED_EDGE('',*,*,#65,.F.) ;
#73=ORIENTED_EDGE('',*,*,#70,.F.) ;
#101=ORIENTED_EDGE('',*,*,#87,.T.) ;
#102=ORIENTED_EDGE('',*,*,#70,.T.) ;
#103=ORIENTED_EDGE('',*,*,#94,.F.) ;
#104=ORIENTED_EDGE('',*,*,#99,.F.) ;
#118=ORIENTED_EDGE('',*,*,#94,.T.) ;
#119=ORIENTED_EDGE('',*,*,#65,.T.) ;
#120=ORIENTED_EDGE('',*,*,#87,.F.) ;
#121=ORIENTED_EDGE('',*,*,#116,.F.) ;
#149=ORIENTED_EDGE('',*,*,#135,.T.) ;
#150=ORIENTED_EDGE('',*,*,#99,.T.) ;
#151=ORIENTED_EDGE('',*,*,#142,.F.) ;
#152=ORIENTED_EDGE('',*,*,#147,.F.) ;
#161=ORIENTED_EDGE('',*,*,#142,.T.) ;
#162=ORIENTED_EDGE('',*,*,#116,.T.) ;
#163=ORIENTED_EDGE('',*,*,#135,.F.) ;
#164=ORIENTED_EDGE('',*,*,#159,.F.) ;
#187=ORIENTED_EDGE('',*,*,#180,.T.) ;
#188=ORIENTED_EDGE('',*,*,#185,.T.) ;
#216=ORIENTED_EDGE('',*,*,#202,.T.) ;
#217=ORIENTED_EDGE('',*,*,#209,.T.) ;
#218=ORIENTED_EDGE('',*,*,#214,.F.) ;
#219=ORIENTED_EDGE('',*,*,#180,.F.) ;
#233=ORIENTED_EDGE('',*,*,#214,.T.) ;
#234=ORIENTED_EDGE('',*,*,#231,.T.) ;
#235=ORIENTED_EDGE('',*,*,#202,.F.) ;
#236=ORIENTED_EDGE('',*,*,#185,.F.) ;
#259=ORIENTED_EDGE('',*,*,#245,.F.) ;
#260=ORIENTED_EDGE('',*,*,#209,.F.) ;
#261=ORIENTED_EDGE('',*,*,#252,.T.) ;
#262=ORIENTED_EDGE('',*,*,#257,.T.) ;
#271=ORIENTED_EDGE('',*,*,#252,.F.) ;
#272=ORIENTED_EDGE('',*,*,#231,.F.) ;
#273=ORIENTED_EDGE('',*,*,#245,.T.) ;
#274=ORIENTED_EDGE('',*,*,#269,.T.) ;
#297=ORIENTED_EDGE('',*,*,#290,.F.) ;
#298=ORIENTED_EDGE('',*,*,#295,.F.) ;
#301=ORIENTED_EDGE('',*,*,#159,.T.) ;
#302=ORIENTED_EDGE('',*,*,#147,.T.) ;
#325=ORIENTED_EDGE('',*,*,#318,.T.) ;
#326=ORIENTED_EDGE('',*,*,#323,.T.) ;
#329=ORIENTED_EDGE('',*,*,#269,.F.) ;
#330=ORIENTED_EDGE('',*,*,#257,.F.) ;
#349=ORIENTED_EDGE('',*,*,#290,.T.) ;
#350=ORIENTED_EDGE('',*,*,#342,.F.) ;
#351=ORIENTED_EDGE('',*,*,#323,.F.) ;
#352=ORIENTED_EDGE('',*,*,#347,.T.) ;
#356=ORIENTED_EDGE('',*,*,#295,.T.) ;
#357=ORIENTED_EDGE('',*,*,#347,.F.) ;
#358=ORIENTED_EDGE('',*,*,#318,.F.) ;
#359=ORIENTED_EDGE('',*,*,#342,.T.) ;
#303=FACE_BOUND('',#300,.T.) ;
#331=FACE_BOUND('',#328,.T.) ;
#51=CLOSED_SHELL('Closed Shell',(#75,#106,#123,#154,#166,#190,#221,#238,#264,#276,#304,#332,#354,#361)) ;
#83=VECTOR('Line Direction',#82,1.) ;
#90=VECTOR('Line Direction',#89,1.) ;
#131=VECTOR('Line Direction',#130,1.) ;
#138=VECTOR('Line Direction',#137,1.) ;
#198=VECTOR('Line Direction',#197,1.) ;
#212=VECTOR('Line Direction',#211,1.) ;
#241=VECTOR('Line Direction',#240,1.) ;
#248=VECTOR('Line Direction',#247,1.) ;
#340=VECTOR('Line Direction',#339,1.) ;
#345=VECTOR('Line Direction',#344,1.) ;
#363=ADVANCED_BREP_SHAPE_REPRESENTATION('NONE',(#362),#46) ;
#49=SHAPE_REPRESENTATION(' ',(#48),#46) ;
#75=ADVANCED_FACE('Corps principal',(#74),#56,.F.) ;
#106=ADVANCED_FACE('Corps principal',(#105),#80,.T.) ;
#123=ADVANCED_FACE('Corps principal',(#122),#111,.T.) ;
#154=ADVANCED_FACE('Corps principal',(#153),#128,.T.) ;
#166=ADVANCED_FACE('Corps principal',(#165),#128,.T.) ;
#190=ADVANCED_FACE('Corps principal',(#189),#171,.T.) ;
#221=ADVANCED_FACE('Corps principal',(#220),#195,.T.) ;
#238=ADVANCED_FACE('Corps principal',(#237),#226,.T.) ;
#264=ADVANCED_FACE('Corps principal',(#263),#128,.T.) ;
#276=ADVANCED_FACE('Corps principal',(#275),#128,.T.) ;
#304=ADVANCED_FACE('Corps principal',(#299,#303),#281,.F.) ;
#332=ADVANCED_FACE('Corps principal',(#327,#331),#309,.T.) ;
#354=ADVANCED_FACE('Corps principal',(#353),#337,.T.) ;
#361=ADVANCED_FACE('Corps principal',(#360),#337,.T.) ;
#4=APPLICATION_PROTOCOL_DEFINITION('international standard','config_control_design',1994,#1) ;
#32=APPROVAL_DATE_TIME(#13,#21) ;
#362=MANIFOLD_SOLID_BREP('Corps principal',#51) ;
#11=CALENDAR_DATE(2019,25,7) ;
#30=CC_DESIGN_APPROVAL(#21,(#16,#6,#14)) ;
#18=CC_DESIGN_DATE_AND_TIME_ASSIGNMENT(#13,#17,(#16)) ;
#29=CC_DESIGN_DATE_AND_TIME_ASSIGNMENT(#13,#28,(#14)) ;
#17=DATE_TIME_ROLE('classification_date') ;
#28=DATE_TIME_ROLE('creation_date') ;
#27=CC_DESIGN_PERSON_AND_ORGANIZATION_ASSIGNMENT(#25,#26,(#16)) ;
#33=CC_DESIGN_PERSON_AND_ORGANIZATION_ASSIGNMENT(#25,#34,(#6)) ;
#35=CC_DESIGN_PERSON_AND_ORGANIZATION_ASSIGNMENT(#25,#36,(#6,#14)) ;
#37=CC_DESIGN_PERSON_AND_ORGANIZATION_ASSIGNMENT(#25,#38,(#5)) ;
#26=PERSON_AND_ORGANIZATION_ROLE('classification_officer') ;
#34=PERSON_AND_ORGANIZATION_ROLE('design_supplier') ;
#36=PERSON_AND_ORGANIZATION_ROLE('creator') ;
#38=PERSON_AND_ORGANIZATION_ROLE('design_owner') ;
#39=CC_DESIGN_SECURITY_CLASSIFICATION(#16,(#6)) ;
#60=CIRCLE('generated circle',#59,2.5) ;
#69=CIRCLE('generated circle',#68,2.5) ;
#98=CIRCLE('generated circle',#97,3.5) ;
#115=CIRCLE('generated circle',#114,3.5) ;
#146=CIRCLE('generated circle',#145,3.5) ;
#158=CIRCLE('generated circle',#157,3.5) ;
#175=CIRCLE('generated circle',#174,2.5) ;
#184=CIRCLE('generated circle',#183,2.5) ;
#206=CIRCLE('generated circle',#205,3.5) ;
#230=CIRCLE('generated circle',#229,3.5) ;
#256=CIRCLE('generated circle',#255,3.5) ;
#268=CIRCLE('generated circle',#267,3.5) ;
#285=CIRCLE('generated circle',#284,5.) ;
#294=CIRCLE('generated circle',#293,5.) ;
#313=CIRCLE('generated circle',#312,5.) ;
#322=CIRCLE('generated circle',#321,5.) ;
#80=CONICAL_SURFACE('Cone',#79,0.,0.785398163397) ;
#111=CONICAL_SURFACE('Cone',#110,0.,0.785398163397) ;
#195=CONICAL_SURFACE('Cone',#194,0.,0.785398163397) ;
#226=CONICAL_SURFACE('Cone',#225,0.,0.785398163397) ;
#364=SHAPE_REPRESENTATION_RELATIONSHIP(' ',' ',#49,#363) ;
#128=CYLINDRICAL_SURFACE('generated cylinder',#127,3.5) ;
#337=CYLINDRICAL_SURFACE('generated cylinder',#336,5.) ;
#3=DESIGN_CONTEXT(' ',#1,'design') ;
#65=EDGE_CURVE('',#62,#64,#60,.T.) ;
#70=EDGE_CURVE('',#64,#62,#69,.T.) ;
#87=EDGE_CURVE('',#86,#64,#84,.F.) ;
#94=EDGE_CURVE('',#93,#62,#91,.F.) ;
#99=EDGE_CURVE('',#86,#93,#98,.T.) ;
#116=EDGE_CURVE('',#93,#86,#115,.T.) ;
#135=EDGE_CURVE('',#134,#86,#132,.F.) ;
#142=EDGE_CURVE('',#141,#93,#139,.F.) ;
#147=EDGE_CURVE('',#134,#141,#146,.T.) ;
#159=EDGE_CURVE('',#141,#134,#158,.T.) ;
#180=EDGE_CURVE('',#177,#179,#175,.T.) ;
#185=EDGE_CURVE('',#179,#177,#184,.T.) ;
#202=EDGE_CURVE('',#177,#201,#199,.T.) ;
#209=EDGE_CURVE('',#201,#208,#206,.T.) ;
#214=EDGE_CURVE('',#179,#208,#213,.T.) ;
#231=EDGE_CURVE('',#208,#201,#230,.T.) ;
#245=EDGE_CURVE('',#208,#244,#242,.F.) ;
#252=EDGE_CURVE('',#201,#251,#249,.F.) ;
#257=EDGE_CURVE('',#251,#244,#256,.T.) ;
#269=EDGE_CURVE('',#244,#251,#268,.T.) ;
#290=EDGE_CURVE('',#287,#289,#285,.T.) ;
#295=EDGE_CURVE('',#289,#287,#294,.T.) ;
#318=EDGE_CURVE('',#315,#317,#313,.T.) ;
#323=EDGE_CURVE('',#317,#315,#322,.T.) ;
#342=EDGE_CURVE('',#315,#289,#341,.F.) ;
#347=EDGE_CURVE('',#317,#287,#346,.F.) ;
#71=EDGE_LOOP('',(#72,#73)) ;
#100=EDGE_LOOP('',(#101,#102,#103,#104)) ;
#117=EDGE_LOOP('',(#118,#119,#120,#121)) ;
#148=EDGE_LOOP('',(#149,#150,#151,#152)) ;
#160=EDGE_LOOP('',(#161,#162,#163,#164)) ;
#186=EDGE_LOOP('',(#187,#188)) ;
#215=EDGE_LOOP('',(#216,#217,#218,#219)) ;
#232=EDGE_LOOP('',(#233,#234,#235,#236)) ;
#258=EDGE_LOOP('',(#259,#260,#261,#262)) ;
#270=EDGE_LOOP('',(#271,#272,#273,#274)) ;
#296=EDGE_LOOP('',(#297,#298)) ;
#300=EDGE_LOOP('',(#301,#302)) ;
#324=EDGE_LOOP('',(#325,#326)) ;
#328=EDGE_LOOP('',(#329,#330)) ;
#348=EDGE_LOOP('',(#349,#350,#351,#352)) ;
#355=EDGE_LOOP('',(#356,#357,#358,#359)) ;
#74=FACE_OUTER_BOUND('',#71,.T.) ;
#105=FACE_OUTER_BOUND('',#100,.T.) ;
#122=FACE_OUTER_BOUND('',#117,.T.) ;
#153=FACE_OUTER_BOUND('',#148,.T.) ;
#165=FACE_OUTER_BOUND('',#160,.T.) ;
#189=FACE_OUTER_BOUND('',#186,.T.) ;
#220=FACE_OUTER_BOUND('',#215,.T.) ;
#237=FACE_OUTER_BOUND('',#232,.T.) ;
#263=FACE_OUTER_BOUND('',#258,.T.) ;
#275=FACE_OUTER_BOUND('',#270,.T.) ;
#299=FACE_OUTER_BOUND('',#296,.T.) ;
#327=FACE_OUTER_BOUND('',#324,.T.) ;
#353=FACE_OUTER_BOUND('',#348,.T.) ;
#360=FACE_OUTER_BOUND('',#355,.T.) ;
#45=UNCERTAINTY_MEASURE_WITH_UNIT(LENGTH_MEASURE(0.005),#41,'distance_accuracy_value','CONFUSED CURVE UNCERTAINTY') ;
#84=LINE('Line',#81,#83) ;
#91=LINE('Line',#88,#90) ;
#132=LINE('Line',#129,#131) ;
#139=LINE('Line',#136,#138) ;
#199=LINE('Line',#196,#198) ;
#213=LINE('Line',#210,#212) ;
#242=LINE('Line',#239,#241) ;
#249=LINE('Line',#246,#248) ;
#341=LINE('Line',#338,#340) ;
#346=LINE('Line',#343,#345) ;
#2=MECHANICAL_CONTEXT(' ',#1,'mechanical') ;
#24=PERSONAL_ADDRESS(' ',' ',' ',' ',' ',' ',' ',' ',' ',' ',' ',' ',(#22),' ') ;
#56=PLANE('',#55) ;
#171=PLANE('',#170) ;
#281=PLANE('',#280) ;
#309=PLANE('',#308) ;
#43=PLANE_ANGLE_MEASURE_WITH_UNIT(PLANE_ANGLE_MEASURE(0.0174532925199),#42) ;
#7=PRODUCT_CATEGORY('part',$) ;
#9=PRODUCT_CATEGORY_RELATIONSHIP(' ',' ',#7,#8) ;
#6=PRODUCT_DEFINITION_FORMATION_WITH_SPECIFIED_SOURCE('',' ',#5,.NOT_KNOWN.) ;
#8=PRODUCT_RELATED_PRODUCT_CATEGORY('detail',$,(#5)) ;
#50=SHAPE_DEFINITION_REPRESENTATION(#40,#49) ;
#62=VERTEX_POINT('',#61) ;
#64=VERTEX_POINT('',#63) ;
#86=VERTEX_POINT('',#85) ;
#93=VERTEX_POINT('',#92) ;
#134=VERTEX_POINT('',#133) ;
#141=VERTEX_POINT('',#140) ;
#177=VERTEX_POINT('',#176) ;
#179=VERTEX_POINT('',#178) ;
#201=VERTEX_POINT('',#200) ;
#208=VERTEX_POINT('',#207) ;
#244=VERTEX_POINT('',#243) ;
#251=VERTEX_POINT('',#250) ;
#287=VERTEX_POINT('',#286) ;
#289=VERTEX_POINT('',#288) ;
#315=VERTEX_POINT('',#314) ;
#317=VERTEX_POINT('',#316) ;
#41=(LENGTH_UNIT()NAMED_UNIT(*)SI_UNIT(.MILLI.,.METRE.)) ;
#42=(NAMED_UNIT(*)PLANE_ANGLE_UNIT()SI_UNIT($,.RADIAN.)) ;
#44=(NAMED_UNIT(*)SI_UNIT($,.STERADIAN.)SOLID_ANGLE_UNIT()) ;
#46=(GEOMETRIC_REPRESENTATION_CONTEXT(3)GLOBAL_UNCERTAINTY_ASSIGNED_CONTEXT((#45))GLOBAL_UNIT_ASSIGNED_CONTEXT((#41,#42,#44))REPRESENTATION_CONTEXT(' ',' ')) ;
ENDSEC;
END-ISO-10303-21;
