ISO-10303-21;
HEADER;
FILE_DESCRIPTION(('CATIA V5 STEP Exchange'),'2;1');

FILE_NAME('D:\\Projet Splitboard\\Chaussure Splitboard\\Consultation 19-07\\Axe D8-16 - 00 poussoir ressort.stp','2019-07-25T13:58:06+00:00',('none'),('none'),'CATIA Version 5 Release 21 GA (IN-10)','CATIA V5 STEP AP203','none');

FILE_SCHEMA(('CONFIG_CONTROL_DESIGN'));

ENDSEC;
/* file written by CATIA V5R21 */
DATA;
#5=PRODUCT('Axe D8-16 - 00 poussoir ressort','','',(#2)) ;
#1=APPLICATION_CONTEXT('configuration controlled 3D design of mechanical parts and assemblies') ;
#14=PRODUCT_DEFINITION('',' ',#6,#3) ;
#16=SECURITY_CLASSIFICATION(' ',' ',#15) ;
#15=SECURITY_CLASSIFICATION_LEVEL('unclassified') ;
#47=CARTESIAN_POINT(' ',(0.,0.,0.)) ;
#52=CARTESIAN_POINT('Axis2P3D Location',(8.,0.,0.)) ;
#57=CARTESIAN_POINT('Axis2P3D Location',(8.,0.,-1.05644246351E-016)) ;
#61=CARTESIAN_POINT('Vertex',(8.,-3.,-1.07052996975E-015)) ;
#63=CARTESIAN_POINT('Vertex',(8.,3.,-8.40408058644E-016)) ;
#66=CARTESIAN_POINT('Axis2P3D Location',(8.,0.,-1.05644246351E-016)) ;
#76=CARTESIAN_POINT('Axis2P3D Location',(11.,3.99680288865E-015,4.4408920985E-016)) ;
#81=CARTESIAN_POINT('Line Origine',(7.5,-3.5,1.43638680655E-015)) ;
#85=CARTESIAN_POINT('Vertex',(7.,-4.,4.89842541529E-016)) ;
#88=CARTESIAN_POINT('Axis2P3D Location',(7.,-4.4408920985E-016,-3.25095864703E-016)) ;
#92=CARTESIAN_POINT('Vertex',(7.,4.,-8.08511244066E-015)) ;
#95=CARTESIAN_POINT('Line Origine',(7.5,3.5,-6.44619666829E-015)) ;
#107=CARTESIAN_POINT('Axis2P3D Location',(11.,-1.11022302463E-015,0.)) ;
#112=CARTESIAN_POINT('Axis2P3D Location',(7.,2.22044604925E-016,0.)) ;
#124=CARTESIAN_POINT('Axis2P3D Location',(-8.,0.,0.)) ;
#129=CARTESIAN_POINT('Axis2P3D Location',(-8.,0.,-1.05644246351E-016)) ;
#133=CARTESIAN_POINT('Vertex',(-8.,3.,-8.40408058644E-016)) ;
#135=CARTESIAN_POINT('Vertex',(-8.,-3.,-1.07052996975E-015)) ;
#138=CARTESIAN_POINT('Axis2P3D Location',(-8.,0.,-1.05644246351E-016)) ;
#148=CARTESIAN_POINT('Axis2P3D Location',(-11.,3.99680288865E-015,4.4408920985E-016)) ;
#153=CARTESIAN_POINT('Line Origine',(-7.5,-3.5,-1.00610384762E-015)) ;
#157=CARTESIAN_POINT('Vertex',(-7.,-4.,4.89842541529E-016)) ;
#160=CARTESIAN_POINT('Line Origine',(-7.5,3.5,-1.17925427922E-016)) ;
#164=CARTESIAN_POINT('Vertex',(-7.,4.,-8.08511244066E-015)) ;
#167=CARTESIAN_POINT('Axis2P3D Location',(-7.,-4.4408920985E-016,-3.25095864703E-016)) ;
#179=CARTESIAN_POINT('Axis2P3D Location',(-11.,-1.11022302463E-015,0.)) ;
#184=CARTESIAN_POINT('Axis2P3D Location',(-7.,2.22044604925E-016,0.)) ;
#196=CARTESIAN_POINT('Axis2P3D Location',(0.,0.,0.)) ;
#201=CARTESIAN_POINT('Line Origine',(0.,4.,-9.79685083058E-016)) ;
#205=CARTESIAN_POINT('Vertex',(1.5,4.,0.)) ;
#208=CARTESIAN_POINT('Line Origine',(0.,-4.,4.89842541529E-016)) ;
#212=CARTESIAN_POINT('Vertex',(1.5,-4.,8.57495498219E-015)) ;
#215=CARTESIAN_POINT('Axis2P3D Location',(1.5,0.,0.)) ;
#219=CARTESIAN_POINT('Vertex',(1.5,-3.51033024756,-1.91770215442)) ;
#222=CARTESIAN_POINT('Axis2P3D Location',(1.5,0.,0.)) ;
#235=CARTESIAN_POINT('Axis2P3D Location',(-1.5,0.,0.)) ;
#239=CARTESIAN_POINT('Vertex',(-1.5,-4.,-1.47006972567E-014)) ;
#241=CARTESIAN_POINT('Vertex',(-1.5,-3.51033024756,-1.91770215442)) ;
#244=CARTESIAN_POINT('Line Origine',(0.,-4.,4.89842541529E-016)) ;
#249=CARTESIAN_POINT('Line Origine',(0.,4.,-9.79685083058E-016)) ;
#253=CARTESIAN_POINT('Vertex',(-1.5,4.,0.)) ;
#256=CARTESIAN_POINT('Axis2P3D Location',(-1.5,0.,0.)) ;
#269=CARTESIAN_POINT('Axis2P3D Location',(1.5,0.,0.)) ;
#273=CARTESIAN_POINT('Vertex',(1.5,3.51033024756,1.91770215442)) ;
#276=CARTESIAN_POINT('Axis2P3D Location',(1.5,0.,0.)) ;
#289=CARTESIAN_POINT('Axis2P3D Location',(-1.5,0.,0.)) ;
#293=CARTESIAN_POINT('Vertex',(-1.5,3.51033024756,1.91770215442)) ;
#296=CARTESIAN_POINT('Axis2P3D Location',(-1.5,0.,0.)) ;
#309=CARTESIAN_POINT('Axis2P3D Location',(3.9275730541E-016,0.,0.)) ;
#314=CARTESIAN_POINT('Axis2P3D Location',(0.353553390593,0.,0.)) ;
#318=CARTESIAN_POINT('Vertex',(0.353553390593,-2.50422869501,-1.36806637122)) ;
#320=CARTESIAN_POINT('Vertex',(0.353553390593,2.50422869501,1.36806637122)) ;
#323=CARTESIAN_POINT('Axis2P3D Location',(3.9275730541E-016,-2.81450098529,-1.53756889593)) ;
#327=CARTESIAN_POINT('Vertex',(-0.353553390593,-2.50422869501,-1.36806637122)) ;
#330=CARTESIAN_POINT('Axis2P3D Location',(-0.353553390593,0.,0.)) ;
#334=CARTESIAN_POINT('Vertex',(-0.353553390593,2.50422869501,1.36806637122)) ;
#337=CARTESIAN_POINT('Axis2P3D Location',(3.9275730541E-016,2.81450098529,1.53756889593)) ;
#349=CARTESIAN_POINT('Axis2P3D Location',(0.353553390593,0.,0.)) ;
#354=CARTESIAN_POINT('Line Origine',(0.926776695297,-3.00727947128,-1.64288426282)) ;
#359=CARTESIAN_POINT('Line Origine',(0.926776695297,3.00727947128,1.64288426282)) ;
#372=CARTESIAN_POINT('Axis2P3D Location',(0.353553390593,0.,0.)) ;
#377=CARTESIAN_POINT('Axis2P3D Location',(-0.353553390593,0.,0.)) ;
#389=CARTESIAN_POINT('Axis2P3D Location',(-0.353553390593,0.,0.)) ;
#394=CARTESIAN_POINT('Line Origine',(-0.926776695297,-3.00727947128,-1.64288426282)) ;
#399=CARTESIAN_POINT('Line Origine',(-0.926776695297,3.00727947128,1.64288426282)) ;
#53=DIRECTION('Axis2P3D Direction',(1.,0.,0.)) ;
#54=DIRECTION('Axis2P3D XDirection',(0.,1.,0.)) ;
#58=DIRECTION('Axis2P3D Direction',(1.,0.,0.)) ;
#67=DIRECTION('Axis2P3D Direction',(1.,0.,0.)) ;
#77=DIRECTION('Axis2P3D Direction',(-1.,-1.11022302463E-015,-1.92296268638E-016)) ;
#78=DIRECTION('Axis2P3D XDirection',(3.9512670479E-016,-0.5,0.866025403784)) ;
#82=DIRECTION('Vector Direction',(-0.707106781187,-0.707106781187,3.35053742054E-016)) ;
#89=DIRECTION('Axis2P3D Direction',(1.,9.15933995316E-016,5.28814738755E-016)) ;
#96=DIRECTION('Vector Direction',(-0.707106781187,0.707106781187,-1.3920479625E-015)) ;
#108=DIRECTION('Axis2P3D Direction',(-1.,3.33066907388E-016,-0.)) ;
#109=DIRECTION('Axis2P3D XDirection',(3.9512670479E-016,1.,0.)) ;
#113=DIRECTION('Axis2P3D Direction',(1.,-0.,0.)) ;
#125=DIRECTION('Axis2P3D Direction',(1.,0.,0.)) ;
#126=DIRECTION('Axis2P3D XDirection',(0.,1.,0.)) ;
#130=DIRECTION('Axis2P3D Direction',(1.,0.,0.)) ;
#139=DIRECTION('Axis2P3D Direction',(1.,0.,0.)) ;
#149=DIRECTION('Axis2P3D Direction',(1.,-1.11022302463E-015,-1.92296268638E-016)) ;
#150=DIRECTION('Axis2P3D XDirection',(-3.9512670479E-016,-0.5,0.866025403784)) ;
#154=DIRECTION('Vector Direction',(0.707106781187,-0.707106781187,-2.92983241419E-016)) ;
#161=DIRECTION('Vector Direction',(0.707106781187,0.707106781187,2.10352503173E-017)) ;
#168=DIRECTION('Axis2P3D Direction',(1.,-9.15933995316E-016,-5.28814738755E-016)) ;
#180=DIRECTION('Axis2P3D Direction',(1.,3.33066907388E-016,-0.)) ;
#181=DIRECTION('Axis2P3D XDirection',(-3.9512670479E-016,1.,0.)) ;
#185=DIRECTION('Axis2P3D Direction',(1.,0.,-0.)) ;
#197=DIRECTION('Axis2P3D Direction',(1.,0.,0.)) ;
#198=DIRECTION('Axis2P3D XDirection',(0.,1.,0.)) ;
#202=DIRECTION('Vector Direction',(1.,0.,0.)) ;
#209=DIRECTION('Vector Direction',(1.,0.,0.)) ;
#216=DIRECTION('Axis2P3D Direction',(1.,0.,0.)) ;
#223=DIRECTION('Axis2P3D Direction',(1.,0.,0.)) ;
#236=DIRECTION('Axis2P3D Direction',(1.,0.,0.)) ;
#245=DIRECTION('Vector Direction',(1.,0.,0.)) ;
#250=DIRECTION('Vector Direction',(1.,0.,0.)) ;
#257=DIRECTION('Axis2P3D Direction',(1.,0.,0.)) ;
#270=DIRECTION('Axis2P3D Direction',(1.,0.,0.)) ;
#277=DIRECTION('Axis2P3D Direction',(1.,0.,0.)) ;
#290=DIRECTION('Axis2P3D Direction',(1.,0.,0.)) ;
#297=DIRECTION('Axis2P3D Direction',(1.,0.,0.)) ;
#310=DIRECTION('Axis2P3D Direction',(1.,0.,0.)) ;
#311=DIRECTION('Axis2P3D XDirection',(0.,-0.87758256189,-0.479425538604)) ;
#315=DIRECTION('Axis2P3D Direction',(1.,0.,0.)) ;
#324=DIRECTION('Axis2P3D Direction',(0.,-0.479425538604,0.87758256189)) ;
#331=DIRECTION('Axis2P3D Direction',(1.,0.,0.)) ;
#338=DIRECTION('Axis2P3D Direction',(0.,0.479425538604,-0.87758256189)) ;
#350=DIRECTION('Axis2P3D Direction',(1.,0.,0.)) ;
#351=DIRECTION('Axis2P3D XDirection',(0.,-0.87758256189,-0.479425538604)) ;
#355=DIRECTION('Vector Direction',(0.707106781187,-0.620544580564,-0.339005049421)) ;
#360=DIRECTION('Vector Direction',(0.707106781187,0.620544580564,0.339005049421)) ;
#373=DIRECTION('Axis2P3D Direction',(1.,0.,0.)) ;
#378=DIRECTION('Axis2P3D Direction',(1.,0.,0.)) ;
#390=DIRECTION('Axis2P3D Direction',(-1.,-0.,-0.)) ;
#391=DIRECTION('Axis2P3D XDirection',(0.,-0.87758256189,-0.479425538604)) ;
#395=DIRECTION('Vector Direction',(-0.707106781187,-0.620544580564,-0.339005049421)) ;
#400=DIRECTION('Vector Direction',(-0.707106781187,0.620544580564,0.339005049421)) ;
#48=AXIS2_PLACEMENT_3D(' ',#47,$,$) ;
#55=AXIS2_PLACEMENT_3D('Plane Axis2P3D',#52,#53,#54) ;
#59=AXIS2_PLACEMENT_3D('Circle Axis2P3D',#57,#58,$) ;
#68=AXIS2_PLACEMENT_3D('Circle Axis2P3D',#66,#67,$) ;
#79=AXIS2_PLACEMENT_3D('Cone Axis2P3D',#76,#77,#78) ;
#90=AXIS2_PLACEMENT_3D('Circle Axis2P3D',#88,#89,$) ;
#110=AXIS2_PLACEMENT_3D('Cone Axis2P3D',#107,#108,#109) ;
#114=AXIS2_PLACEMENT_3D('Circle Axis2P3D',#112,#113,$) ;
#127=AXIS2_PLACEMENT_3D('Plane Axis2P3D',#124,#125,#126) ;
#131=AXIS2_PLACEMENT_3D('Circle Axis2P3D',#129,#130,$) ;
#140=AXIS2_PLACEMENT_3D('Circle Axis2P3D',#138,#139,$) ;
#151=AXIS2_PLACEMENT_3D('Cone Axis2P3D',#148,#149,#150) ;
#169=AXIS2_PLACEMENT_3D('Circle Axis2P3D',#167,#168,$) ;
#182=AXIS2_PLACEMENT_3D('Cone Axis2P3D',#179,#180,#181) ;
#186=AXIS2_PLACEMENT_3D('Circle Axis2P3D',#184,#185,$) ;
#199=AXIS2_PLACEMENT_3D('Cylinder Axis2P3D',#196,#197,#198) ;
#217=AXIS2_PLACEMENT_3D('Circle Axis2P3D',#215,#216,$) ;
#224=AXIS2_PLACEMENT_3D('Circle Axis2P3D',#222,#223,$) ;
#237=AXIS2_PLACEMENT_3D('Circle Axis2P3D',#235,#236,$) ;
#258=AXIS2_PLACEMENT_3D('Circle Axis2P3D',#256,#257,$) ;
#271=AXIS2_PLACEMENT_3D('Circle Axis2P3D',#269,#270,$) ;
#278=AXIS2_PLACEMENT_3D('Circle Axis2P3D',#276,#277,$) ;
#291=AXIS2_PLACEMENT_3D('Circle Axis2P3D',#289,#290,$) ;
#298=AXIS2_PLACEMENT_3D('Circle Axis2P3D',#296,#297,$) ;
#312=AXIS2_PLACEMENT_3D('Torus Axis2P3D',#309,#310,#311) ;
#316=AXIS2_PLACEMENT_3D('Circle Axis2P3D',#314,#315,$) ;
#325=AXIS2_PLACEMENT_3D('Circle Axis2P3D',#323,#324,$) ;
#332=AXIS2_PLACEMENT_3D('Circle Axis2P3D',#330,#331,$) ;
#339=AXIS2_PLACEMENT_3D('Circle Axis2P3D',#337,#338,$) ;
#352=AXIS2_PLACEMENT_3D('Cone Axis2P3D',#349,#350,#351) ;
#374=AXIS2_PLACEMENT_3D('Circle Axis2P3D',#372,#373,$) ;
#379=AXIS2_PLACEMENT_3D('Circle Axis2P3D',#377,#378,$) ;
#392=AXIS2_PLACEMENT_3D('Cone Axis2P3D',#389,#390,#391) ;
#40=PRODUCT_DEFINITION_SHAPE(' ',' ',#14) ;
#31=APPROVAL_PERSON_ORGANIZATION(#25,#21,#19) ;
#25=PERSON_AND_ORGANIZATION(#22,#23) ;
#22=PERSON(' ',' ',' ',$,$,$) ;
#23=ORGANIZATION(' ',' ',' ') ;
#21=APPROVAL(#20,' ') ;
#20=APPROVAL_STATUS('not_yet_approved') ;
#19=APPROVAL_ROLE('APPROVER') ;
#13=DATE_AND_TIME(#11,#12) ;
#12=LOCAL_TIME(15,58,6.,#10) ;
#10=COORDINATED_UNIVERSAL_TIME_OFFSET(0,0,.AHEAD.) ;
#72=ORIENTED_EDGE('',*,*,#65,.T.) ;
#73=ORIENTED_EDGE('',*,*,#70,.T.) ;
#101=ORIENTED_EDGE('',*,*,#87,.T.) ;
#102=ORIENTED_EDGE('',*,*,#94,.T.) ;
#103=ORIENTED_EDGE('',*,*,#99,.F.) ;
#104=ORIENTED_EDGE('',*,*,#65,.F.) ;
#118=ORIENTED_EDGE('',*,*,#99,.T.) ;
#119=ORIENTED_EDGE('',*,*,#116,.T.) ;
#120=ORIENTED_EDGE('',*,*,#87,.F.) ;
#121=ORIENTED_EDGE('',*,*,#70,.F.) ;
#144=ORIENTED_EDGE('',*,*,#137,.F.) ;
#145=ORIENTED_EDGE('',*,*,#142,.F.) ;
#173=ORIENTED_EDGE('',*,*,#159,.T.) ;
#174=ORIENTED_EDGE('',*,*,#142,.T.) ;
#175=ORIENTED_EDGE('',*,*,#166,.F.) ;
#176=ORIENTED_EDGE('',*,*,#171,.F.) ;
#190=ORIENTED_EDGE('',*,*,#166,.T.) ;
#191=ORIENTED_EDGE('',*,*,#137,.T.) ;
#192=ORIENTED_EDGE('',*,*,#159,.F.) ;
#193=ORIENTED_EDGE('',*,*,#188,.F.) ;
#228=ORIENTED_EDGE('',*,*,#207,.T.) ;
#229=ORIENTED_EDGE('',*,*,#94,.F.) ;
#230=ORIENTED_EDGE('',*,*,#214,.F.) ;
#231=ORIENTED_EDGE('',*,*,#221,.T.) ;
#232=ORIENTED_EDGE('',*,*,#226,.T.) ;
#262=ORIENTED_EDGE('',*,*,#243,.F.) ;
#263=ORIENTED_EDGE('',*,*,#248,.F.) ;
#264=ORIENTED_EDGE('',*,*,#171,.T.) ;
#265=ORIENTED_EDGE('',*,*,#255,.T.) ;
#266=ORIENTED_EDGE('',*,*,#260,.F.) ;
#282=ORIENTED_EDGE('',*,*,#214,.T.) ;
#283=ORIENTED_EDGE('',*,*,#116,.F.) ;
#284=ORIENTED_EDGE('',*,*,#207,.F.) ;
#285=ORIENTED_EDGE('',*,*,#275,.T.) ;
#286=ORIENTED_EDGE('',*,*,#280,.T.) ;
#302=ORIENTED_EDGE('',*,*,#255,.F.) ;
#303=ORIENTED_EDGE('',*,*,#188,.T.) ;
#304=ORIENTED_EDGE('',*,*,#248,.T.) ;
#305=ORIENTED_EDGE('',*,*,#295,.F.) ;
#306=ORIENTED_EDGE('',*,*,#300,.F.) ;
#343=ORIENTED_EDGE('',*,*,#322,.F.) ;
#344=ORIENTED_EDGE('',*,*,#329,.T.) ;
#345=ORIENTED_EDGE('',*,*,#336,.T.) ;
#346=ORIENTED_EDGE('',*,*,#341,.F.) ;
#365=ORIENTED_EDGE('',*,*,#275,.F.) ;
#366=ORIENTED_EDGE('',*,*,#226,.F.) ;
#367=ORIENTED_EDGE('',*,*,#358,.T.) ;
#368=ORIENTED_EDGE('',*,*,#322,.T.) ;
#369=ORIENTED_EDGE('',*,*,#363,.F.) ;
#383=ORIENTED_EDGE('',*,*,#376,.F.) ;
#384=ORIENTED_EDGE('',*,*,#341,.T.) ;
#385=ORIENTED_EDGE('',*,*,#381,.T.) ;
#386=ORIENTED_EDGE('',*,*,#329,.F.) ;
#405=ORIENTED_EDGE('',*,*,#336,.F.) ;
#406=ORIENTED_EDGE('',*,*,#398,.T.) ;
#407=ORIENTED_EDGE('',*,*,#260,.T.) ;
#408=ORIENTED_EDGE('',*,*,#300,.T.) ;
#409=ORIENTED_EDGE('',*,*,#403,.F.) ;
#413=ORIENTED_EDGE('',*,*,#221,.F.) ;
#414=ORIENTED_EDGE('',*,*,#280,.F.) ;
#415=ORIENTED_EDGE('',*,*,#363,.T.) ;
#416=ORIENTED_EDGE('',*,*,#376,.T.) ;
#417=ORIENTED_EDGE('',*,*,#358,.F.) ;
#421=ORIENTED_EDGE('',*,*,#381,.F.) ;
#422=ORIENTED_EDGE('',*,*,#403,.T.) ;
#423=ORIENTED_EDGE('',*,*,#295,.T.) ;
#424=ORIENTED_EDGE('',*,*,#243,.T.) ;
#425=ORIENTED_EDGE('',*,*,#398,.F.) ;
#51=CLOSED_SHELL('Closed Shell',(#75,#106,#123,#147,#178,#195,#234,#268,#288,#308,#348,#371,#388,#411,#419,#427)) ;
#83=VECTOR('Line Direction',#82,1.) ;
#97=VECTOR('Line Direction',#96,1.) ;
#155=VECTOR('Line Direction',#154,1.) ;
#162=VECTOR('Line Direction',#161,1.) ;
#203=VECTOR('Line Direction',#202,1.) ;
#210=VECTOR('Line Direction',#209,1.) ;
#246=VECTOR('Line Direction',#245,1.) ;
#251=VECTOR('Line Direction',#250,1.) ;
#356=VECTOR('Line Direction',#355,1.) ;
#361=VECTOR('Line Direction',#360,1.) ;
#396=VECTOR('Line Direction',#395,1.) ;
#401=VECTOR('Line Direction',#400,1.) ;
#429=ADVANCED_BREP_SHAPE_REPRESENTATION('NONE',(#428),#46) ;
#49=SHAPE_REPRESENTATION(' ',(#48),#46) ;
#75=ADVANCED_FACE('Corps principal',(#74),#56,.T.) ;
#106=ADVANCED_FACE('Corps principal',(#105),#80,.T.) ;
#123=ADVANCED_FACE('Corps principal',(#122),#111,.T.) ;
#147=ADVANCED_FACE('Corps principal',(#146),#128,.F.) ;
#178=ADVANCED_FACE('Corps principal',(#177),#152,.T.) ;
#195=ADVANCED_FACE('Corps principal',(#194),#183,.T.) ;
#234=ADVANCED_FACE('Corps principal',(#233),#200,.T.) ;
#268=ADVANCED_FACE('Corps principal',(#267),#200,.T.) ;
#288=ADVANCED_FACE('Corps principal',(#287),#200,.T.) ;
#308=ADVANCED_FACE('Corps principal',(#307),#200,.T.) ;
#348=ADVANCED_FACE('Corps principal',(#347),#313,.F.) ;
#371=ADVANCED_FACE('Corps principal',(#370),#353,.T.) ;
#388=ADVANCED_FACE('Corps principal',(#387),#313,.F.) ;
#411=ADVANCED_FACE('Corps principal',(#410),#393,.T.) ;
#419=ADVANCED_FACE('Corps principal',(#418),#353,.T.) ;
#427=ADVANCED_FACE('Corps principal',(#426),#393,.T.) ;
#4=APPLICATION_PROTOCOL_DEFINITION('international standard','config_control_design',1994,#1) ;
#32=APPROVAL_DATE_TIME(#13,#21) ;
#428=MANIFOLD_SOLID_BREP('Corps principal',#51) ;
#11=CALENDAR_DATE(2019,25,7) ;
#30=CC_DESIGN_APPROVAL(#21,(#16,#6,#14)) ;
#18=CC_DESIGN_DATE_AND_TIME_ASSIGNMENT(#13,#17,(#16)) ;
#29=CC_DESIGN_DATE_AND_TIME_ASSIGNMENT(#13,#28,(#14)) ;
#17=DATE_TIME_ROLE('classification_date') ;
#28=DATE_TIME_ROLE('creation_date') ;
#27=CC_DESIGN_PERSON_AND_ORGANIZATION_ASSIGNMENT(#25,#26,(#16)) ;
#33=CC_DESIGN_PERSON_AND_ORGANIZATION_ASSIGNMENT(#25,#34,(#6)) ;
#35=CC_DESIGN_PERSON_AND_ORGANIZATION_ASSIGNMENT(#25,#36,(#6,#14)) ;
#37=CC_DESIGN_PERSON_AND_ORGANIZATION_ASSIGNMENT(#25,#38,(#5)) ;
#26=PERSON_AND_ORGANIZATION_ROLE('classification_officer') ;
#34=PERSON_AND_ORGANIZATION_ROLE('design_supplier') ;
#36=PERSON_AND_ORGANIZATION_ROLE('creator') ;
#38=PERSON_AND_ORGANIZATION_ROLE('design_owner') ;
#39=CC_DESIGN_SECURITY_CLASSIFICATION(#16,(#6)) ;
#60=CIRCLE('generated circle',#59,3.) ;
#69=CIRCLE('generated circle',#68,3.) ;
#91=CIRCLE('generated circle',#90,4.) ;
#115=CIRCLE('generated circle',#114,4.) ;
#132=CIRCLE('generated circle',#131,3.) ;
#141=CIRCLE('generated circle',#140,3.) ;
#170=CIRCLE('generated circle',#169,4.) ;
#187=CIRCLE('generated circle',#186,4.) ;
#218=CIRCLE('generated circle',#217,4.) ;
#225=CIRCLE('generated circle',#224,4.) ;
#238=CIRCLE('generated circle',#237,4.) ;
#259=CIRCLE('generated circle',#258,4.) ;
#272=CIRCLE('generated circle',#271,4.) ;
#279=CIRCLE('generated circle',#278,4.) ;
#292=CIRCLE('generated circle',#291,4.) ;
#299=CIRCLE('generated circle',#298,4.) ;
#317=CIRCLE('generated circle',#316,2.85355339059) ;
#326=CIRCLE('generated circle',#325,0.5) ;
#333=CIRCLE('generated circle',#332,2.85355339059) ;
#340=CIRCLE('generated circle',#339,0.5) ;
#375=CIRCLE('generated circle',#374,2.85355339059) ;
#380=CIRCLE('generated circle',#379,2.85355339059) ;
#80=CONICAL_SURFACE('Cone',#79,0.,0.785398163397) ;
#111=CONICAL_SURFACE('Cone',#110,0.,0.785398163397) ;
#152=CONICAL_SURFACE('Cone',#151,0.,0.785398163397) ;
#183=CONICAL_SURFACE('Cone',#182,0.,0.785398163397) ;
#353=CONICAL_SURFACE('Cone',#352,2.85355339059,0.785398163397) ;
#393=CONICAL_SURFACE('Cone',#392,2.85355339059,0.785398163397) ;
#430=SHAPE_REPRESENTATION_RELATIONSHIP(' ',' ',#49,#429) ;
#200=CYLINDRICAL_SURFACE('generated cylinder',#199,4.) ;
#313=TOROIDAL_SURFACE('homeo Torus',#312,3.20710678119,0.5) ;
#3=DESIGN_CONTEXT(' ',#1,'design') ;
#65=EDGE_CURVE('',#62,#64,#60,.T.) ;
#70=EDGE_CURVE('',#64,#62,#69,.T.) ;
#87=EDGE_CURVE('',#62,#86,#84,.T.) ;
#94=EDGE_CURVE('',#86,#93,#91,.T.) ;
#99=EDGE_CURVE('',#64,#93,#98,.T.) ;
#116=EDGE_CURVE('',#93,#86,#115,.T.) ;
#137=EDGE_CURVE('',#134,#136,#132,.T.) ;
#142=EDGE_CURVE('',#136,#134,#141,.T.) ;
#159=EDGE_CURVE('',#158,#136,#156,.F.) ;
#166=EDGE_CURVE('',#165,#134,#163,.F.) ;
#171=EDGE_CURVE('',#158,#165,#170,.T.) ;
#188=EDGE_CURVE('',#165,#158,#187,.T.) ;
#207=EDGE_CURVE('',#206,#93,#204,.T.) ;
#214=EDGE_CURVE('',#213,#86,#211,.T.) ;
#221=EDGE_CURVE('',#213,#220,#218,.T.) ;
#226=EDGE_CURVE('',#220,#206,#225,.T.) ;
#243=EDGE_CURVE('',#240,#242,#238,.T.) ;
#248=EDGE_CURVE('',#158,#240,#247,.T.) ;
#255=EDGE_CURVE('',#165,#254,#252,.T.) ;
#260=EDGE_CURVE('',#242,#254,#259,.T.) ;
#275=EDGE_CURVE('',#206,#274,#272,.T.) ;
#280=EDGE_CURVE('',#274,#213,#279,.T.) ;
#295=EDGE_CURVE('',#294,#240,#292,.T.) ;
#300=EDGE_CURVE('',#254,#294,#299,.T.) ;
#322=EDGE_CURVE('',#319,#321,#317,.T.) ;
#329=EDGE_CURVE('',#319,#328,#326,.T.) ;
#336=EDGE_CURVE('',#328,#335,#333,.T.) ;
#341=EDGE_CURVE('',#321,#335,#340,.T.) ;
#358=EDGE_CURVE('',#220,#319,#357,.F.) ;
#363=EDGE_CURVE('',#274,#321,#362,.F.) ;
#376=EDGE_CURVE('',#321,#319,#375,.T.) ;
#381=EDGE_CURVE('',#335,#328,#380,.T.) ;
#398=EDGE_CURVE('',#328,#242,#397,.T.) ;
#403=EDGE_CURVE('',#335,#294,#402,.T.) ;
#71=EDGE_LOOP('',(#72,#73)) ;
#100=EDGE_LOOP('',(#101,#102,#103,#104)) ;
#117=EDGE_LOOP('',(#118,#119,#120,#121)) ;
#143=EDGE_LOOP('',(#144,#145)) ;
#172=EDGE_LOOP('',(#173,#174,#175,#176)) ;
#189=EDGE_LOOP('',(#190,#191,#192,#193)) ;
#227=EDGE_LOOP('',(#228,#229,#230,#231,#232)) ;
#261=EDGE_LOOP('',(#262,#263,#264,#265,#266)) ;
#281=EDGE_LOOP('',(#282,#283,#284,#285,#286)) ;
#301=EDGE_LOOP('',(#302,#303,#304,#305,#306)) ;
#342=EDGE_LOOP('',(#343,#344,#345,#346)) ;
#364=EDGE_LOOP('',(#365,#366,#367,#368,#369)) ;
#382=EDGE_LOOP('',(#383,#384,#385,#386)) ;
#404=EDGE_LOOP('',(#405,#406,#407,#408,#409)) ;
#412=EDGE_LOOP('',(#413,#414,#415,#416,#417)) ;
#420=EDGE_LOOP('',(#421,#422,#423,#424,#425)) ;
#74=FACE_OUTER_BOUND('',#71,.T.) ;
#105=FACE_OUTER_BOUND('',#100,.T.) ;
#122=FACE_OUTER_BOUND('',#117,.T.) ;
#146=FACE_OUTER_BOUND('',#143,.T.) ;
#177=FACE_OUTER_BOUND('',#172,.T.) ;
#194=FACE_OUTER_BOUND('',#189,.T.) ;
#233=FACE_OUTER_BOUND('',#227,.T.) ;
#267=FACE_OUTER_BOUND('',#261,.T.) ;
#287=FACE_OUTER_BOUND('',#281,.T.) ;
#307=FACE_OUTER_BOUND('',#301,.T.) ;
#347=FACE_OUTER_BOUND('',#342,.T.) ;
#370=FACE_OUTER_BOUND('',#364,.T.) ;
#387=FACE_OUTER_BOUND('',#382,.T.) ;
#410=FACE_OUTER_BOUND('',#404,.T.) ;
#418=FACE_OUTER_BOUND('',#412,.T.) ;
#426=FACE_OUTER_BOUND('',#420,.T.) ;
#45=UNCERTAINTY_MEASURE_WITH_UNIT(LENGTH_MEASURE(0.005),#41,'distance_accuracy_value','CONFUSED CURVE UNCERTAINTY') ;
#84=LINE('Line',#81,#83) ;
#98=LINE('Line',#95,#97) ;
#156=LINE('Line',#153,#155) ;
#163=LINE('Line',#160,#162) ;
#204=LINE('Line',#201,#203) ;
#211=LINE('Line',#208,#210) ;
#247=LINE('Line',#244,#246) ;
#252=LINE('Line',#249,#251) ;
#357=LINE('Line',#354,#356) ;
#362=LINE('Line',#359,#361) ;
#397=LINE('Line',#394,#396) ;
#402=LINE('Line',#399,#401) ;
#2=MECHANICAL_CONTEXT(' ',#1,'mechanical') ;
#24=PERSONAL_ADDRESS(' ',' ',' ',' ',' ',' ',' ',' ',' ',' ',' ',' ',(#22),' ') ;
#56=PLANE('',#55) ;
#128=PLANE('',#127) ;
#43=PLANE_ANGLE_MEASURE_WITH_UNIT(PLANE_ANGLE_MEASURE(0.0174532925199),#42) ;
#7=PRODUCT_CATEGORY('part',$) ;
#9=PRODUCT_CATEGORY_RELATIONSHIP(' ',' ',#7,#8) ;
#6=PRODUCT_DEFINITION_FORMATION_WITH_SPECIFIED_SOURCE('',' ',#5,.NOT_KNOWN.) ;
#8=PRODUCT_RELATED_PRODUCT_CATEGORY('detail',$,(#5)) ;
#50=SHAPE_DEFINITION_REPRESENTATION(#40,#49) ;
#62=VERTEX_POINT('',#61) ;
#64=VERTEX_POINT('',#63) ;
#86=VERTEX_POINT('',#85) ;
#93=VERTEX_POINT('',#92) ;
#134=VERTEX_POINT('',#133) ;
#136=VERTEX_POINT('',#135) ;
#158=VERTEX_POINT('',#157) ;
#165=VERTEX_POINT('',#164) ;
#206=VERTEX_POINT('',#205) ;
#213=VERTEX_POINT('',#212) ;
#220=VERTEX_POINT('',#219) ;
#240=VERTEX_POINT('',#239) ;
#242=VERTEX_POINT('',#241) ;
#254=VERTEX_POINT('',#253) ;
#274=VERTEX_POINT('',#273) ;
#294=VERTEX_POINT('',#293) ;
#319=VERTEX_POINT('',#318) ;
#321=VERTEX_POINT('',#320) ;
#328=VERTEX_POINT('',#327) ;
#335=VERTEX_POINT('',#334) ;
#41=(LENGTH_UNIT()NAMED_UNIT(*)SI_UNIT(.MILLI.,.METRE.)) ;
#42=(NAMED_UNIT(*)PLANE_ANGLE_UNIT()SI_UNIT($,.RADIAN.)) ;
#44=(NAMED_UNIT(*)SI_UNIT($,.STERADIAN.)SOLID_ANGLE_UNIT()) ;
#46=(GEOMETRIC_REPRESENTATION_CONTEXT(3)GLOBAL_UNCERTAINTY_ASSIGNED_CONTEXT((#45))GLOBAL_UNIT_ASSIGNED_CONTEXT((#41,#42,#44))REPRESENTATION_CONTEXT(' ',' ')) ;
ENDSEC;
END-ISO-10303-21;
