ISO-10303-21;
HEADER;
FILE_DESCRIPTION(('CATIA V5 STEP Exchange'),'2;1');

FILE_NAME('C:\\Users\\guibo\\Desktop\\Crochet.stp','2019-06-23T01:13:44+00:00',('none'),('none'),'CATIA Version 5 Release 21 GA (IN-10)','CATIA V5 STEP AP203','none');

FILE_SCHEMA(('CONFIG_CONTROL_DESIGN'));

ENDSEC;
/* file written by CATIA V5R21 */
DATA;
#5=PRODUCT('Crochet','','',(#2)) ;
#1=APPLICATION_CONTEXT('configuration controlled 3D design of mechanical parts and assemblies') ;
#14=PRODUCT_DEFINITION('',' ',#6,#3) ;
#16=SECURITY_CLASSIFICATION(' ',' ',#15) ;
#15=SECURITY_CLASSIFICATION_LEVEL('unclassified') ;
#47=CARTESIAN_POINT(' ',(0.,0.,0.)) ;
#52=CARTESIAN_POINT('Axis2P3D Location',(4.47762948105E-018,0.,-0.0395287729769)) ;
#57=CARTESIAN_POINT('Line Origine',(-4.87785271375E-016,0.,8.)) ;
#61=CARTESIAN_POINT('Vertex',(-4.87785271375E-016,-3.,8.)) ;
#63=CARTESIAN_POINT('Vertex',(-4.87785271375E-016,3.,8.)) ;
#66=CARTESIAN_POINT('Axis2P3D Location',(4.47762948105E-018,-3.,-0.0395287729769)) ;
#70=CARTESIAN_POINT('Vertex',(1.12468694989,-3.,-8.)) ;
#73=CARTESIAN_POINT('Line Origine',(1.12468694989,0.,-8.)) ;
#77=CARTESIAN_POINT('Vertex',(1.12468694989,3.,-8.)) ;
#80=CARTESIAN_POINT('Axis2P3D Location',(4.47762948105E-018,3.,-0.0395287729769)) ;
#92=CARTESIAN_POINT('Axis2P3D Location',(-5.87004484131,0.,41.5083197773)) ;
#97=CARTESIAN_POINT('Axis2P3D Location',(-5.87004484131,-3.,41.5083197773)) ;
#101=CARTESIAN_POINT('Vertex',(-32.1949950176,-3.,-1.00046752858)) ;
#104=CARTESIAN_POINT('Line Origine',(-32.1949950176,0.,-1.00046752858)) ;
#108=CARTESIAN_POINT('Vertex',(-32.1949950176,3.,-1.00046752858)) ;
#111=CARTESIAN_POINT('Axis2P3D Location',(-5.87004484131,3.,41.5083197773)) ;
#123=CARTESIAN_POINT('Axis2P3D Location',(-29.5625,0.,3.25041120201)) ;
#128=CARTESIAN_POINT('Axis2P3D Location',(-29.5625,-3.,3.25041120201)) ;
#132=CARTESIAN_POINT('Vertex',(-28.,-3.,8.)) ;
#135=CARTESIAN_POINT('Line Origine',(-28.,0.,8.)) ;
#139=CARTESIAN_POINT('Vertex',(-28.,3.,8.)) ;
#142=CARTESIAN_POINT('Axis2P3D Location',(-29.5625,3.,3.25041120201)) ;
#154=CARTESIAN_POINT('Axis2P3D Location',(-15.5,0.,45.9967103839)) ;
#159=CARTESIAN_POINT('Line Origine',(-3.43313248275,0.,7.86023560818)) ;
#163=CARTESIAN_POINT('Vertex',(-3.43313248275,-3.,7.86023560818)) ;
#165=CARTESIAN_POINT('Vertex',(-3.43313248275,3.,7.86023560818)) ;
#168=CARTESIAN_POINT('Axis2P3D Location',(-15.5,3.,45.9967103839)) ;
#173=CARTESIAN_POINT('Axis2P3D Location',(-15.5,-3.,45.9967103839)) ;
#185=CARTESIAN_POINT('Axis2P3D Location',(0.,0.,8.)) ;
#190=CARTESIAN_POINT('Line Origine',(-2.52811741895,0.,8.)) ;
#194=CARTESIAN_POINT('Vertex',(-2.52811741895,-3.,8.)) ;
#196=CARTESIAN_POINT('Vertex',(-2.52811741895,3.,8.)) ;
#199=CARTESIAN_POINT('Line Origine',(-1.26405870948,-3.,8.)) ;
#204=CARTESIAN_POINT('Line Origine',(-1.26405870948,3.,8.)) ;
#216=CARTESIAN_POINT('Axis2P3D Location',(0.,3.,0.)) ;
#221=CARTESIAN_POINT('Axis2P3D Location',(-2.52811741895,3.,5.)) ;
#234=CARTESIAN_POINT('Axis2P3D Location',(0.,3.,0.)) ;
#238=CARTESIAN_POINT('Vertex',(1.5,3.,1.83690953073E-016)) ;
#240=CARTESIAN_POINT('Vertex',(-1.5,3.,0.)) ;
#243=CARTESIAN_POINT('Axis2P3D Location',(0.,3.,0.)) ;
#253=CARTESIAN_POINT('Axis2P3D Location',(-2.52811741895,0.,5.)) ;
#258=CARTESIAN_POINT('Axis2P3D Location',(-2.52811741895,-3.,5.)) ;
#270=CARTESIAN_POINT('Axis2P3D Location',(0.,0.,0.)) ;
#275=CARTESIAN_POINT('Axis2P3D Location',(0.,-2.,0.)) ;
#279=CARTESIAN_POINT('Vertex',(1.5,-2.,1.83690953073E-016)) ;
#281=CARTESIAN_POINT('Vertex',(-1.5,-2.,-3.67381906147E-016)) ;
#284=CARTESIAN_POINT('Line Origine',(1.5,0.,1.83690953073E-016)) ;
#289=CARTESIAN_POINT('Line Origine',(-1.5,0.,-3.67381906147E-016)) ;
#301=CARTESIAN_POINT('Axis2P3D Location',(0.,-2.,0.)) ;
#313=CARTESIAN_POINT('Axis2P3D Location',(0.,-3.,0.)) ;
#326=CARTESIAN_POINT('Axis2P3D Location',(0.,-3.,-1.26060887218E-016)) ;
#330=CARTESIAN_POINT('Vertex',(2.5,-3.,1.80090701237E-016)) ;
#332=CARTESIAN_POINT('Vertex',(-2.5,-3.,-7.3836406413E-016)) ;
#335=CARTESIAN_POINT('Axis2P3D Location',(0.,-3.,-1.26060887218E-016)) ;
#345=CARTESIAN_POINT('Axis2P3D Location',(-1.16573417586E-015,-0.5,-1.59096369622E-016)) ;
#350=CARTESIAN_POINT('Line Origine',(2.,-2.5,7.3421809233E-016)) ;
#355=CARTESIAN_POINT('Line Origine',(-2.,-2.5,2.9012888248E-016)) ;
#367=CARTESIAN_POINT('Axis2P3D Location',(-2.77555756156E-017,-0.5,3.33066907388E-016)) ;
#53=DIRECTION('Axis2P3D Direction',(0.,1.,0.)) ;
#54=DIRECTION('Axis2P3D XDirection',(-6.12303176911E-017,0.,1.)) ;
#58=DIRECTION('Vector Direction',(0.,1.,0.)) ;
#67=DIRECTION('Axis2P3D Direction',(0.,1.,0.)) ;
#74=DIRECTION('Vector Direction',(0.,1.,0.)) ;
#81=DIRECTION('Axis2P3D Direction',(0.,1.,0.)) ;
#93=DIRECTION('Axis2P3D Direction',(0.,1.,0.)) ;
#94=DIRECTION('Axis2P3D XDirection',(0.139894635824,0.,-0.990166395546)) ;
#98=DIRECTION('Axis2P3D Direction',(0.,1.,0.)) ;
#105=DIRECTION('Vector Direction',(0.,1.,0.)) ;
#112=DIRECTION('Axis2P3D Direction',(0.,1.,0.)) ;
#124=DIRECTION('Axis2P3D Direction',(0.,1.,0.)) ;
#125=DIRECTION('Axis2P3D XDirection',(-0.526499003526,0.,-0.850175746117)) ;
#129=DIRECTION('Axis2P3D Direction',(0.,1.,0.)) ;
#136=DIRECTION('Vector Direction',(0.,1.,0.)) ;
#143=DIRECTION('Axis2P3D Direction',(0.,1.,0.)) ;
#155=DIRECTION('Axis2P3D Direction',(0.,1.,0.)) ;
#156=DIRECTION('Axis2P3D XDirection',(0.3125,0.,-0.949917759598)) ;
#160=DIRECTION('Vector Direction',(0.,1.,0.)) ;
#169=DIRECTION('Axis2P3D Direction',(0.,1.,0.)) ;
#174=DIRECTION('Axis2P3D Direction',(0.,1.,0.)) ;
#186=DIRECTION('Axis2P3D Direction',(0.,0.,-1.)) ;
#187=DIRECTION('Axis2P3D XDirection',(-1.,0.,0.)) ;
#191=DIRECTION('Vector Direction',(0.,-1.,0.)) ;
#200=DIRECTION('Vector Direction',(-1.,0.,0.)) ;
#205=DIRECTION('Vector Direction',(-1.,0.,0.)) ;
#217=DIRECTION('Axis2P3D Direction',(0.,1.,0.)) ;
#218=DIRECTION('Axis2P3D XDirection',(-1.,0.,0.)) ;
#222=DIRECTION('Axis2P3D Direction',(0.,1.,0.)) ;
#235=DIRECTION('Axis2P3D Direction',(0.,1.,0.)) ;
#244=DIRECTION('Axis2P3D Direction',(0.,1.,0.)) ;
#254=DIRECTION('Axis2P3D Direction',(0.,-1.,0.)) ;
#255=DIRECTION('Axis2P3D XDirection',(0.,0.,1.)) ;
#259=DIRECTION('Axis2P3D Direction',(0.,-1.,0.)) ;
#271=DIRECTION('Axis2P3D Direction',(0.,1.,0.)) ;
#272=DIRECTION('Axis2P3D XDirection',(-1.,0.,0.)) ;
#276=DIRECTION('Axis2P3D Direction',(0.,1.,0.)) ;
#285=DIRECTION('Vector Direction',(0.,1.,0.)) ;
#290=DIRECTION('Vector Direction',(0.,1.,0.)) ;
#302=DIRECTION('Axis2P3D Direction',(0.,1.,0.)) ;
#314=DIRECTION('Axis2P3D Direction',(0.,1.,0.)) ;
#315=DIRECTION('Axis2P3D XDirection',(-1.,0.,0.)) ;
#327=DIRECTION('Axis2P3D Direction',(0.,1.,0.)) ;
#336=DIRECTION('Axis2P3D Direction',(0.,1.,0.)) ;
#346=DIRECTION('Axis2P3D Direction',(5.55111512313E-016,-1.,6.17977143931E-017)) ;
#347=DIRECTION('Axis2P3D XDirection',(0.5,2.63417803193E-016,0.866025403784)) ;
#351=DIRECTION('Vector Direction',(0.707106781187,-0.707106781187,1.22202205843E-016)) ;
#356=DIRECTION('Vector Direction',(-0.707106781187,-0.707106781187,1.22202205843E-016)) ;
#368=DIRECTION('Axis2P3D Direction',(5.55111512313E-017,-1.,-2.22044604925E-016)) ;
#369=DIRECTION('Axis2P3D XDirection',(-1.,0.,8.881784197E-017)) ;
#48=AXIS2_PLACEMENT_3D(' ',#47,$,$) ;
#55=AXIS2_PLACEMENT_3D('Cylinder Axis2P3D',#52,#53,#54) ;
#68=AXIS2_PLACEMENT_3D('Circle Axis2P3D',#66,#67,$) ;
#82=AXIS2_PLACEMENT_3D('Circle Axis2P3D',#80,#81,$) ;
#95=AXIS2_PLACEMENT_3D('Cylinder Axis2P3D',#92,#93,#94) ;
#99=AXIS2_PLACEMENT_3D('Circle Axis2P3D',#97,#98,$) ;
#113=AXIS2_PLACEMENT_3D('Circle Axis2P3D',#111,#112,$) ;
#126=AXIS2_PLACEMENT_3D('Cylinder Axis2P3D',#123,#124,#125) ;
#130=AXIS2_PLACEMENT_3D('Circle Axis2P3D',#128,#129,$) ;
#144=AXIS2_PLACEMENT_3D('Circle Axis2P3D',#142,#143,$) ;
#157=AXIS2_PLACEMENT_3D('Cylinder Axis2P3D',#154,#155,#156) ;
#170=AXIS2_PLACEMENT_3D('Circle Axis2P3D',#168,#169,$) ;
#175=AXIS2_PLACEMENT_3D('Circle Axis2P3D',#173,#174,$) ;
#188=AXIS2_PLACEMENT_3D('Plane Axis2P3D',#185,#186,#187) ;
#219=AXIS2_PLACEMENT_3D('Plane Axis2P3D',#216,#217,#218) ;
#223=AXIS2_PLACEMENT_3D('Circle Axis2P3D',#221,#222,$) ;
#236=AXIS2_PLACEMENT_3D('Circle Axis2P3D',#234,#235,$) ;
#245=AXIS2_PLACEMENT_3D('Circle Axis2P3D',#243,#244,$) ;
#256=AXIS2_PLACEMENT_3D('Cylinder Axis2P3D',#253,#254,#255) ;
#260=AXIS2_PLACEMENT_3D('Circle Axis2P3D',#258,#259,$) ;
#273=AXIS2_PLACEMENT_3D('Cylinder Axis2P3D',#270,#271,#272) ;
#277=AXIS2_PLACEMENT_3D('Circle Axis2P3D',#275,#276,$) ;
#303=AXIS2_PLACEMENT_3D('Circle Axis2P3D',#301,#302,$) ;
#316=AXIS2_PLACEMENT_3D('Plane Axis2P3D',#313,#314,#315) ;
#328=AXIS2_PLACEMENT_3D('Circle Axis2P3D',#326,#327,$) ;
#337=AXIS2_PLACEMENT_3D('Circle Axis2P3D',#335,#336,$) ;
#348=AXIS2_PLACEMENT_3D('Cone Axis2P3D',#345,#346,#347) ;
#370=AXIS2_PLACEMENT_3D('Cone Axis2P3D',#367,#368,#369) ;
#40=PRODUCT_DEFINITION_SHAPE(' ',' ',#14) ;
#31=APPROVAL_PERSON_ORGANIZATION(#25,#21,#19) ;
#25=PERSON_AND_ORGANIZATION(#22,#23) ;
#22=PERSON(' ',' ',' ',$,$,$) ;
#23=ORGANIZATION(' ',' ',' ') ;
#21=APPROVAL(#20,' ') ;
#20=APPROVAL_STATUS('not_yet_approved') ;
#19=APPROVAL_ROLE('APPROVER') ;
#13=DATE_AND_TIME(#11,#12) ;
#12=LOCAL_TIME(3,13,44.,#10) ;
#10=COORDINATED_UNIVERSAL_TIME_OFFSET(0,0,.AHEAD.) ;
#86=ORIENTED_EDGE('',*,*,#65,.F.) ;
#87=ORIENTED_EDGE('',*,*,#72,.T.) ;
#88=ORIENTED_EDGE('',*,*,#79,.T.) ;
#89=ORIENTED_EDGE('',*,*,#84,.F.) ;
#117=ORIENTED_EDGE('',*,*,#79,.F.) ;
#118=ORIENTED_EDGE('',*,*,#103,.T.) ;
#119=ORIENTED_EDGE('',*,*,#110,.T.) ;
#120=ORIENTED_EDGE('',*,*,#115,.F.) ;
#148=ORIENTED_EDGE('',*,*,#110,.F.) ;
#149=ORIENTED_EDGE('',*,*,#134,.T.) ;
#150=ORIENTED_EDGE('',*,*,#141,.T.) ;
#151=ORIENTED_EDGE('',*,*,#146,.F.) ;
#179=ORIENTED_EDGE('',*,*,#167,.T.) ;
#180=ORIENTED_EDGE('',*,*,#172,.F.) ;
#181=ORIENTED_EDGE('',*,*,#141,.F.) ;
#182=ORIENTED_EDGE('',*,*,#177,.T.) ;
#210=ORIENTED_EDGE('',*,*,#198,.F.) ;
#211=ORIENTED_EDGE('',*,*,#203,.T.) ;
#212=ORIENTED_EDGE('',*,*,#65,.T.) ;
#213=ORIENTED_EDGE('',*,*,#208,.F.) ;
#227=ORIENTED_EDGE('',*,*,#208,.T.) ;
#228=ORIENTED_EDGE('',*,*,#84,.T.) ;
#229=ORIENTED_EDGE('',*,*,#115,.T.) ;
#230=ORIENTED_EDGE('',*,*,#146,.T.) ;
#231=ORIENTED_EDGE('',*,*,#172,.T.) ;
#232=ORIENTED_EDGE('',*,*,#225,.F.) ;
#249=ORIENTED_EDGE('',*,*,#242,.F.) ;
#250=ORIENTED_EDGE('',*,*,#247,.F.) ;
#264=ORIENTED_EDGE('',*,*,#225,.T.) ;
#265=ORIENTED_EDGE('',*,*,#167,.F.) ;
#266=ORIENTED_EDGE('',*,*,#262,.T.) ;
#267=ORIENTED_EDGE('',*,*,#198,.T.) ;
#295=ORIENTED_EDGE('',*,*,#283,.F.) ;
#296=ORIENTED_EDGE('',*,*,#288,.T.) ;
#297=ORIENTED_EDGE('',*,*,#242,.T.) ;
#298=ORIENTED_EDGE('',*,*,#293,.F.) ;
#307=ORIENTED_EDGE('',*,*,#305,.F.) ;
#308=ORIENTED_EDGE('',*,*,#293,.T.) ;
#309=ORIENTED_EDGE('',*,*,#247,.T.) ;
#310=ORIENTED_EDGE('',*,*,#288,.F.) ;
#319=ORIENTED_EDGE('',*,*,#262,.F.) ;
#320=ORIENTED_EDGE('',*,*,#177,.F.) ;
#321=ORIENTED_EDGE('',*,*,#134,.F.) ;
#322=ORIENTED_EDGE('',*,*,#103,.F.) ;
#323=ORIENTED_EDGE('',*,*,#72,.F.) ;
#324=ORIENTED_EDGE('',*,*,#203,.F.) ;
#341=ORIENTED_EDGE('',*,*,#334,.T.) ;
#342=ORIENTED_EDGE('',*,*,#339,.T.) ;
#361=ORIENTED_EDGE('',*,*,#354,.T.) ;
#362=ORIENTED_EDGE('',*,*,#283,.T.) ;
#363=ORIENTED_EDGE('',*,*,#359,.F.) ;
#364=ORIENTED_EDGE('',*,*,#334,.F.) ;
#373=ORIENTED_EDGE('',*,*,#359,.T.) ;
#374=ORIENTED_EDGE('',*,*,#305,.T.) ;
#375=ORIENTED_EDGE('',*,*,#354,.F.) ;
#376=ORIENTED_EDGE('',*,*,#339,.F.) ;
#251=FACE_BOUND('',#248,.T.) ;
#343=FACE_BOUND('',#340,.T.) ;
#51=CLOSED_SHELL('Closed Shell',(#91,#122,#153,#184,#215,#252,#269,#300,#312,#344,#366,#378)) ;
#59=VECTOR('Line Direction',#58,1.) ;
#75=VECTOR('Line Direction',#74,1.) ;
#106=VECTOR('Line Direction',#105,1.) ;
#137=VECTOR('Line Direction',#136,1.) ;
#161=VECTOR('Line Direction',#160,1.) ;
#192=VECTOR('Line Direction',#191,1.) ;
#201=VECTOR('Line Direction',#200,1.) ;
#206=VECTOR('Line Direction',#205,1.) ;
#286=VECTOR('Line Direction',#285,1.) ;
#291=VECTOR('Line Direction',#290,1.) ;
#352=VECTOR('Line Direction',#351,1.) ;
#357=VECTOR('Line Direction',#356,1.) ;
#380=ADVANCED_BREP_SHAPE_REPRESENTATION('NONE',(#379),#46) ;
#49=SHAPE_REPRESENTATION(' ',(#48),#46) ;
#91=ADVANCED_FACE('Corps principal',(#90),#56,.T.) ;
#122=ADVANCED_FACE('Corps principal',(#121),#96,.T.) ;
#153=ADVANCED_FACE('Corps principal',(#152),#127,.T.) ;
#184=ADVANCED_FACE('Corps principal',(#183),#158,.F.) ;
#215=ADVANCED_FACE('Corps principal',(#214),#189,.F.) ;
#252=ADVANCED_FACE('Corps principal',(#233,#251),#220,.T.) ;
#269=ADVANCED_FACE('Corps principal',(#268),#257,.T.) ;
#300=ADVANCED_FACE('Corps principal',(#299),#274,.F.) ;
#312=ADVANCED_FACE('Corps principal',(#311),#274,.F.) ;
#344=ADVANCED_FACE('Corps principal',(#325,#343),#317,.F.) ;
#366=ADVANCED_FACE('Corps principal',(#365),#349,.F.) ;
#378=ADVANCED_FACE('Corps principal',(#377),#371,.F.) ;
#4=APPLICATION_PROTOCOL_DEFINITION('international standard','config_control_design',1994,#1) ;
#32=APPROVAL_DATE_TIME(#13,#21) ;
#379=MANIFOLD_SOLID_BREP('Corps principal',#51) ;
#11=CALENDAR_DATE(2019,23,6) ;
#30=CC_DESIGN_APPROVAL(#21,(#16,#6,#14)) ;
#18=CC_DESIGN_DATE_AND_TIME_ASSIGNMENT(#13,#17,(#16)) ;
#29=CC_DESIGN_DATE_AND_TIME_ASSIGNMENT(#13,#28,(#14)) ;
#17=DATE_TIME_ROLE('classification_date') ;
#28=DATE_TIME_ROLE('creation_date') ;
#27=CC_DESIGN_PERSON_AND_ORGANIZATION_ASSIGNMENT(#25,#26,(#16)) ;
#33=CC_DESIGN_PERSON_AND_ORGANIZATION_ASSIGNMENT(#25,#34,(#6)) ;
#35=CC_DESIGN_PERSON_AND_ORGANIZATION_ASSIGNMENT(#25,#36,(#6,#14)) ;
#37=CC_DESIGN_PERSON_AND_ORGANIZATION_ASSIGNMENT(#25,#38,(#5)) ;
#26=PERSON_AND_ORGANIZATION_ROLE('classification_officer') ;
#34=PERSON_AND_ORGANIZATION_ROLE('design_supplier') ;
#36=PERSON_AND_ORGANIZATION_ROLE('creator') ;
#38=PERSON_AND_ORGANIZATION_ROLE('design_owner') ;
#39=CC_DESIGN_SECURITY_CLASSIFICATION(#16,(#6)) ;
#69=CIRCLE('generated circle',#68,8.03952877298) ;
#83=CIRCLE('generated circle',#82,8.03952877298) ;
#100=CIRCLE('generated circle',#99,50.) ;
#114=CIRCLE('generated circle',#113,50.) ;
#131=CIRCLE('generated circle',#130,5.) ;
#145=CIRCLE('generated circle',#144,5.) ;
#171=CIRCLE('generated circle',#170,40.) ;
#176=CIRCLE('generated circle',#175,40.) ;
#224=CIRCLE('generated circle',#223,3.) ;
#237=CIRCLE('generated circle',#236,1.5) ;
#246=CIRCLE('generated circle',#245,1.5) ;
#261=CIRCLE('generated circle',#260,3.) ;
#278=CIRCLE('generated circle',#277,1.5) ;
#304=CIRCLE('generated circle',#303,1.5) ;
#329=CIRCLE('generated circle',#328,2.5) ;
#338=CIRCLE('generated circle',#337,2.5) ;
#349=CONICAL_SURFACE('Cone',#348,0.,0.785398163397) ;
#371=CONICAL_SURFACE('Cone',#370,0.,0.785398163397) ;
#381=SHAPE_REPRESENTATION_RELATIONSHIP(' ',' ',#49,#380) ;
#56=CYLINDRICAL_SURFACE('generated cylinder',#55,8.03952877298) ;
#96=CYLINDRICAL_SURFACE('generated cylinder',#95,50.) ;
#127=CYLINDRICAL_SURFACE('generated cylinder',#126,5.) ;
#158=CYLINDRICAL_SURFACE('generated cylinder',#157,40.) ;
#257=CYLINDRICAL_SURFACE('generated cylinder',#256,3.) ;
#274=CYLINDRICAL_SURFACE('generated cylinder',#273,1.5) ;
#3=DESIGN_CONTEXT(' ',#1,'design') ;
#65=EDGE_CURVE('',#62,#64,#60,.T.) ;
#72=EDGE_CURVE('',#62,#71,#69,.T.) ;
#79=EDGE_CURVE('',#71,#78,#76,.T.) ;
#84=EDGE_CURVE('',#64,#78,#83,.T.) ;
#103=EDGE_CURVE('',#71,#102,#100,.T.) ;
#110=EDGE_CURVE('',#102,#109,#107,.T.) ;
#115=EDGE_CURVE('',#78,#109,#114,.T.) ;
#134=EDGE_CURVE('',#102,#133,#131,.T.) ;
#141=EDGE_CURVE('',#133,#140,#138,.T.) ;
#146=EDGE_CURVE('',#109,#140,#145,.T.) ;
#167=EDGE_CURVE('',#164,#166,#162,.T.) ;
#172=EDGE_CURVE('',#140,#166,#171,.F.) ;
#177=EDGE_CURVE('',#133,#164,#176,.F.) ;
#198=EDGE_CURVE('',#195,#197,#193,.F.) ;
#203=EDGE_CURVE('',#195,#62,#202,.F.) ;
#208=EDGE_CURVE('',#197,#64,#207,.F.) ;
#225=EDGE_CURVE('',#197,#166,#224,.F.) ;
#242=EDGE_CURVE('',#239,#241,#237,.T.) ;
#247=EDGE_CURVE('',#241,#239,#246,.T.) ;
#262=EDGE_CURVE('',#164,#195,#261,.F.) ;
#283=EDGE_CURVE('',#280,#282,#278,.T.) ;
#288=EDGE_CURVE('',#280,#239,#287,.T.) ;
#293=EDGE_CURVE('',#282,#241,#292,.T.) ;
#305=EDGE_CURVE('',#282,#280,#304,.T.) ;
#334=EDGE_CURVE('',#331,#333,#329,.T.) ;
#339=EDGE_CURVE('',#333,#331,#338,.T.) ;
#354=EDGE_CURVE('',#331,#280,#353,.F.) ;
#359=EDGE_CURVE('',#333,#282,#358,.F.) ;
#85=EDGE_LOOP('',(#86,#87,#88,#89)) ;
#116=EDGE_LOOP('',(#117,#118,#119,#120)) ;
#147=EDGE_LOOP('',(#148,#149,#150,#151)) ;
#178=EDGE_LOOP('',(#179,#180,#181,#182)) ;
#209=EDGE_LOOP('',(#210,#211,#212,#213)) ;
#226=EDGE_LOOP('',(#227,#228,#229,#230,#231,#232)) ;
#248=EDGE_LOOP('',(#249,#250)) ;
#263=EDGE_LOOP('',(#264,#265,#266,#267)) ;
#294=EDGE_LOOP('',(#295,#296,#297,#298)) ;
#306=EDGE_LOOP('',(#307,#308,#309,#310)) ;
#318=EDGE_LOOP('',(#319,#320,#321,#322,#323,#324)) ;
#340=EDGE_LOOP('',(#341,#342)) ;
#360=EDGE_LOOP('',(#361,#362,#363,#364)) ;
#372=EDGE_LOOP('',(#373,#374,#375,#376)) ;
#90=FACE_OUTER_BOUND('',#85,.T.) ;
#121=FACE_OUTER_BOUND('',#116,.T.) ;
#152=FACE_OUTER_BOUND('',#147,.T.) ;
#183=FACE_OUTER_BOUND('',#178,.T.) ;
#214=FACE_OUTER_BOUND('',#209,.T.) ;
#233=FACE_OUTER_BOUND('',#226,.T.) ;
#268=FACE_OUTER_BOUND('',#263,.T.) ;
#299=FACE_OUTER_BOUND('',#294,.T.) ;
#311=FACE_OUTER_BOUND('',#306,.T.) ;
#325=FACE_OUTER_BOUND('',#318,.T.) ;
#365=FACE_OUTER_BOUND('',#360,.T.) ;
#377=FACE_OUTER_BOUND('',#372,.T.) ;
#45=UNCERTAINTY_MEASURE_WITH_UNIT(LENGTH_MEASURE(0.005),#41,'distance_accuracy_value','CONFUSED CURVE UNCERTAINTY') ;
#60=LINE('Line',#57,#59) ;
#76=LINE('Line',#73,#75) ;
#107=LINE('Line',#104,#106) ;
#138=LINE('Line',#135,#137) ;
#162=LINE('Line',#159,#161) ;
#193=LINE('Line',#190,#192) ;
#202=LINE('Line',#199,#201) ;
#207=LINE('Line',#204,#206) ;
#287=LINE('Line',#284,#286) ;
#292=LINE('Line',#289,#291) ;
#353=LINE('Line',#350,#352) ;
#358=LINE('Line',#355,#357) ;
#2=MECHANICAL_CONTEXT(' ',#1,'mechanical') ;
#24=PERSONAL_ADDRESS(' ',' ',' ',' ',' ',' ',' ',' ',' ',' ',' ',' ',(#22),' ') ;
#189=PLANE('',#188) ;
#220=PLANE('',#219) ;
#317=PLANE('',#316) ;
#43=PLANE_ANGLE_MEASURE_WITH_UNIT(PLANE_ANGLE_MEASURE(0.0174532925199),#42) ;
#7=PRODUCT_CATEGORY('part',$) ;
#9=PRODUCT_CATEGORY_RELATIONSHIP(' ',' ',#7,#8) ;
#6=PRODUCT_DEFINITION_FORMATION_WITH_SPECIFIED_SOURCE('',' ',#5,.NOT_KNOWN.) ;
#8=PRODUCT_RELATED_PRODUCT_CATEGORY('detail',$,(#5)) ;
#50=SHAPE_DEFINITION_REPRESENTATION(#40,#49) ;
#62=VERTEX_POINT('',#61) ;
#64=VERTEX_POINT('',#63) ;
#71=VERTEX_POINT('',#70) ;
#78=VERTEX_POINT('',#77) ;
#102=VERTEX_POINT('',#101) ;
#109=VERTEX_POINT('',#108) ;
#133=VERTEX_POINT('',#132) ;
#140=VERTEX_POINT('',#139) ;
#164=VERTEX_POINT('',#163) ;
#166=VERTEX_POINT('',#165) ;
#195=VERTEX_POINT('',#194) ;
#197=VERTEX_POINT('',#196) ;
#239=VERTEX_POINT('',#238) ;
#241=VERTEX_POINT('',#240) ;
#280=VERTEX_POINT('',#279) ;
#282=VERTEX_POINT('',#281) ;
#331=VERTEX_POINT('',#330) ;
#333=VERTEX_POINT('',#332) ;
#41=(LENGTH_UNIT()NAMED_UNIT(*)SI_UNIT(.MILLI.,.METRE.)) ;
#42=(NAMED_UNIT(*)PLANE_ANGLE_UNIT()SI_UNIT($,.RADIAN.)) ;
#44=(NAMED_UNIT(*)SI_UNIT($,.STERADIAN.)SOLID_ANGLE_UNIT()) ;
#46=(GEOMETRIC_REPRESENTATION_CONTEXT(3)GLOBAL_UNCERTAINTY_ASSIGNED_CONTEXT((#45))GLOBAL_UNIT_ASSIGNED_CONTEXT((#41,#42,#44))REPRESENTATION_CONTEXT(' ',' ')) ;
ENDSEC;
END-ISO-10303-21;
