ISO-10303-21;
HEADER;
FILE_DESCRIPTION(('FreeCAD Model'),'2;1');
FILE_NAME(
'C:/Users/Utilisateur/Documents/PAPA(Juillet 2018 )/APLINOV d''enhaut 
(8Février2019)/NUEVO LIFTSOL a la date25MAI19/SOUS TRAITANCES 
USINAGE/USINEUR.FR/26 MAI 19/FICHIERS DE BASE/AXCOST.step',
  '2019-05-26T08:44:23',('Author'),(''),
  'Open CASCADE STEP processor 7.2','FreeCAD','Unknown');
FILE_SCHEMA(('AUTOMOTIVE_DESIGN { 1 0 10303 214 1 1 1 1 }'));
ENDSEC;
DATA;
#1 = APPLICATION_PROTOCOL_DEFINITION('international standard',
  'automotive_design',2000,#2);
#2 = APPLICATION_CONTEXT(
  'core data for automotive mechanical design processes');
#3 = SHAPE_DEFINITION_REPRESENTATION(#4,#10);
#4 = PRODUCT_DEFINITION_SHAPE('','',#5);
#5 = PRODUCT_DEFINITION('design','',#6,#9);
#6 = PRODUCT_DEFINITION_FORMATION('','',#7);
#7 = PRODUCT('AXE-COLONNETTE_DE_STRUCTURE__Gauche',
  'AXE-COLONNETTE_DE_STRUCTURE__Gauche','',(#8));
#8 = PRODUCT_CONTEXT('',#2,'mechanical');
#9 = PRODUCT_DEFINITION_CONTEXT('part definition',#2,'design');
#10 = ADVANCED_BREP_SHAPE_REPRESENTATION('',(#11,#15),#293);
#11 = AXIS2_PLACEMENT_3D('',#12,#13,#14);
#12 = CARTESIAN_POINT('',(0.E+000,0.E+000,0.E+000));
#13 = DIRECTION('',(0.E+000,0.E+000,1.));
#14 = DIRECTION('',(1.,0.E+000,-0.E+000));
#15 = MANIFOLD_SOLID_BREP('',#16);
#16 = CLOSED_SHELL('',(#17,#53,#93,#149,#187,#239,#268));
#17 = ADVANCED_FACE('',(#18),#31,.T.);
#18 = FACE_BOUND('',#19,.T.);
#19 = EDGE_LOOP('',(#20));
#20 = ORIENTED_EDGE('',*,*,#21,.T.);
#21 = EDGE_CURVE('',#22,#22,#24,.T.);
#22 = VERTEX_POINT('',#23);
#23 = CARTESIAN_POINT('',(-25.,55.000000000007,65.5));
#24 = SURFACE_CURVE('',#25,(#30,#42),.PCURVE_S1.);
#25 = CIRCLE('',#26,2.);
#26 = AXIS2_PLACEMENT_3D('',#27,#28,#29);
#27 = CARTESIAN_POINT('',(-25.,57.000000000007,65.5));
#28 = DIRECTION('',(-1.128E-013,1.1291E-013,1.));
#29 = DIRECTION('',(-1.1291E-013,-1.,1.1291E-013));
#30 = PCURVE('',#31,#36);
#31 = PLANE('',#32);
#32 = AXIS2_PLACEMENT_3D('',#33,#34,#35);
#33 = CARTESIAN_POINT('',(-25.,57.000000000007,65.5));
#34 = DIRECTION('',(-1.128E-013,1.1291E-013,1.));
#35 = DIRECTION('',(-1.1291E-013,-1.,1.1291E-013));
#36 = DEFINITIONAL_REPRESENTATION('',(#37),#41);
#37 = CIRCLE('',#38,2.);
#38 = AXIS2_PLACEMENT_2D('',#39,#40);
#39 = CARTESIAN_POINT('',(0.E+000,0.E+000));
#40 = DIRECTION('',(1.,0.E+000));
#41 = ( GEOMETRIC_REPRESENTATION_CONTEXT(2) 
PARAMETRIC_REPRESENTATION_CONTEXT() REPRESENTATION_CONTEXT('2D SPACE',''
  ) );
#42 = PCURVE('',#43,#48);
#43 = CYLINDRICAL_SURFACE('',#44,2.);
#44 = AXIS2_PLACEMENT_3D('',#45,#46,#47);
#45 = CARTESIAN_POINT('',(-25.,57.000000000002,17.5));
#46 = DIRECTION('',(-1.128E-013,1.1291E-013,1.));
#47 = DIRECTION('',(-1.1291E-013,-1.,1.1291E-013));
#48 = DEFINITIONAL_REPRESENTATION('',(#49),#52);
#49 = B_SPLINE_CURVE_WITH_KNOTS('',1,(#50,#51),.UNSPECIFIED.,.F.,.F.,(2,
    2),(0.E+000,6.28318530718),.PIECEWISE_BEZIER_KNOTS.);
#50 = CARTESIAN_POINT('',(0.E+000,48.));
#51 = CARTESIAN_POINT('',(6.28318530718,48.));
#52 = ( GEOMETRIC_REPRESENTATION_CONTEXT(2) 
PARAMETRIC_REPRESENTATION_CONTEXT() REPRESENTATION_CONTEXT('2D SPACE',''
  ) );
#53 = ADVANCED_FACE('',(#54),#67,.T.);
#54 = FACE_BOUND('',#55,.T.);
#55 = EDGE_LOOP('',(#56));
#56 = ORIENTED_EDGE('',*,*,#57,.F.);
#57 = EDGE_CURVE('',#58,#58,#60,.T.);
#58 = VERTEX_POINT('',#59);
#59 = CARTESIAN_POINT('',(-24.99999999999,54.999999999993,-65.5));
#60 = SURFACE_CURVE('',#61,(#66,#82),.PCURVE_S1.);
#61 = CIRCLE('',#62,2.);
#62 = AXIS2_PLACEMENT_3D('',#63,#64,#65);
#63 = CARTESIAN_POINT('',(-24.99999999999,56.999999999993,-65.5));
#64 = DIRECTION('',(-1.128E-013,1.1291E-013,1.));
#65 = DIRECTION('',(-1.1291E-013,-1.,1.1291E-013));
#66 = PCURVE('',#67,#72);
#67 = PLANE('',#68);
#68 = AXIS2_PLACEMENT_3D('',#69,#70,#71);
#69 = CARTESIAN_POINT('',(-24.99999999999,56.999999999993,-65.5));
#70 = DIRECTION('',(1.128E-013,-1.1291E-013,-1.));
#71 = DIRECTION('',(1.1291E-013,1.,-1.1291E-013));
#72 = DEFINITIONAL_REPRESENTATION('',(#73),#81);
#73 = ( BOUNDED_CURVE() B_SPLINE_CURVE(2,(#74,#75,#76,#77,#78,#79,#80),
.UNSPECIFIED.,.T.,.F.) B_SPLINE_CURVE_WITH_KNOTS((1,2,2,2,2,1),(
    -2.094395102393,0.E+000,2.094395102393,4.188790204786,6.28318530718,
8.377580409573),.UNSPECIFIED.) CURVE() GEOMETRIC_REPRESENTATION_ITEM() 
RATIONAL_B_SPLINE_CURVE((1.,0.5,1.,0.5,1.,0.5,1.)) REPRESENTATION_ITEM(
  '') );
#74 = CARTESIAN_POINT('',(-2.,0.E+000));
#75 = CARTESIAN_POINT('',(-2.,3.464101615138));
#76 = CARTESIAN_POINT('',(1.,1.732050807569));
#77 = CARTESIAN_POINT('',(4.,4.898587196589E-016));
#78 = CARTESIAN_POINT('',(1.,-1.732050807569));
#79 = CARTESIAN_POINT('',(-2.,-3.464101615138));
#80 = CARTESIAN_POINT('',(-2.,0.E+000));
#81 = ( GEOMETRIC_REPRESENTATION_CONTEXT(2) 
PARAMETRIC_REPRESENTATION_CONTEXT() REPRESENTATION_CONTEXT('2D SPACE',''
  ) );
#82 = PCURVE('',#83,#88);
#83 = CYLINDRICAL_SURFACE('',#84,2.);
#84 = AXIS2_PLACEMENT_3D('',#85,#86,#87);
#85 = CARTESIAN_POINT('',(-24.99999999999,56.999999999993,-65.5));
#86 = DIRECTION('',(-1.128E-013,1.1291E-013,1.));
#87 = DIRECTION('',(-1.1291E-013,-1.,1.1291E-013));
#88 = DEFINITIONAL_REPRESENTATION('',(#89),#92);
#89 = B_SPLINE_CURVE_WITH_KNOTS('',1,(#90,#91),.UNSPECIFIED.,.F.,.F.,(2,
    2),(0.E+000,6.28318530718),.PIECEWISE_BEZIER_KNOTS.);
#90 = CARTESIAN_POINT('',(0.E+000,0.E+000));
#91 = CARTESIAN_POINT('',(6.28318530718,0.E+000));
#92 = ( GEOMETRIC_REPRESENTATION_CONTEXT(2) 
PARAMETRIC_REPRESENTATION_CONTEXT() REPRESENTATION_CONTEXT('2D SPACE',''
  ) );
#93 = ADVANCED_FACE('',(#94),#83,.T.);
#94 = FACE_BOUND('',#95,.T.);
#95 = EDGE_LOOP('',(#96,#97,#118,#148));
#96 = ORIENTED_EDGE('',*,*,#57,.T.);
#97 = ORIENTED_EDGE('',*,*,#98,.T.);
#98 = EDGE_CURVE('',#58,#99,#101,.T.);
#99 = VERTEX_POINT('',#100);
#100 = CARTESIAN_POINT('',(-24.99999999999,54.999999999998,-17.5));
#101 = SEAM_CURVE('',#102,(#106,#112),.PCURVE_S1.);
#102 = LINE('',#103,#104);
#103 = CARTESIAN_POINT('',(-24.99999999999,54.999999999993,-65.5));
#104 = VECTOR('',#105,1.);
#105 = DIRECTION('',(-1.1291E-013,1.1302E-013,1.));
#106 = PCURVE('',#83,#107);
#107 = DEFINITIONAL_REPRESENTATION('',(#108),#111);
#108 = B_SPLINE_CURVE_WITH_KNOTS('',1,(#109,#110),.UNSPECIFIED.,.F.,.F.,
  (2,2),(0.E+000,48.),.PIECEWISE_BEZIER_KNOTS.);
#109 = CARTESIAN_POINT('',(0.E+000,0.E+000));
#110 = CARTESIAN_POINT('',(0.E+000,48.));
#111 = ( GEOMETRIC_REPRESENTATION_CONTEXT(2) 
PARAMETRIC_REPRESENTATION_CONTEXT() REPRESENTATION_CONTEXT('2D SPACE',''
  ) );
#112 = PCURVE('',#83,#113);
#113 = DEFINITIONAL_REPRESENTATION('',(#114),#117);
#114 = B_SPLINE_CURVE_WITH_KNOTS('',1,(#115,#116),.UNSPECIFIED.,.F.,.F.,
  (2,2),(0.E+000,48.),.PIECEWISE_BEZIER_KNOTS.);
#115 = CARTESIAN_POINT('',(6.28318530718,0.E+000));
#116 = CARTESIAN_POINT('',(6.28318530718,48.));
#117 = ( GEOMETRIC_REPRESENTATION_CONTEXT(2) 
PARAMETRIC_REPRESENTATION_CONTEXT() REPRESENTATION_CONTEXT('2D SPACE',''
  ) );
#118 = ORIENTED_EDGE('',*,*,#119,.F.);
#119 = EDGE_CURVE('',#99,#99,#120,.T.);
#120 = SURFACE_CURVE('',#121,(#126,#132),.PCURVE_S1.);
#121 = CIRCLE('',#122,2.);
#122 = AXIS2_PLACEMENT_3D('',#123,#124,#125);
#123 = CARTESIAN_POINT('',(-24.99999999999,56.999999999998,-17.5));
#124 = DIRECTION('',(-1.128E-013,1.1291E-013,1.));
#125 = DIRECTION('',(-1.1291E-013,-1.,1.1291E-013));
#126 = PCURVE('',#83,#127);
#127 = DEFINITIONAL_REPRESENTATION('',(#128),#131);
#128 = B_SPLINE_CURVE_WITH_KNOTS('',1,(#129,#130),.UNSPECIFIED.,.F.,.F.,
  (2,2),(0.E+000,6.28318530718),.PIECEWISE_BEZIER_KNOTS.);
#129 = CARTESIAN_POINT('',(0.E+000,48.));
#130 = CARTESIAN_POINT('',(6.28318530718,48.));
#131 = ( GEOMETRIC_REPRESENTATION_CONTEXT(2) 
PARAMETRIC_REPRESENTATION_CONTEXT() REPRESENTATION_CONTEXT('2D SPACE',''
  ) );
#132 = PCURVE('',#133,#138);
#133 = PLANE('',#134);
#134 = AXIS2_PLACEMENT_3D('',#135,#136,#137);
#135 = CARTESIAN_POINT('',(-24.99999999999,56.999999999998,-17.5));
#136 = DIRECTION('',(1.128E-013,-1.1291E-013,-1.));
#137 = DIRECTION('',(1.1291E-013,1.,-1.1291E-013));
#138 = DEFINITIONAL_REPRESENTATION('',(#139),#147);
#139 = ( BOUNDED_CURVE() B_SPLINE_CURVE(2,(#140,#141,#142,#143,#144,#145
,#146),.UNSPECIFIED.,.T.,.F.) B_SPLINE_CURVE_WITH_KNOTS((1,2,2,2,2,1),(
    -2.094395102393,0.E+000,2.094395102393,4.188790204786,6.28318530718,
8.377580409573),.UNSPECIFIED.) CURVE() GEOMETRIC_REPRESENTATION_ITEM() 
RATIONAL_B_SPLINE_CURVE((1.,0.5,1.,0.5,1.,0.5,1.)) REPRESENTATION_ITEM(
  '') );
#140 = CARTESIAN_POINT('',(-2.,0.E+000));
#141 = CARTESIAN_POINT('',(-2.,3.464101615138));
#142 = CARTESIAN_POINT('',(1.,1.732050807569));
#143 = CARTESIAN_POINT('',(4.,4.898587196589E-016));
#144 = CARTESIAN_POINT('',(1.,-1.732050807569));
#145 = CARTESIAN_POINT('',(-2.,-3.464101615138));
#146 = CARTESIAN_POINT('',(-2.,0.E+000));
#147 = ( GEOMETRIC_REPRESENTATION_CONTEXT(2) 
PARAMETRIC_REPRESENTATION_CONTEXT() REPRESENTATION_CONTEXT('2D SPACE',''
  ) );
#148 = ORIENTED_EDGE('',*,*,#98,.F.);
#149 = ADVANCED_FACE('',(#150,#153),#133,.T.);
#150 = FACE_BOUND('',#151,.T.);
#151 = EDGE_LOOP('',(#152));
#152 = ORIENTED_EDGE('',*,*,#119,.T.);
#153 = FACE_BOUND('',#154,.T.);
#154 = EDGE_LOOP('',(#155));
#155 = ORIENTED_EDGE('',*,*,#156,.F.);
#156 = EDGE_CURVE('',#157,#157,#159,.T.);
#157 = VERTEX_POINT('',#158);
#158 = CARTESIAN_POINT('',(-24.99999999999,53.999999999998,-17.5));
#159 = SURFACE_CURVE('',#160,(#165,#176),.PCURVE_S1.);
#160 = CIRCLE('',#161,3.);
#161 = AXIS2_PLACEMENT_3D('',#162,#163,#164);
#162 = CARTESIAN_POINT('',(-24.99999999999,56.999999999998,-17.5));
#163 = DIRECTION('',(-1.128E-013,1.1291E-013,1.));
#164 = DIRECTION('',(-1.1291E-013,-1.,1.1291E-013));
#165 = PCURVE('',#133,#166);
#166 = DEFINITIONAL_REPRESENTATION('',(#167),#175);
#167 = ( BOUNDED_CURVE() B_SPLINE_CURVE(2,(#168,#169,#170,#171,#172,#173
,#174),.UNSPECIFIED.,.T.,.F.) B_SPLINE_CURVE_WITH_KNOTS((1,2,2,2,2,1),(
    -2.094395102393,0.E+000,2.094395102393,4.188790204786,6.28318530718,
8.377580409573),.UNSPECIFIED.) CURVE() GEOMETRIC_REPRESENTATION_ITEM() 
RATIONAL_B_SPLINE_CURVE((1.,0.5,1.,0.5,1.,0.5,1.)) REPRESENTATION_ITEM(
  '') );
#168 = CARTESIAN_POINT('',(-3.,0.E+000));
#169 = CARTESIAN_POINT('',(-3.,5.196152422707));
#170 = CARTESIAN_POINT('',(1.5,2.598076211353));
#171 = CARTESIAN_POINT('',(6.,7.347880794884E-016));
#172 = CARTESIAN_POINT('',(1.5,-2.598076211353));
#173 = CARTESIAN_POINT('',(-3.,-5.196152422707));
#174 = CARTESIAN_POINT('',(-3.,0.E+000));
#175 = ( GEOMETRIC_REPRESENTATION_CONTEXT(2) 
PARAMETRIC_REPRESENTATION_CONTEXT() REPRESENTATION_CONTEXT('2D SPACE',''
  ) );
#176 = PCURVE('',#177,#182);
#177 = CYLINDRICAL_SURFACE('',#178,3.);
#178 = AXIS2_PLACEMENT_3D('',#179,#180,#181);
#179 = CARTESIAN_POINT('',(-24.99999999999,56.999999999998,-17.5));
#180 = DIRECTION('',(-1.128E-013,1.1291E-013,1.));
#181 = DIRECTION('',(-1.1291E-013,-1.,1.1291E-013));
#182 = DEFINITIONAL_REPRESENTATION('',(#183),#186);
#183 = B_SPLINE_CURVE_WITH_KNOTS('',1,(#184,#185),.UNSPECIFIED.,.F.,.F.,
  (2,2),(0.E+000,6.28318530718),.PIECEWISE_BEZIER_KNOTS.);
#184 = CARTESIAN_POINT('',(0.E+000,0.E+000));
#185 = CARTESIAN_POINT('',(6.28318530718,0.E+000));
#186 = ( GEOMETRIC_REPRESENTATION_CONTEXT(2) 
PARAMETRIC_REPRESENTATION_CONTEXT() REPRESENTATION_CONTEXT('2D SPACE',''
  ) );
#187 = ADVANCED_FACE('',(#188),#177,.T.);
#188 = FACE_BOUND('',#189,.T.);
#189 = EDGE_LOOP('',(#190,#191,#212,#238));
#190 = ORIENTED_EDGE('',*,*,#156,.T.);
#191 = ORIENTED_EDGE('',*,*,#192,.T.);
#192 = EDGE_CURVE('',#157,#193,#195,.T.);
#193 = VERTEX_POINT('',#194);
#194 = CARTESIAN_POINT('',(-25.,54.000000000002,17.5));
#195 = SEAM_CURVE('',#196,(#200,#206),.PCURVE_S1.);
#196 = LINE('',#197,#198);
#197 = CARTESIAN_POINT('',(-24.99999999999,53.999999999998,-17.5));
#198 = VECTOR('',#199,1.);
#199 = DIRECTION('',(-1.1291E-013,1.1302E-013,1.));
#200 = PCURVE('',#177,#201);
#201 = DEFINITIONAL_REPRESENTATION('',(#202),#205);
#202 = B_SPLINE_CURVE_WITH_KNOTS('',1,(#203,#204),.UNSPECIFIED.,.F.,.F.,
  (2,2),(0.E+000,35.),.PIECEWISE_BEZIER_KNOTS.);
#203 = CARTESIAN_POINT('',(0.E+000,0.E+000));
#204 = CARTESIAN_POINT('',(0.E+000,35.));
#205 = ( GEOMETRIC_REPRESENTATION_CONTEXT(2) 
PARAMETRIC_REPRESENTATION_CONTEXT() REPRESENTATION_CONTEXT('2D SPACE',''
  ) );
#206 = PCURVE('',#177,#207);
#207 = DEFINITIONAL_REPRESENTATION('',(#208),#211);
#208 = B_SPLINE_CURVE_WITH_KNOTS('',1,(#209,#210),.UNSPECIFIED.,.F.,.F.,
  (2,2),(0.E+000,35.),.PIECEWISE_BEZIER_KNOTS.);
#209 = CARTESIAN_POINT('',(6.28318530718,0.E+000));
#210 = CARTESIAN_POINT('',(6.28318530718,35.));
#211 = ( GEOMETRIC_REPRESENTATION_CONTEXT(2) 
PARAMETRIC_REPRESENTATION_CONTEXT() REPRESENTATION_CONTEXT('2D SPACE',''
  ) );
#212 = ORIENTED_EDGE('',*,*,#213,.F.);
#213 = EDGE_CURVE('',#193,#193,#214,.T.);
#214 = SURFACE_CURVE('',#215,(#220,#226),.PCURVE_S1.);
#215 = CIRCLE('',#216,3.);
#216 = AXIS2_PLACEMENT_3D('',#217,#218,#219);
#217 = CARTESIAN_POINT('',(-25.,57.000000000002,17.5));
#218 = DIRECTION('',(-1.128E-013,1.1291E-013,1.));
#219 = DIRECTION('',(-1.1291E-013,-1.,1.1291E-013));
#220 = PCURVE('',#177,#221);
#221 = DEFINITIONAL_REPRESENTATION('',(#222),#225);
#222 = B_SPLINE_CURVE_WITH_KNOTS('',1,(#223,#224),.UNSPECIFIED.,.F.,.F.,
  (2,2),(0.E+000,6.28318530718),.PIECEWISE_BEZIER_KNOTS.);
#223 = CARTESIAN_POINT('',(0.E+000,35.));
#224 = CARTESIAN_POINT('',(6.28318530718,35.));
#225 = ( GEOMETRIC_REPRESENTATION_CONTEXT(2) 
PARAMETRIC_REPRESENTATION_CONTEXT() REPRESENTATION_CONTEXT('2D SPACE',''
  ) );
#226 = PCURVE('',#227,#232);
#227 = PLANE('',#228);
#228 = AXIS2_PLACEMENT_3D('',#229,#230,#231);
#229 = CARTESIAN_POINT('',(-25.,57.000000000002,17.5));
#230 = DIRECTION('',(-1.128E-013,1.1291E-013,1.));
#231 = DIRECTION('',(-1.1291E-013,-1.,1.1291E-013));
#232 = DEFINITIONAL_REPRESENTATION('',(#233),#237);
#233 = CIRCLE('',#234,3.);
#234 = AXIS2_PLACEMENT_2D('',#235,#236);
#235 = CARTESIAN_POINT('',(0.E+000,0.E+000));
#236 = DIRECTION('',(1.,0.E+000));
#237 = ( GEOMETRIC_REPRESENTATION_CONTEXT(2) 
PARAMETRIC_REPRESENTATION_CONTEXT() REPRESENTATION_CONTEXT('2D SPACE',''
  ) );
#238 = ORIENTED_EDGE('',*,*,#192,.F.);
#239 = ADVANCED_FACE('',(#240,#243),#227,.T.);
#240 = FACE_BOUND('',#241,.T.);
#241 = EDGE_LOOP('',(#242));
#242 = ORIENTED_EDGE('',*,*,#213,.T.);
#243 = FACE_BOUND('',#244,.T.);
#244 = EDGE_LOOP('',(#245));
#245 = ORIENTED_EDGE('',*,*,#246,.F.);
#246 = EDGE_CURVE('',#247,#247,#249,.T.);
#247 = VERTEX_POINT('',#248);
#248 = CARTESIAN_POINT('',(-25.,55.000000000002,17.5));
#249 = SURFACE_CURVE('',#250,(#255,#262),.PCURVE_S1.);
#250 = CIRCLE('',#251,2.);
#251 = AXIS2_PLACEMENT_3D('',#252,#253,#254);
#252 = CARTESIAN_POINT('',(-25.,57.000000000002,17.5));
#253 = DIRECTION('',(-1.128E-013,1.1291E-013,1.));
#254 = DIRECTION('',(-1.1291E-013,-1.,1.1291E-013));
#255 = PCURVE('',#227,#256);
#256 = DEFINITIONAL_REPRESENTATION('',(#257),#261);
#257 = CIRCLE('',#258,2.);
#258 = AXIS2_PLACEMENT_2D('',#259,#260);
#259 = CARTESIAN_POINT('',(0.E+000,0.E+000));
#260 = DIRECTION('',(1.,0.E+000));
#261 = ( GEOMETRIC_REPRESENTATION_CONTEXT(2) 
PARAMETRIC_REPRESENTATION_CONTEXT() REPRESENTATION_CONTEXT('2D SPACE',''
  ) );
#262 = PCURVE('',#43,#263);
#263 = DEFINITIONAL_REPRESENTATION('',(#264),#267);
#264 = B_SPLINE_CURVE_WITH_KNOTS('',1,(#265,#266),.UNSPECIFIED.,.F.,.F.,
  (2,2),(0.E+000,6.28318530718),.PIECEWISE_BEZIER_KNOTS.);
#265 = CARTESIAN_POINT('',(0.E+000,0.E+000));
#266 = CARTESIAN_POINT('',(6.28318530718,0.E+000));
#267 = ( GEOMETRIC_REPRESENTATION_CONTEXT(2) 
PARAMETRIC_REPRESENTATION_CONTEXT() REPRESENTATION_CONTEXT('2D SPACE',''
  ) );
#268 = ADVANCED_FACE('',(#269),#43,.T.);
#269 = FACE_BOUND('',#270,.T.);
#270 = EDGE_LOOP('',(#271,#272,#291,#292));
#271 = ORIENTED_EDGE('',*,*,#246,.T.);
#272 = ORIENTED_EDGE('',*,*,#273,.T.);
#273 = EDGE_CURVE('',#247,#22,#274,.T.);
#274 = SEAM_CURVE('',#275,(#279,#285),.PCURVE_S1.);
#275 = LINE('',#276,#277);
#276 = CARTESIAN_POINT('',(-25.,55.000000000002,17.5));
#277 = VECTOR('',#278,1.);
#278 = DIRECTION('',(-1.1291E-013,1.1302E-013,1.));
#279 = PCURVE('',#43,#280);
#280 = DEFINITIONAL_REPRESENTATION('',(#281),#284);
#281 = B_SPLINE_CURVE_WITH_KNOTS('',1,(#282,#283),.UNSPECIFIED.,.F.,.F.,
  (2,2),(0.E+000,48.),.PIECEWISE_BEZIER_KNOTS.);
#282 = CARTESIAN_POINT('',(0.E+000,0.E+000));
#283 = CARTESIAN_POINT('',(0.E+000,48.));
#284 = ( GEOMETRIC_REPRESENTATION_CONTEXT(2) 
PARAMETRIC_REPRESENTATION_CONTEXT() REPRESENTATION_CONTEXT('2D SPACE',''
  ) );
#285 = PCURVE('',#43,#286);
#286 = DEFINITIONAL_REPRESENTATION('',(#287),#290);
#287 = B_SPLINE_CURVE_WITH_KNOTS('',1,(#288,#289),.UNSPECIFIED.,.F.,.F.,
  (2,2),(0.E+000,48.),.PIECEWISE_BEZIER_KNOTS.);
#288 = CARTESIAN_POINT('',(6.28318530718,0.E+000));
#289 = CARTESIAN_POINT('',(6.28318530718,48.));
#290 = ( GEOMETRIC_REPRESENTATION_CONTEXT(2) 
PARAMETRIC_REPRESENTATION_CONTEXT() REPRESENTATION_CONTEXT('2D SPACE',''
  ) );
#291 = ORIENTED_EDGE('',*,*,#21,.F.);
#292 = ORIENTED_EDGE('',*,*,#273,.F.);
#293 = ( GEOMETRIC_REPRESENTATION_CONTEXT(3) 
GLOBAL_UNCERTAINTY_ASSIGNED_CONTEXT((#297)) GLOBAL_UNIT_ASSIGNED_CONTEXT
((#294,#295,#296)) REPRESENTATION_CONTEXT('Context #1',
  '3D Context with UNIT and UNCERTAINTY') );
#294 = ( LENGTH_UNIT() NAMED_UNIT(*) SI_UNIT(.MILLI.,.METRE.) );
#295 = ( NAMED_UNIT(*) PLANE_ANGLE_UNIT() SI_UNIT($,.RADIAN.) );
#296 = ( NAMED_UNIT(*) SI_UNIT($,.STERADIAN.) SOLID_ANGLE_UNIT() );
#297 = UNCERTAINTY_MEASURE_WITH_UNIT(LENGTH_MEASURE(1.E-007),#294,
  'distance_accuracy_value','confusion accuracy');
#298 = PRODUCT_RELATED_PRODUCT_CATEGORY('part',$,(#7));
#299 = MECHANICAL_DESIGN_GEOMETRIC_PRESENTATION_REPRESENTATION('',(#300)
  ,#293);
#300 = STYLED_ITEM('color',(#301),#15);
#301 = PRESENTATION_STYLE_ASSIGNMENT((#302,#308));
#302 = SURFACE_STYLE_USAGE(.BOTH.,#303);
#303 = SURFACE_SIDE_STYLE('',(#304));
#304 = SURFACE_STYLE_FILL_AREA(#305);
#305 = FILL_AREA_STYLE('',(#306));
#306 = FILL_AREA_STYLE_COLOUR('',#307);
#307 = COLOUR_RGB('',0.E+000,0.329411774874,1.);
#308 = CURVE_STYLE('',#309,POSITIVE_LENGTH_MEASURE(0.1),#307);
#309 = DRAUGHTING_PRE_DEFINED_CURVE_FONT('continuous');
ENDSEC;
END-ISO-10303-21;
