ISO-10303-21;
HEADER;
FILE_DESCRIPTION(('CATIA V5 STEP Exchange'),'2;1');

FILE_NAME('C:\\Users\\Benoit\\Desktop\\repose pieds\\Platine_repose pied.stp','2019-05-26T11:07:20+00:00',('none'),('none'),'CATIA Version 5 Release 19 GA (IN-10)','CATIA V5 STEP AP203','none');

FILE_SCHEMA(('CONFIG_CONTROL_DESIGN'));

ENDSEC;
/* file written by CATIA V5R19 */
DATA;
#5=PRODUCT('Pi\X2\00E8\X0\ce1','','',(#2)) ;
#1=APPLICATION_CONTEXT('configuration controlled 3D design of mechanical parts and assemblies') ;
#14=PRODUCT_DEFINITION('',' ',#6,#3) ;
#16=SECURITY_CLASSIFICATION(' ',' ',#15) ;
#15=SECURITY_CLASSIFICATION_LEVEL('unclassified') ;
#47=CARTESIAN_POINT(' ',(0.,0.,0.)) ;
#52=CARTESIAN_POINT('Axis2P3D Location',(-1.,0.,35.)) ;
#57=CARTESIAN_POINT('Axis2P3D Location',(-5.,0.,35.)) ;
#61=CARTESIAN_POINT('Vertex',(-5.,10.8871765047,36.5714285714)) ;
#63=CARTESIAN_POINT('Vertex',(-5.,-10.8871765047,36.5714285714)) ;
#66=CARTESIAN_POINT('Line Origine',(-1.,-10.8871765047,36.5714285714)) ;
#70=CARTESIAN_POINT('Vertex',(3.,-10.8871765047,36.5714285714)) ;
#73=CARTESIAN_POINT('Axis2P3D Location',(3.,0.,35.)) ;
#77=CARTESIAN_POINT('Vertex',(3.,10.8871765047,36.5714285714)) ;
#80=CARTESIAN_POINT('Line Origine',(-1.,10.8871765047,36.5714285714)) ;
#92=CARTESIAN_POINT('Axis2P3D Location',(-1.,0.,35.)) ;
#97=CARTESIAN_POINT('Line Origine',(-1.,-5.5,35.)) ;
#101=CARTESIAN_POINT('Vertex',(3.,-5.5,35.)) ;
#103=CARTESIAN_POINT('Vertex',(-5.,-5.5,35.)) ;
#106=CARTESIAN_POINT('Axis2P3D Location',(3.,0.,35.)) ;
#110=CARTESIAN_POINT('Vertex',(3.,5.5,35.)) ;
#113=CARTESIAN_POINT('Line Origine',(-1.,5.5,35.)) ;
#117=CARTESIAN_POINT('Vertex',(-5.,5.5,35.)) ;
#120=CARTESIAN_POINT('Axis2P3D Location',(-5.,0.,35.)) ;
#132=CARTESIAN_POINT('Axis2P3D Location',(3.,0.,35.)) ;
#137=CARTESIAN_POINT('Axis2P3D Location',(-5.,0.,35.)) ;
#149=CARTESIAN_POINT('Axis2P3D Location',(-5.,0.,0.)) ;
#154=CARTESIAN_POINT('Line Origine',(-5.,-13.3615348012,19.4285714286)) ;
#158=CARTESIAN_POINT('Vertex',(-5.,-15.8358930978,2.28571428571)) ;
#161=CARTESIAN_POINT('Line Origine',(-5.,13.3615348012,19.4285714286)) ;
#165=CARTESIAN_POINT('Vertex',(-5.,15.8358930978,2.28571428571)) ;
#168=CARTESIAN_POINT('Axis2P3D Location',(-5.,0.,0.)) ;
#183=CARTESIAN_POINT('Axis2P3D Location',(-5.,0.,0.)) ;
#187=CARTESIAN_POINT('Vertex',(-5.,5.5,0.)) ;
#189=CARTESIAN_POINT('Vertex',(-5.,-5.5,3.11602414878E-015)) ;
#192=CARTESIAN_POINT('Axis2P3D Location',(-5.,0.,0.)) ;
#202=CARTESIAN_POINT('Axis2P3D Location',(3.,0.,0.)) ;
#207=CARTESIAN_POINT('Line Origine',(3.,12.7975873062,23.3357142857)) ;
#211=CARTESIAN_POINT('Vertex',(3.,14.7079981076,10.1)) ;
#214=CARTESIAN_POINT('Line Origine',(3.,-12.7975873062,23.3357142857)) ;
#218=CARTESIAN_POINT('Vertex',(3.,-14.7079981076,10.1)) ;
#221=CARTESIAN_POINT('Line Origine',(3.,0.,10.1)) ;
#237=CARTESIAN_POINT('Axis2P3D Location',(-1.,0.,0.)) ;
#242=CARTESIAN_POINT('Axis2P3D Location',(0.,0.,0.)) ;
#246=CARTESIAN_POINT('Vertex',(0.,5.5,0.)) ;
#248=CARTESIAN_POINT('Vertex',(0.,-5.5,3.11602414878E-015)) ;
#251=CARTESIAN_POINT('Line Origine',(-1.,-5.5,3.11602414878E-015)) ;
#256=CARTESIAN_POINT('Line Origine',(-1.,5.5,0.)) ;
#268=CARTESIAN_POINT('Axis2P3D Location',(0.,0.,0.)) ;
#280=CARTESIAN_POINT('Axis2P3D Location',(0.,-10.8871765047,36.5714285714)) ;
#285=CARTESIAN_POINT('Line Origine',(0.,-15.2719456027,6.19285714286)) ;
#289=CARTESIAN_POINT('Vertex',(0.,-15.8358930978,2.28571428571)) ;
#291=CARTESIAN_POINT('Vertex',(0.,-14.7079981076,10.1)) ;
#294=CARTESIAN_POINT('Line Origine',(1.5,-14.7079981076,10.1)) ;
#299=CARTESIAN_POINT('Line Origine',(-2.5,-15.8358930978,2.28571428571)) ;
#313=CARTESIAN_POINT('Axis2P3D Location',(0.,10.8871765047,36.5714285714)) ;
#318=CARTESIAN_POINT('Line Origine',(-2.5,15.8358930978,2.28571428571)) ;
#322=CARTESIAN_POINT('Vertex',(0.,15.8358930978,2.28571428571)) ;
#325=CARTESIAN_POINT('Line Origine',(1.5,14.7079981076,10.1)) ;
#329=CARTESIAN_POINT('Vertex',(0.,14.7079981076,10.1)) ;
#332=CARTESIAN_POINT('Line Origine',(0.,15.2719456027,6.19285714286)) ;
#346=CARTESIAN_POINT('Axis2P3D Location',(-1.,0.,0.)) ;
#351=CARTESIAN_POINT('Axis2P3D Location',(0.,0.,0.)) ;
#363=CARTESIAN_POINT('Axis2P3D Location',(0.,0.,0.)) ;
#368=CARTESIAN_POINT('Line Origine',(0.,-3.5527136788E-015,10.1)) ;
#384=CARTESIAN_POINT('Axis2P3D Location',(3.,-23.0293807983,10.1)) ;
#53=DIRECTION('Axis2P3D Direction',(1.,0.,0.)) ;
#54=DIRECTION('Axis2P3D XDirection',(0.,0.989743318611,0.142857142857)) ;
#58=DIRECTION('Axis2P3D Direction',(1.,0.,0.)) ;
#67=DIRECTION('Vector Direction',(1.,0.,0.)) ;
#74=DIRECTION('Axis2P3D Direction',(1.,0.,0.)) ;
#81=DIRECTION('Vector Direction',(1.,0.,0.)) ;
#93=DIRECTION('Axis2P3D Direction',(1.,0.,0.)) ;
#94=DIRECTION('Axis2P3D XDirection',(0.,1.,0.)) ;
#98=DIRECTION('Vector Direction',(1.,0.,0.)) ;
#107=DIRECTION('Axis2P3D Direction',(1.,0.,0.)) ;
#114=DIRECTION('Vector Direction',(1.,0.,0.)) ;
#121=DIRECTION('Axis2P3D Direction',(1.,0.,0.)) ;
#133=DIRECTION('Axis2P3D Direction',(1.,0.,0.)) ;
#138=DIRECTION('Axis2P3D Direction',(1.,0.,0.)) ;
#150=DIRECTION('Axis2P3D Direction',(1.,0.,0.)) ;
#151=DIRECTION('Axis2P3D XDirection',(0.,1.,0.)) ;
#155=DIRECTION('Vector Direction',(0.,-0.142857142857,-0.989743318611)) ;
#162=DIRECTION('Vector Direction',(0.,0.142857142857,-0.989743318611)) ;
#169=DIRECTION('Axis2P3D Direction',(1.,0.,0.)) ;
#184=DIRECTION('Axis2P3D Direction',(1.,0.,0.)) ;
#193=DIRECTION('Axis2P3D Direction',(1.,0.,0.)) ;
#203=DIRECTION('Axis2P3D Direction',(1.,0.,0.)) ;
#204=DIRECTION('Axis2P3D XDirection',(0.,1.,0.)) ;
#208=DIRECTION('Vector Direction',(0.,0.142857142857,-0.989743318611)) ;
#215=DIRECTION('Vector Direction',(0.,-0.142857142857,-0.989743318611)) ;
#222=DIRECTION('Vector Direction',(0.,1.,0.)) ;
#238=DIRECTION('Axis2P3D Direction',(1.,0.,0.)) ;
#239=DIRECTION('Axis2P3D XDirection',(0.,1.,0.)) ;
#243=DIRECTION('Axis2P3D Direction',(1.,0.,0.)) ;
#252=DIRECTION('Vector Direction',(1.,0.,0.)) ;
#257=DIRECTION('Vector Direction',(1.,0.,0.)) ;
#269=DIRECTION('Axis2P3D Direction',(1.,0.,0.)) ;
#281=DIRECTION('Axis2P3D Direction',(0.,0.989743318611,-0.142857142857)) ;
#282=DIRECTION('Axis2P3D XDirection',(0.,-0.142857142857,-0.989743318611)) ;
#286=DIRECTION('Vector Direction',(0.,0.142857142857,0.989743318611)) ;
#295=DIRECTION('Vector Direction',(-1.,0.,0.)) ;
#300=DIRECTION('Vector Direction',(-1.,0.,0.)) ;
#314=DIRECTION('Axis2P3D Direction',(0.,0.989743318611,0.142857142857)) ;
#315=DIRECTION('Axis2P3D XDirection',(0.,0.142857142857,-0.989743318611)) ;
#319=DIRECTION('Vector Direction',(-1.,0.,0.)) ;
#326=DIRECTION('Vector Direction',(-1.,0.,0.)) ;
#333=DIRECTION('Vector Direction',(0.,-0.142857142857,0.989743318611)) ;
#347=DIRECTION('Axis2P3D Direction',(1.,0.,0.)) ;
#348=DIRECTION('Axis2P3D XDirection',(0.,-0.989743318611,0.142857142857)) ;
#352=DIRECTION('Axis2P3D Direction',(1.,0.,0.)) ;
#364=DIRECTION('Axis2P3D Direction',(1.,0.,0.)) ;
#365=DIRECTION('Axis2P3D XDirection',(0.,1.,0.)) ;
#369=DIRECTION('Vector Direction',(0.,1.,0.)) ;
#385=DIRECTION('Axis2P3D Direction',(0.,-0.,1.)) ;
#386=DIRECTION('Axis2P3D XDirection',(0.,1.,0.)) ;
#48=AXIS2_PLACEMENT_3D(' ',#47,$,$) ;
#55=AXIS2_PLACEMENT_3D('Cylinder Axis2P3D',#52,#53,#54) ;
#59=AXIS2_PLACEMENT_3D('Circle Axis2P3D',#57,#58,$) ;
#75=AXIS2_PLACEMENT_3D('Circle Axis2P3D',#73,#74,$) ;
#95=AXIS2_PLACEMENT_3D('Cylinder Axis2P3D',#92,#93,#94) ;
#108=AXIS2_PLACEMENT_3D('Circle Axis2P3D',#106,#107,$) ;
#122=AXIS2_PLACEMENT_3D('Circle Axis2P3D',#120,#121,$) ;
#134=AXIS2_PLACEMENT_3D('Circle Axis2P3D',#132,#133,$) ;
#139=AXIS2_PLACEMENT_3D('Circle Axis2P3D',#137,#138,$) ;
#152=AXIS2_PLACEMENT_3D('Plane Axis2P3D',#149,#150,#151) ;
#170=AXIS2_PLACEMENT_3D('Circle Axis2P3D',#168,#169,$) ;
#185=AXIS2_PLACEMENT_3D('Circle Axis2P3D',#183,#184,$) ;
#194=AXIS2_PLACEMENT_3D('Circle Axis2P3D',#192,#193,$) ;
#205=AXIS2_PLACEMENT_3D('Plane Axis2P3D',#202,#203,#204) ;
#240=AXIS2_PLACEMENT_3D('Cylinder Axis2P3D',#237,#238,#239) ;
#244=AXIS2_PLACEMENT_3D('Circle Axis2P3D',#242,#243,$) ;
#270=AXIS2_PLACEMENT_3D('Circle Axis2P3D',#268,#269,$) ;
#283=AXIS2_PLACEMENT_3D('Plane Axis2P3D',#280,#281,#282) ;
#316=AXIS2_PLACEMENT_3D('Plane Axis2P3D',#313,#314,#315) ;
#349=AXIS2_PLACEMENT_3D('Cylinder Axis2P3D',#346,#347,#348) ;
#353=AXIS2_PLACEMENT_3D('Circle Axis2P3D',#351,#352,$) ;
#366=AXIS2_PLACEMENT_3D('Plane Axis2P3D',#363,#364,#365) ;
#387=AXIS2_PLACEMENT_3D('Plane Axis2P3D',#384,#385,#386) ;
#40=PRODUCT_DEFINITION_SHAPE(' ',' ',#14) ;
#31=APPROVAL_PERSON_ORGANIZATION(#25,#21,#19) ;
#25=PERSON_AND_ORGANIZATION(#22,#23) ;
#22=PERSON(' ',' ',' ',$,$,$) ;
#23=ORGANIZATION(' ',' ',' ') ;
#21=APPROVAL(#20,' ') ;
#20=APPROVAL_STATUS('not_yet_approved') ;
#19=APPROVAL_ROLE('APPROVER') ;
#13=DATE_AND_TIME(#11,#12) ;
#12=LOCAL_TIME(13,7,20.,#10) ;
#10=COORDINATED_UNIVERSAL_TIME_OFFSET(0,0,.AHEAD.) ;
#86=ORIENTED_EDGE('',*,*,#65,.T.) ;
#87=ORIENTED_EDGE('',*,*,#72,.F.) ;
#88=ORIENTED_EDGE('',*,*,#79,.F.) ;
#89=ORIENTED_EDGE('',*,*,#84,.T.) ;
#126=ORIENTED_EDGE('',*,*,#105,.F.) ;
#127=ORIENTED_EDGE('',*,*,#112,.T.) ;
#128=ORIENTED_EDGE('',*,*,#119,.T.) ;
#129=ORIENTED_EDGE('',*,*,#124,.F.) ;
#143=ORIENTED_EDGE('',*,*,#119,.F.) ;
#144=ORIENTED_EDGE('',*,*,#136,.T.) ;
#145=ORIENTED_EDGE('',*,*,#105,.T.) ;
#146=ORIENTED_EDGE('',*,*,#141,.F.) ;
#174=ORIENTED_EDGE('',*,*,#160,.F.) ;
#175=ORIENTED_EDGE('',*,*,#65,.F.) ;
#176=ORIENTED_EDGE('',*,*,#167,.F.) ;
#177=ORIENTED_EDGE('',*,*,#172,.F.) ;
#180=ORIENTED_EDGE('',*,*,#141,.T.) ;
#181=ORIENTED_EDGE('',*,*,#124,.T.) ;
#198=ORIENTED_EDGE('',*,*,#191,.T.) ;
#199=ORIENTED_EDGE('',*,*,#196,.T.) ;
#227=ORIENTED_EDGE('',*,*,#213,.T.) ;
#228=ORIENTED_EDGE('',*,*,#79,.T.) ;
#229=ORIENTED_EDGE('',*,*,#220,.T.) ;
#230=ORIENTED_EDGE('',*,*,#225,.F.) ;
#233=ORIENTED_EDGE('',*,*,#112,.F.) ;
#234=ORIENTED_EDGE('',*,*,#136,.F.) ;
#262=ORIENTED_EDGE('',*,*,#250,.T.) ;
#263=ORIENTED_EDGE('',*,*,#255,.T.) ;
#264=ORIENTED_EDGE('',*,*,#191,.F.) ;
#265=ORIENTED_EDGE('',*,*,#260,.F.) ;
#274=ORIENTED_EDGE('',*,*,#272,.T.) ;
#275=ORIENTED_EDGE('',*,*,#260,.T.) ;
#276=ORIENTED_EDGE('',*,*,#196,.F.) ;
#277=ORIENTED_EDGE('',*,*,#255,.F.) ;
#305=ORIENTED_EDGE('',*,*,#293,.T.) ;
#306=ORIENTED_EDGE('',*,*,#298,.F.) ;
#307=ORIENTED_EDGE('',*,*,#220,.F.) ;
#308=ORIENTED_EDGE('',*,*,#72,.T.) ;
#309=ORIENTED_EDGE('',*,*,#160,.T.) ;
#310=ORIENTED_EDGE('',*,*,#303,.F.) ;
#338=ORIENTED_EDGE('',*,*,#324,.T.) ;
#339=ORIENTED_EDGE('',*,*,#167,.T.) ;
#340=ORIENTED_EDGE('',*,*,#84,.F.) ;
#341=ORIENTED_EDGE('',*,*,#213,.F.) ;
#342=ORIENTED_EDGE('',*,*,#331,.T.) ;
#343=ORIENTED_EDGE('',*,*,#336,.F.) ;
#357=ORIENTED_EDGE('',*,*,#303,.T.) ;
#358=ORIENTED_EDGE('',*,*,#172,.T.) ;
#359=ORIENTED_EDGE('',*,*,#324,.F.) ;
#360=ORIENTED_EDGE('',*,*,#355,.F.) ;
#374=ORIENTED_EDGE('',*,*,#372,.T.) ;
#375=ORIENTED_EDGE('',*,*,#293,.F.) ;
#376=ORIENTED_EDGE('',*,*,#355,.T.) ;
#377=ORIENTED_EDGE('',*,*,#336,.T.) ;
#380=ORIENTED_EDGE('',*,*,#272,.F.) ;
#381=ORIENTED_EDGE('',*,*,#250,.F.) ;
#390=ORIENTED_EDGE('',*,*,#372,.F.) ;
#391=ORIENTED_EDGE('',*,*,#331,.F.) ;
#392=ORIENTED_EDGE('',*,*,#225,.T.) ;
#393=ORIENTED_EDGE('',*,*,#298,.T.) ;
#182=FACE_BOUND('',#179,.T.) ;
#200=FACE_BOUND('',#197,.T.) ;
#235=FACE_BOUND('',#232,.T.) ;
#382=FACE_BOUND('',#379,.T.) ;
#51=CLOSED_SHELL('Closed Shell',(#91,#131,#148,#201,#236,#267,#279,#312,#345,#362,#383,#395)) ;
#68=VECTOR('Line Direction',#67,1.) ;
#82=VECTOR('Line Direction',#81,1.) ;
#99=VECTOR('Line Direction',#98,1.) ;
#115=VECTOR('Line Direction',#114,1.) ;
#156=VECTOR('Line Direction',#155,1.) ;
#163=VECTOR('Line Direction',#162,1.) ;
#209=VECTOR('Line Direction',#208,1.) ;
#216=VECTOR('Line Direction',#215,1.) ;
#223=VECTOR('Line Direction',#222,1.) ;
#253=VECTOR('Line Direction',#252,1.) ;
#258=VECTOR('Line Direction',#257,1.) ;
#287=VECTOR('Line Direction',#286,1.) ;
#296=VECTOR('Line Direction',#295,1.) ;
#301=VECTOR('Line Direction',#300,1.) ;
#320=VECTOR('Line Direction',#319,1.) ;
#327=VECTOR('Line Direction',#326,1.) ;
#334=VECTOR('Line Direction',#333,1.) ;
#370=VECTOR('Line Direction',#369,1.) ;
#397=ADVANCED_BREP_SHAPE_REPRESENTATION('NONE',(#396),#46) ;
#49=SHAPE_REPRESENTATION(' ',(#48),#46) ;
#91=ADVANCED_FACE('Corps principal',(#90),#56,.T.) ;
#131=ADVANCED_FACE('Corps principal',(#130),#96,.F.) ;
#148=ADVANCED_FACE('Corps principal',(#147),#96,.F.) ;
#201=ADVANCED_FACE('Corps principal',(#178,#182,#200),#153,.F.) ;
#236=ADVANCED_FACE('Corps principal',(#231,#235),#206,.T.) ;
#267=ADVANCED_FACE('Corps principal',(#266),#241,.F.) ;
#279=ADVANCED_FACE('Corps principal',(#278),#241,.F.) ;
#312=ADVANCED_FACE('Corps principal',(#311),#284,.F.) ;
#345=ADVANCED_FACE('Corps principal',(#344),#317,.T.) ;
#362=ADVANCED_FACE('Corps principal',(#361),#350,.T.) ;
#383=ADVANCED_FACE('Corps principal',(#378,#382),#367,.T.) ;
#395=ADVANCED_FACE('Corps principal',(#394),#388,.F.) ;
#4=APPLICATION_PROTOCOL_DEFINITION('international standard','config_control_design',1994,#1) ;
#32=APPROVAL_DATE_TIME(#13,#21) ;
#396=MANIFOLD_SOLID_BREP('Corps principal',#51) ;
#11=CALENDAR_DATE(2019,26,5) ;
#30=CC_DESIGN_APPROVAL(#21,(#16,#6,#14)) ;
#18=CC_DESIGN_DATE_AND_TIME_ASSIGNMENT(#13,#17,(#16)) ;
#29=CC_DESIGN_DATE_AND_TIME_ASSIGNMENT(#13,#28,(#14)) ;
#17=DATE_TIME_ROLE('classification_date') ;
#28=DATE_TIME_ROLE('creation_date') ;
#27=CC_DESIGN_PERSON_AND_ORGANIZATION_ASSIGNMENT(#25,#26,(#16)) ;
#33=CC_DESIGN_PERSON_AND_ORGANIZATION_ASSIGNMENT(#25,#34,(#6)) ;
#35=CC_DESIGN_PERSON_AND_ORGANIZATION_ASSIGNMENT(#25,#36,(#6,#14)) ;
#37=CC_DESIGN_PERSON_AND_ORGANIZATION_ASSIGNMENT(#25,#38,(#5)) ;
#26=PERSON_AND_ORGANIZATION_ROLE('classification_officer') ;
#34=PERSON_AND_ORGANIZATION_ROLE('design_supplier') ;
#36=PERSON_AND_ORGANIZATION_ROLE('creator') ;
#38=PERSON_AND_ORGANIZATION_ROLE('design_owner') ;
#39=CC_DESIGN_SECURITY_CLASSIFICATION(#16,(#6)) ;
#60=CIRCLE('generated circle',#59,11.) ;
#76=CIRCLE('generated circle',#75,11.) ;
#109=CIRCLE('generated circle',#108,5.5) ;
#123=CIRCLE('generated circle',#122,5.5) ;
#135=CIRCLE('generated circle',#134,5.5) ;
#140=CIRCLE('generated circle',#139,5.5) ;
#171=CIRCLE('generated circle',#170,16.) ;
#186=CIRCLE('generated circle',#185,5.5) ;
#195=CIRCLE('generated circle',#194,5.5) ;
#245=CIRCLE('generated circle',#244,5.5) ;
#271=CIRCLE('generated circle',#270,5.5) ;
#354=CIRCLE('generated circle',#353,16.) ;
#398=SHAPE_REPRESENTATION_RELATIONSHIP(' ',' ',#49,#397) ;
#56=CYLINDRICAL_SURFACE('generated cylinder',#55,11.) ;
#96=CYLINDRICAL_SURFACE('generated cylinder',#95,5.5) ;
#241=CYLINDRICAL_SURFACE('generated cylinder',#240,5.5) ;
#350=CYLINDRICAL_SURFACE('generated cylinder',#349,16.) ;
#3=DESIGN_CONTEXT(' ',#1,'design') ;
#65=EDGE_CURVE('',#62,#64,#60,.T.) ;
#72=EDGE_CURVE('',#71,#64,#69,.F.) ;
#79=EDGE_CURVE('',#78,#71,#76,.T.) ;
#84=EDGE_CURVE('',#78,#62,#83,.F.) ;
#105=EDGE_CURVE('',#102,#104,#100,.F.) ;
#112=EDGE_CURVE('',#102,#111,#109,.T.) ;
#119=EDGE_CURVE('',#111,#118,#116,.F.) ;
#124=EDGE_CURVE('',#104,#118,#123,.T.) ;
#136=EDGE_CURVE('',#111,#102,#135,.T.) ;
#141=EDGE_CURVE('',#118,#104,#140,.T.) ;
#160=EDGE_CURVE('',#64,#159,#157,.T.) ;
#167=EDGE_CURVE('',#166,#62,#164,.F.) ;
#172=EDGE_CURVE('',#159,#166,#171,.T.) ;
#191=EDGE_CURVE('',#188,#190,#186,.T.) ;
#196=EDGE_CURVE('',#190,#188,#195,.T.) ;
#213=EDGE_CURVE('',#212,#78,#210,.F.) ;
#220=EDGE_CURVE('',#71,#219,#217,.T.) ;
#225=EDGE_CURVE('',#212,#219,#224,.F.) ;
#250=EDGE_CURVE('',#247,#249,#245,.T.) ;
#255=EDGE_CURVE('',#249,#190,#254,.F.) ;
#260=EDGE_CURVE('',#247,#188,#259,.F.) ;
#272=EDGE_CURVE('',#249,#247,#271,.T.) ;
#293=EDGE_CURVE('',#290,#292,#288,.T.) ;
#298=EDGE_CURVE('',#219,#292,#297,.T.) ;
#303=EDGE_CURVE('',#290,#159,#302,.T.) ;
#324=EDGE_CURVE('',#323,#166,#321,.T.) ;
#331=EDGE_CURVE('',#212,#330,#328,.T.) ;
#336=EDGE_CURVE('',#323,#330,#335,.T.) ;
#355=EDGE_CURVE('',#290,#323,#354,.T.) ;
#372=EDGE_CURVE('',#330,#292,#371,.F.) ;
#85=EDGE_LOOP('',(#86,#87,#88,#89)) ;
#125=EDGE_LOOP('',(#126,#127,#128,#129)) ;
#142=EDGE_LOOP('',(#143,#144,#145,#146)) ;
#173=EDGE_LOOP('',(#174,#175,#176,#177)) ;
#179=EDGE_LOOP('',(#180,#181)) ;
#197=EDGE_LOOP('',(#198,#199)) ;
#226=EDGE_LOOP('',(#227,#228,#229,#230)) ;
#232=EDGE_LOOP('',(#233,#234)) ;
#261=EDGE_LOOP('',(#262,#263,#264,#265)) ;
#273=EDGE_LOOP('',(#274,#275,#276,#277)) ;
#304=EDGE_LOOP('',(#305,#306,#307,#308,#309,#310)) ;
#337=EDGE_LOOP('',(#338,#339,#340,#341,#342,#343)) ;
#356=EDGE_LOOP('',(#357,#358,#359,#360)) ;
#373=EDGE_LOOP('',(#374,#375,#376,#377)) ;
#379=EDGE_LOOP('',(#380,#381)) ;
#389=EDGE_LOOP('',(#390,#391,#392,#393)) ;
#90=FACE_OUTER_BOUND('',#85,.T.) ;
#130=FACE_OUTER_BOUND('',#125,.T.) ;
#147=FACE_OUTER_BOUND('',#142,.T.) ;
#178=FACE_OUTER_BOUND('',#173,.T.) ;
#231=FACE_OUTER_BOUND('',#226,.T.) ;
#266=FACE_OUTER_BOUND('',#261,.T.) ;
#278=FACE_OUTER_BOUND('',#273,.T.) ;
#311=FACE_OUTER_BOUND('',#304,.T.) ;
#344=FACE_OUTER_BOUND('',#337,.T.) ;
#361=FACE_OUTER_BOUND('',#356,.T.) ;
#378=FACE_OUTER_BOUND('',#373,.T.) ;
#394=FACE_OUTER_BOUND('',#389,.T.) ;
#45=UNCERTAINTY_MEASURE_WITH_UNIT(LENGTH_MEASURE(0.005),#41,'distance_accuracy_value','CONFUSED CURVE UNCERTAINTY') ;
#69=LINE('Line',#66,#68) ;
#83=LINE('Line',#80,#82) ;
#100=LINE('Line',#97,#99) ;
#116=LINE('Line',#113,#115) ;
#157=LINE('Line',#154,#156) ;
#164=LINE('Line',#161,#163) ;
#210=LINE('Line',#207,#209) ;
#217=LINE('Line',#214,#216) ;
#224=LINE('Line',#221,#223) ;
#254=LINE('Line',#251,#253) ;
#259=LINE('Line',#256,#258) ;
#288=LINE('Line',#285,#287) ;
#297=LINE('Line',#294,#296) ;
#302=LINE('Line',#299,#301) ;
#321=LINE('Line',#318,#320) ;
#328=LINE('Line',#325,#327) ;
#335=LINE('Line',#332,#334) ;
#371=LINE('Line',#368,#370) ;
#2=MECHANICAL_CONTEXT(' ',#1,'mechanical') ;
#24=PERSONAL_ADDRESS(' ',' ',' ',' ',' ',' ',' ',' ',' ',' ',' ',' ',(#22),' ') ;
#153=PLANE('Plane',#152) ;
#206=PLANE('Plane',#205) ;
#284=PLANE('Plane',#283) ;
#317=PLANE('Plane',#316) ;
#367=PLANE('Plane',#366) ;
#388=PLANE('Plane',#387) ;
#43=PLANE_ANGLE_MEASURE_WITH_UNIT(PLANE_ANGLE_MEASURE(0.0174532925199),#42) ;
#7=PRODUCT_CATEGORY('part',$) ;
#9=PRODUCT_CATEGORY_RELATIONSHIP(' ',' ',#7,#8) ;
#6=PRODUCT_DEFINITION_FORMATION_WITH_SPECIFIED_SOURCE('',' ',#5,.NOT_KNOWN.) ;
#8=PRODUCT_RELATED_PRODUCT_CATEGORY('detail',$,(#5)) ;
#50=SHAPE_DEFINITION_REPRESENTATION(#40,#49) ;
#62=VERTEX_POINT('',#61) ;
#64=VERTEX_POINT('',#63) ;
#71=VERTEX_POINT('',#70) ;
#78=VERTEX_POINT('',#77) ;
#102=VERTEX_POINT('',#101) ;
#104=VERTEX_POINT('',#103) ;
#111=VERTEX_POINT('',#110) ;
#118=VERTEX_POINT('',#117) ;
#159=VERTEX_POINT('',#158) ;
#166=VERTEX_POINT('',#165) ;
#188=VERTEX_POINT('',#187) ;
#190=VERTEX_POINT('',#189) ;
#212=VERTEX_POINT('',#211) ;
#219=VERTEX_POINT('',#218) ;
#247=VERTEX_POINT('',#246) ;
#249=VERTEX_POINT('',#248) ;
#290=VERTEX_POINT('',#289) ;
#292=VERTEX_POINT('',#291) ;
#323=VERTEX_POINT('',#322) ;
#330=VERTEX_POINT('',#329) ;
#41=(LENGTH_UNIT()NAMED_UNIT(*)SI_UNIT(.MILLI.,.METRE.)) ;
#42=(NAMED_UNIT(*)PLANE_ANGLE_UNIT()SI_UNIT($,.RADIAN.)) ;
#44=(NAMED_UNIT(*)SI_UNIT($,.STERADIAN.)SOLID_ANGLE_UNIT()) ;
#46=(GEOMETRIC_REPRESENTATION_CONTEXT(3)GLOBAL_UNCERTAINTY_ASSIGNED_CONTEXT((#45))GLOBAL_UNIT_ASSIGNED_CONTEXT((#41,#42,#44))REPRESENTATION_CONTEXT(' ',' ')) ;
ENDSEC;
END-ISO-10303-21;
