ISO-10303-21;
HEADER;
FILE_DESCRIPTION (( 'STEP AP214' ),
    '1' );
FILE_NAME ('Bague alu.STEP',
    '2019-05-23T11:33:34',
    ( '' ),
    ( '' ),
    'SwSTEP 2.0',
    'SolidWorks 2016',
    '' );
FILE_SCHEMA (( 'AUTOMOTIVE_DESIGN' ));
ENDSEC;

DATA;
#1 = CYLINDRICAL_SURFACE ( 'NONE', #40, 12.25000000000000000 ) ;
#2 = ORIENTED_EDGE ( 'NONE', *, *, #207, .T. ) ;
#3 = SURFACE_STYLE_USAGE ( .BOTH. , #179 ) ;
#4 = DIRECTION ( 'NONE',  ( 0.0000000000000000000, 0.0000000000000000000, 1.000000000000000000 ) ) ;
#5 = CIRCLE ( 'NONE', #106, 12.25000000000000000 ) ;
#6 = ADVANCED_FACE ( 'NONE', ( #128 ), #184, .F. ) ;
#7 = ORIENTED_EDGE ( 'NONE', *, *, #201, .T. ) ;
#8 = CYLINDRICAL_SURFACE ( 'NONE', #143, 16.89999999999999900 ) ;
#9 = CIRCLE ( 'NONE', #127, 12.25000000000000000 ) ;
#10 = CARTESIAN_POINT ( 'NONE',  ( 1.500192328955507700E-015, 0.0000000000000000000, 12.25000000000000000 ) ) ;
#11 = DIRECTION ( 'NONE',  ( 0.0000000000000000000, 0.0000000000000000000, 1.000000000000000000 ) ) ;
#12 = DIRECTION ( 'NONE',  ( -0.0000000000000000000, -1.000000000000000000, -0.0000000000000000000 ) ) ;
#13 =( LENGTH_UNIT ( ) NAMED_UNIT ( * ) SI_UNIT ( .MILLI., .METRE. ) );
#14 = DIRECTION ( 'NONE',  ( 0.0000000000000000000, -0.0000000000000000000, 1.000000000000000000 ) ) ;
#15 = SURFACE_SIDE_STYLE ('',( #202 ) ) ;
#16 = VECTOR ( 'NONE', #12, 1000.000000000000000 ) ;
#17 = PRESENTATION_STYLE_ASSIGNMENT (( #145 ) ) ;
#18 = MECHANICAL_DESIGN_GEOMETRIC_PRESENTATION_REPRESENTATION (  '', ( #139 ), #95 ) ;
#19 = ORIENTED_EDGE ( 'NONE', *, *, #74, .T. ) ;
#20 = EDGE_CURVE ( 'NONE', #73, #178, #67, .T. ) ;
#21 = VERTEX_POINT ( 'NONE', #57 ) ;
#22 = EDGE_CURVE ( 'NONE', #21, #178, #68, .T. ) ;
#23 = CARTESIAN_POINT ( 'NONE',  ( 2.069653090559026900E-015, 9.500000000000000000, 16.89999999999999900 ) ) ;
#24 = CYLINDRICAL_SURFACE ( 'NONE', #111, 16.89999999999999900 ) ;
#25 = DIRECTION ( 'NONE',  ( 0.0000000000000000000, 0.0000000000000000000, -1.000000000000000000 ) ) ;
#26 = ORIENTED_EDGE ( 'NONE', *, *, #102, .T. ) ;
#27 = DIRECTION ( 'NONE',  ( 0.0000000000000000000, 0.0000000000000000000, 1.000000000000000000 ) ) ;
#28 = DIRECTION ( 'NONE',  ( 0.0000000000000000000, 1.000000000000000000, 0.0000000000000000000 ) ) ;
#29 =( NAMED_UNIT ( * ) PLANE_ANGLE_UNIT ( ) SI_UNIT ( $, .RADIAN. ) );
#30 = ORIENTED_EDGE ( 'NONE', *, *, #63, .F. ) ;
#31 = CARTESIAN_POINT ( 'NONE',  ( 0.0000000000000000000, 0.0000000000000000000, 0.0000000000000000000 ) ) ;
#32 = PRESENTATION_LAYER_ASSIGNMENT (  '', '', ( #139 ) ) ;
#33 = UNCERTAINTY_MEASURE_WITH_UNIT (LENGTH_MEASURE( 1.000000000000000100E-005 ), #64, 'distance_accuracy_value', 'NONE');
#34 = CARTESIAN_POINT ( 'NONE',  ( 0.0000000000000000000, 0.0000000000000000000, 0.0000000000000000000 ) ) ;
#35 = VERTEX_POINT ( 'NONE', #10 ) ;
#36 = PRODUCT_CONTEXT ( 'NONE', #144, 'mechanical' ) ;
#37 = PRODUCT_DEFINITION_SHAPE ( 'NONE', 'NONE',  #150 ) ;
#38 = EDGE_LOOP ( 'NONE', ( #192, #114, #208, #121 ) ) ;
#39 = DIRECTION ( 'NONE',  ( 1.000000000000000000, 0.0000000000000000000, 0.0000000000000000000 ) ) ;
#40 = AXIS2_PLACEMENT_3D ( 'NONE', #133, #209, #25 ) ;
#41 = PRODUCT_DEFINITION_FORMATION_WITH_SPECIFIED_SOURCE ( 'ANY', '', #170, .NOT_KNOWN. ) ;
#42 = FACE_OUTER_BOUND ( 'NONE', #70, .T. ) ;
#43 = EDGE_LOOP ( 'NONE', ( #79, #159 ) ) ;
#44 = DIRECTION ( 'NONE',  ( 0.0000000000000000000, 0.0000000000000000000, 1.000000000000000000 ) ) ;
#45 = DIRECTION ( 'NONE',  ( 0.0000000000000000000, 0.0000000000000000000, -1.000000000000000000 ) ) ;
#46 = CLOSED_SHELL ( 'NONE', ( #6, #174, #157, #152, #190, #117 ) ) ;
#47 = CARTESIAN_POINT ( 'NONE',  ( 0.0000000000000000000, 9.500000000000000000, 0.0000000000000000000 ) ) ;
#48 = MECHANICAL_DESIGN_GEOMETRIC_PRESENTATION_REPRESENTATION (  '', ( #211 ), #101 ) ;
#49 = DIRECTION ( 'NONE',  ( 0.0000000000000000000, 1.000000000000000000, 0.0000000000000000000 ) ) ;
#50 = LINE ( 'NONE', #155, #118 ) ;
#51 = FILL_AREA_STYLE_COLOUR ( '', #205 ) ;
#52 = DIRECTION ( 'NONE',  ( 0.0000000000000000000, 0.0000000000000000000, -1.000000000000000000 ) ) ;
#53 = ADVANCED_BREP_SHAPE_REPRESENTATION ( 'Bague alu', ( #165, #84 ), #154 ) ;
#54 = EDGE_CURVE ( 'NONE', #168, #21, #58, .T. ) ;
#55 = EDGE_LOOP ( 'NONE', ( #147, #177 ) ) ;
#56 = PRODUCT_RELATED_PRODUCT_CATEGORY ( 'part', '', ( #170 ) ) ;
#57 = CARTESIAN_POINT ( 'NONE',  ( 0.0000000000000000000, 9.500000000000000000, -16.89999999999999900 ) ) ;
#58 = CIRCLE ( 'NONE', #98, 16.89999999999999900 ) ;
#59 = CARTESIAN_POINT ( 'NONE',  ( 0.0000000000000000000, 0.0000000000000000000, -16.89999999999999900 ) ) ;
#60 = VECTOR ( 'NONE', #135, 1000.000000000000000 ) ;
#61 =( LENGTH_UNIT ( ) NAMED_UNIT ( * ) SI_UNIT ( .MILLI., .METRE. ) );
#62 = PLANE ( 'NONE',  #136 ) ;
#63 = EDGE_CURVE ( 'NONE', #168, #73, #169, .T. ) ;
#64 =( LENGTH_UNIT ( ) NAMED_UNIT ( * ) SI_UNIT ( .MILLI., .METRE. ) );
#65 = EDGE_CURVE ( 'NONE', #35, #88, #9, .T. ) ;
#66 = CIRCLE ( 'NONE', #120, 16.89999999999999900 ) ;
#67 = CIRCLE ( 'NONE', #85, 16.89999999999999900 ) ;
#68 = LINE ( 'NONE', #172, #16 ) ;
#69 = ORIENTED_EDGE ( 'NONE', *, *, #201, .F. ) ;
#70 = EDGE_LOOP ( 'NONE', ( #163, #153, #7, #105 ) ) ;
#71 = CARTESIAN_POINT ( 'NONE',  ( 0.0000000000000000000, 0.0000000000000000000, -12.25000000000000000 ) ) ;
#72 = ORIENTED_EDGE ( 'NONE', *, *, #74, .F. ) ;
#73 = VERTEX_POINT ( 'NONE', #75 ) ;
#74 = EDGE_CURVE ( 'NONE', #88, #35, #83, .T. ) ;
#75 = CARTESIAN_POINT ( 'NONE',  ( 2.069653090559026900E-015, 0.0000000000000000000, 16.89999999999999900 ) ) ;
#76 = CARTESIAN_POINT ( 'NONE',  ( 0.0000000000000000000, 9.500000000000000000, 0.0000000000000000000 ) ) ;
#77 = CARTESIAN_POINT ( 'NONE',  ( 2.069653090559026900E-015, 9.500000000000000000, 16.89999999999999900 ) ) ;
#78 = AXIS2_PLACEMENT_3D ( 'NONE', #164, #49, #110 ) ;
#79 = ORIENTED_EDGE ( 'NONE', *, *, #207, .F. ) ;
#80 = APPLICATION_PROTOCOL_DEFINITION ( 'draft international standard', 'automotive_design', 1998, #144 ) ;
#81 = PRESENTATION_STYLE_ASSIGNMENT (( #3 ) ) ;
#82 = APPLICATION_PROTOCOL_DEFINITION ( 'draft international standard', 'automotive_design', 1998, #167 ) ;
#83 = CIRCLE ( 'NONE', #87, 12.25000000000000000 ) ;
#84 = AXIS2_PLACEMENT_3D ( 'NONE', #180, #99, #39 ) ;
#85 = AXIS2_PLACEMENT_3D ( 'NONE', #171, #173, #210 ) ;
#86 = VECTOR ( 'NONE', #124, 1000.000000000000000 ) ;
#87 = AXIS2_PLACEMENT_3D ( 'NONE', #123, #28, #44 ) ;
#88 = VERTEX_POINT ( 'NONE', #71 ) ;
#89 = CARTESIAN_POINT ( 'NONE',  ( 0.0000000000000000000, 9.500000000000000000, -12.25000000000000000 ) ) ;
#90 = ORIENTED_EDGE ( 'NONE', *, *, #116, .T. ) ;
#91 = CARTESIAN_POINT ( 'NONE',  ( 0.0000000000000000000, 9.500000000000000000, 0.0000000000000000000 ) ) ;
#92 = PLANE ( 'NONE',  #199 ) ;
#93 = FACE_OUTER_BOUND ( 'NONE', #38, .T. ) ;
#94 = DIRECTION ( 'NONE',  ( -0.0000000000000000000, -1.000000000000000000, -0.0000000000000000000 ) ) ;
#95 =( GEOMETRIC_REPRESENTATION_CONTEXT ( 3 ) GLOBAL_UNCERTAINTY_ASSIGNED_CONTEXT ( ( #33 ) ) GLOBAL_UNIT_ASSIGNED_CONTEXT ( ( #64, #182, #166 ) ) REPRESENTATION_CONTEXT ( 'NONE', 'WORKASPACE' ) );
#96 =( NAMED_UNIT ( * ) PLANE_ANGLE_UNIT ( ) SI_UNIT ( $, .RADIAN. ) );
#97 = EDGE_LOOP ( 'NONE', ( #19, #122 ) ) ;
#98 = AXIS2_PLACEMENT_3D ( 'NONE', #76, #156, #27 ) ;
#99 = DIRECTION ( 'NONE',  ( 0.0000000000000000000, 0.0000000000000000000, 1.000000000000000000 ) ) ;
#100 = ORIENTED_EDGE ( 'NONE', *, *, #116, .F. ) ;
#101 =( GEOMETRIC_REPRESENTATION_CONTEXT ( 3 ) GLOBAL_UNCERTAINTY_ASSIGNED_CONTEXT ( ( #203 ) ) GLOBAL_UNIT_ASSIGNED_CONTEXT ( ( #13, #29, #214 ) ) REPRESENTATION_CONTEXT ( 'NONE', 'WORKASPACE' ) );
#102 = EDGE_CURVE ( 'NONE', #142, #35, #50, .T. ) ;
#103 = VERTEX_POINT ( 'NONE', #89 ) ;
#104 = FACE_BOUND ( 'NONE', #97, .T. ) ;
#105 = ORIENTED_EDGE ( 'NONE', *, *, #65, .F. ) ;
#106 = AXIS2_PLACEMENT_3D ( 'NONE', #115, #113, #213 ) ;
#107 = CARTESIAN_POINT ( 'NONE',  ( 0.0000000000000000000, 0.0000000000000000000, 0.0000000000000000000 ) ) ;
#108 = CARTESIAN_POINT ( 'NONE',  ( 0.0000000000000000000, 9.500000000000000000, -12.25000000000000000 ) ) ;
#109 = FACE_OUTER_BOUND ( 'NONE', #43, .T. ) ;
#110 = DIRECTION ( 'NONE',  ( 0.0000000000000000000, 0.0000000000000000000, 1.000000000000000000 ) ) ;
#111 = AXIS2_PLACEMENT_3D ( 'NONE', #161, #175, #52 ) ;
#112 = DIRECTION ( 'NONE',  ( 0.0000000000000000000, 0.0000000000000000000, 1.000000000000000000 ) ) ;
#113 = DIRECTION ( 'NONE',  ( 0.0000000000000000000, 1.000000000000000000, 0.0000000000000000000 ) ) ;
#114 = ORIENTED_EDGE ( 'NONE', *, *, #63, .T. ) ;
#115 = CARTESIAN_POINT ( 'NONE',  ( 0.0000000000000000000, 9.500000000000000000, 0.0000000000000000000 ) ) ;
#116 = EDGE_CURVE ( 'NONE', #21, #168, #149, .T. ) ;
#117 = ADVANCED_FACE ( 'NONE', ( #42 ), #1, .F. ) ;
#118 = VECTOR ( 'NONE', #137, 1000.000000000000000 ) ;
#119 = UNCERTAINTY_MEASURE_WITH_UNIT (LENGTH_MEASURE( 1.000000000000000100E-005 ), #61, 'distance_accuracy_value', 'NONE');
#120 = AXIS2_PLACEMENT_3D ( 'NONE', #31, #195, #112 ) ;
#121 = ORIENTED_EDGE ( 'NONE', *, *, #22, .F. ) ;
#122 = ORIENTED_EDGE ( 'NONE', *, *, #65, .T. ) ;
#123 = CARTESIAN_POINT ( 'NONE',  ( 0.0000000000000000000, 0.0000000000000000000, 0.0000000000000000000 ) ) ;
#124 = DIRECTION ( 'NONE',  ( -0.0000000000000000000, -1.000000000000000000, -0.0000000000000000000 ) ) ;
#125 = FACE_OUTER_BOUND ( 'NONE', #200, .T. ) ;
#126 = DIRECTION ( 'NONE',  ( 0.0000000000000000000, 1.000000000000000000, 0.0000000000000000000 ) ) ;
#127 = AXIS2_PLACEMENT_3D ( 'NONE', #107, #212, #11 ) ;
#128 = FACE_OUTER_BOUND ( 'NONE', #189, .T. ) ;
#129 = CIRCLE ( 'NONE', #78, 12.25000000000000000 ) ;
#130 = SHAPE_DEFINITION_REPRESENTATION ( #37, #53 ) ;
#131 = EDGE_CURVE ( 'NONE', #142, #103, #5, .T. ) ;
#132 = DIRECTION ( 'NONE',  ( -0.0000000000000000000, -1.000000000000000000, -0.0000000000000000000 ) ) ;
#133 = CARTESIAN_POINT ( 'NONE',  ( 0.0000000000000000000, 9.500000000000000000, 0.0000000000000000000 ) ) ;
#134 = EDGE_LOOP ( 'NONE', ( #30, #100, #206, #2 ) ) ;
#135 = DIRECTION ( 'NONE',  ( -0.0000000000000000000, -1.000000000000000000, -0.0000000000000000000 ) ) ;
#136 = AXIS2_PLACEMENT_3D ( 'NONE', #34, #176, #160 ) ;
#137 = DIRECTION ( 'NONE',  ( -0.0000000000000000000, -1.000000000000000000, -0.0000000000000000000 ) ) ;
#138 = CARTESIAN_POINT ( 'NONE',  ( 0.0000000000000000000, 9.500000000000000000, 0.0000000000000000000 ) ) ;
#139 = STYLED_ITEM ( 'NONE', ( #81 ), #53 ) ;
#140 = CARTESIAN_POINT ( 'NONE',  ( 1.500192328955507700E-015, 9.500000000000000000, 12.25000000000000000 ) ) ;
#141 = SURFACE_STYLE_FILL_AREA ( #162 ) ;
#142 = VERTEX_POINT ( 'NONE', #140 ) ;
#143 = AXIS2_PLACEMENT_3D ( 'NONE', #138, #94, #191 ) ;
#144 = APPLICATION_CONTEXT ( 'automotive_design' ) ;
#145 = SURFACE_STYLE_USAGE ( .BOTH. , #15 ) ;
#146 = FACE_BOUND ( 'NONE', #55, .T. ) ;
#147 = ORIENTED_EDGE ( 'NONE', *, *, #193, .F. ) ;
#148 = PRESENTATION_LAYER_ASSIGNMENT (  '', '', ( #211 ) ) ;
#149 = CIRCLE ( 'NONE', #183, 16.89999999999999900 ) ;
#150 = PRODUCT_DEFINITION ( 'UNKNOWN', '', #41, #204 ) ;
#151 = ORIENTED_EDGE ( 'NONE', *, *, #54, .T. ) ;
#152 = ADVANCED_FACE ( 'NONE', ( #109, #104 ), #62, .F. ) ;
#153 = ORIENTED_EDGE ( 'NONE', *, *, #131, .T. ) ;
#154 =( GEOMETRIC_REPRESENTATION_CONTEXT ( 3 ) GLOBAL_UNCERTAINTY_ASSIGNED_CONTEXT ( ( #119 ) ) GLOBAL_UNIT_ASSIGNED_CONTEXT ( ( #61, #96, #197 ) ) REPRESENTATION_CONTEXT ( 'NONE', 'WORKASPACE' ) );
#155 = CARTESIAN_POINT ( 'NONE',  ( 1.500192328955507700E-015, 9.500000000000000000, 12.25000000000000000 ) ) ;
#156 = DIRECTION ( 'NONE',  ( 0.0000000000000000000, 1.000000000000000000, 0.0000000000000000000 ) ) ;
#157 = ADVANCED_FACE ( 'NONE', ( #125, #146 ), #92, .T. ) ;
#158 = DIRECTION ( 'NONE',  ( 0.0000000000000000000, 1.000000000000000000, 0.0000000000000000000 ) ) ;
#159 = ORIENTED_EDGE ( 'NONE', *, *, #20, .F. ) ;
#160 = DIRECTION ( 'NONE',  ( 0.0000000000000000000, -0.0000000000000000000, 1.000000000000000000 ) ) ;
#161 = CARTESIAN_POINT ( 'NONE',  ( 0.0000000000000000000, 9.500000000000000000, 0.0000000000000000000 ) ) ;
#162 = FILL_AREA_STYLE ('',( #51 ) ) ;
#163 = ORIENTED_EDGE ( 'NONE', *, *, #102, .F. ) ;
#164 = CARTESIAN_POINT ( 'NONE',  ( 0.0000000000000000000, 9.500000000000000000, 0.0000000000000000000 ) ) ;
#165 = MANIFOLD_SOLID_BREP ( 'Boss.-Extru.1', #46 ) ;
#166 =( NAMED_UNIT ( * ) SI_UNIT ( $, .STERADIAN. ) SOLID_ANGLE_UNIT ( ) );
#167 = APPLICATION_CONTEXT ( 'automotive_design' ) ;
#168 = VERTEX_POINT ( 'NONE', #77 ) ;
#169 = LINE ( 'NONE', #23, #60 ) ;
#170 = PRODUCT ( 'Bague alu', 'Bague alu', '', ( #36 ) ) ;
#171 = CARTESIAN_POINT ( 'NONE',  ( 0.0000000000000000000, 0.0000000000000000000, 0.0000000000000000000 ) ) ;
#172 = CARTESIAN_POINT ( 'NONE',  ( 0.0000000000000000000, 9.500000000000000000, -16.89999999999999900 ) ) ;
#173 = DIRECTION ( 'NONE',  ( 0.0000000000000000000, 1.000000000000000000, 0.0000000000000000000 ) ) ;
#174 = ADVANCED_FACE ( 'NONE', ( #93 ), #24, .T. ) ;
#175 = DIRECTION ( 'NONE',  ( -0.0000000000000000000, -1.000000000000000000, -0.0000000000000000000 ) ) ;
#176 = DIRECTION ( 'NONE',  ( 0.0000000000000000000, 1.000000000000000000, 0.0000000000000000000 ) ) ;
#177 = ORIENTED_EDGE ( 'NONE', *, *, #131, .F. ) ;
#178 = VERTEX_POINT ( 'NONE', #59 ) ;
#179 = SURFACE_SIDE_STYLE ('',( #141 ) ) ;
#180 = CARTESIAN_POINT ( 'NONE',  ( 0.0000000000000000000, 0.0000000000000000000, 0.0000000000000000000 ) ) ;
#181 = LINE ( 'NONE', #108, #86 ) ;
#182 =( NAMED_UNIT ( * ) PLANE_ANGLE_UNIT ( ) SI_UNIT ( $, .RADIAN. ) );
#183 = AXIS2_PLACEMENT_3D ( 'NONE', #91, #126, #4 ) ;
#184 = CYLINDRICAL_SURFACE ( 'NONE', #186, 12.25000000000000000 ) ;
#185 = ORIENTED_EDGE ( 'NONE', *, *, #193, .T. ) ;
#186 = AXIS2_PLACEMENT_3D ( 'NONE', #187, #132, #45 ) ;
#187 = CARTESIAN_POINT ( 'NONE',  ( 0.0000000000000000000, 9.500000000000000000, 0.0000000000000000000 ) ) ;
#188 = FACE_OUTER_BOUND ( 'NONE', #134, .T. ) ;
#189 = EDGE_LOOP ( 'NONE', ( #185, #26, #72, #69 ) ) ;
#190 = ADVANCED_FACE ( 'NONE', ( #188 ), #8, .T. ) ;
#191 = DIRECTION ( 'NONE',  ( 0.0000000000000000000, 0.0000000000000000000, -1.000000000000000000 ) ) ;
#192 = ORIENTED_EDGE ( 'NONE', *, *, #54, .F. ) ;
#193 = EDGE_CURVE ( 'NONE', #103, #142, #129, .T. ) ;
#194 = FILL_AREA_STYLE_COLOUR ( '', #198 ) ;
#195 = DIRECTION ( 'NONE',  ( 0.0000000000000000000, 1.000000000000000000, 0.0000000000000000000 ) ) ;
#196 = FILL_AREA_STYLE ('',( #194 ) ) ;
#197 =( NAMED_UNIT ( * ) SI_UNIT ( $, .STERADIAN. ) SOLID_ANGLE_UNIT ( ) );
#198 = COLOUR_RGB ( '',0.7921568627450980000, 0.8196078431372548800, 0.9333333333333333500 ) ;
#199 = AXIS2_PLACEMENT_3D ( 'NONE', #47, #158, #14 ) ;
#200 = EDGE_LOOP ( 'NONE', ( #90, #151 ) ) ;
#201 = EDGE_CURVE ( 'NONE', #103, #88, #181, .T. ) ;
#202 = SURFACE_STYLE_FILL_AREA ( #196 ) ;
#203 = UNCERTAINTY_MEASURE_WITH_UNIT (LENGTH_MEASURE( 1.000000000000000100E-005 ), #13, 'distance_accuracy_value', 'NONE');
#204 = PRODUCT_DEFINITION_CONTEXT ( 'detailed design', #167, 'design' ) ;
#205 = COLOUR_RGB ( '',0.7921568627450980000, 0.8196078431372548800, 0.9333333333333333500 ) ;
#206 = ORIENTED_EDGE ( 'NONE', *, *, #22, .T. ) ;
#207 = EDGE_CURVE ( 'NONE', #178, #73, #66, .T. ) ;
#208 = ORIENTED_EDGE ( 'NONE', *, *, #20, .T. ) ;
#209 = DIRECTION ( 'NONE',  ( -0.0000000000000000000, -1.000000000000000000, -0.0000000000000000000 ) ) ;
#210 = DIRECTION ( 'NONE',  ( 0.0000000000000000000, 0.0000000000000000000, 1.000000000000000000 ) ) ;
#211 = STYLED_ITEM ( 'NONE', ( #17 ), #165 ) ;
#212 = DIRECTION ( 'NONE',  ( 0.0000000000000000000, 1.000000000000000000, 0.0000000000000000000 ) ) ;
#213 = DIRECTION ( 'NONE',  ( 0.0000000000000000000, 0.0000000000000000000, 1.000000000000000000 ) ) ;
#214 =( NAMED_UNIT ( * ) SI_UNIT ( $, .STERADIAN. ) SOLID_ANGLE_UNIT ( ) );
ENDSEC;
END-ISO-10303-21;
